  0
SECTION
  2
HEADER
  9
$ACADVER
  1
AC1009
  9
$INSBASE
 10
0.0
 20
0.0
 30
0.0
  9
$EXTMIN
 10
0.0
 20
-1.4802182810368341
 30
0.0
  9
$EXTMAX
 10
92.152959012133977
 20
83.760822282137525
 30
0.0
  9
$LIMMIN
 10
0.0
 20
0.0
  9
$LIMMAX
 10
12.0
 20
9.0
  9
$ORTHOMODE
 70
     0
  9
$REGENMODE
 70
     1
  9
$FILLMODE
 70
     1
  9
$QTEXTMODE
 70
     0
  9
$MIRRTEXT
 70
     0
  9
$DRAGMODE
 70
     2
  9
$LTSCALE
 40
5.0
  9
$OSMODE
 70
  3071
  9
$ATTMODE
 70
     1
  9
$TEXTSIZE
 40
0.2
  9
$TRACEWID
 40
0.05
  9
$TEXTSTYLE
  7
STANDARD
  9
$CLAYER
  8
0
  9
$CELTYPE
  6
BYLAYER
  9
$CECOLOR
 62
   256
  9
$DIMSCALE
 40
1.0
  9
$DIMASZ
 40
0.18
  9
$DIMEXO
 40
0.0625
  9
$DIMDLI
 40
0.38
  9
$DIMRND
 40
0.0
  9
$DIMDLE
 40
0.0
  9
$DIMEXE
 40
0.18
  9
$DIMTP
 40
0.0
  9
$DIMTM
 40
0.0
  9
$DIMTXT
 40
0.18
  9
$DIMCEN
 40
0.09
  9
$DIMTSZ
 40
0.0
  9
$DIMTOL
 70
     0
  9
$DIMLIM
 70
     0
  9
$DIMTIH
 70
     1
  9
$DIMTOH
 70
     1
  9
$DIMSE1
 70
     0
  9
$DIMSE2
 70
     0
  9
$DIMTAD
 70
     0
  9
$DIMZIN
 70
     0
  9
$DIMBLK
  1

  9
$DIMASO
 70
     1
  9
$DIMSHO
 70
     1
  9
$DIMPOST
  1

  9
$DIMAPOST
  1

  9
$DIMALT
 70
     0
  9
$DIMALTD
 70
     2
  9
$DIMALTF
 40
25.399999999999999
  9
$DIMLFAC
 40
1.0
  9
$DIMTOFL
 70
     0
  9
$DIMTVP
 40
0.0
  9
$DIMTIX
 70
     0
  9
$DIMSOXD
 70
     0
  9
$DIMSAH
 70
     0
  9
$DIMBLK1
  1

  9
$DIMBLK2
  1

  9
$DIMSTYLE
  2
STANDARD
  9
$DIMCLRD
 70
     0
  9
$DIMCLRE
 70
     0
  9
$DIMCLRT
 70
     0
  9
$DIMTFAC
 40
1.0
  9
$DIMGAP
 40
0.09
  9
$LUNITS
 70
     2
  9
$LUPREC
 70
     4
  9
$SKETCHINC
 40
0.1
  9
$FILLETRAD
 40
0.0
  9
$AUNITS
 70
     0
  9
$AUPREC
 70
     0
  9
$MENU
  1
.
  9
$ELEVATION
 40
0.0
  9
$PELEVATION
 40
0.0
  9
$THICKNESS
 40
0.0
  9
$LIMCHECK
 70
     0
  9
$BLIPMODE
 70
     0
  9
$CHAMFERA
 40
0.0
  9
$CHAMFERB
 40
0.0
  9
$SKPOLY
 70
     0
  9
$TDCREATE
 40
2453083.4120647679
  9
$TDUPDATE
 40
2456598.430157118
  9
$TDINDWG
 40
0.1491621296
  9
$TDUSRTIMER
 40
0.1491620139
  9
$USRTIMER
 70
     1
  9
$ANGBASE
 50
0.0
  9
$ANGDIR
 70
     0
  9
$PDMODE
 70
     0
  9
$PDSIZE
 40
0.0
  9
$PLINEWID
 40
0.0
  9
$COORDS
 70
     1
  9
$SPLFRAME
 70
     0
  9
$SPLINETYPE
 70
     6
  9
$SPLINESEGS
 70
     8
  9
$ATTDIA
 70
     0
  9
$ATTREQ
 70
     1
  9
$HANDLING
 70
     1
  9
$HANDSEED
  5
31F
  9
$SURFTAB1
 70
     6
  9
$SURFTAB2
 70
     6
  9
$SURFTYPE
 70
     6
  9
$SURFU
 70
     6
  9
$SURFV
 70
     6
  9
$UCSNAME
  2

  9
$UCSORG
 10
0.0
 20
0.0
 30
0.0
  9
$UCSXDIR
 10
1.0
 20
0.0
 30
0.0
  9
$UCSYDIR
 10
0.0
 20
1.0
 30
0.0
  9
$PUCSNAME
  2

  9
$PUCSORG
 10
0.0
 20
0.0
 30
0.0
  9
$PUCSXDIR
 10
1.0
 20
0.0
 30
0.0
  9
$PUCSYDIR
 10
0.0
 20
1.0
 30
0.0
  9
$USERI1
 70
     0
  9
$USERI2
 70
     1
  9
$USERI3
 70
     0
  9
$USERI4
 70
     0
  9
$USERI5
 70
     0
  9
$USERR1
 40
0.0
  9
$USERR2
 40
0.0
  9
$USERR3
 40
0.0
  9
$USERR4
 40
0.0
  9
$USERR5
 40
0.0
  9
$WORLDVIEW
 70
     1
  9
$SHADEDGE
 70
     3
  9
$SHADEDIF
 70
    70
  9
$TILEMODE
 70
     1
  9
$MAXACTVP
 70
    64
  9
$PLIMCHECK
 70
     0
  9
$PEXTMIN
 10
0.0
 20
0.0
 30
0.0
  9
$PEXTMAX
 10
0.0
 20
0.0
 30
0.0
  9
$PLIMMIN
 10
0.0
 20
0.0
  9
$PLIMMAX
 10
12.0
 20
9.0
  9
$UNITMODE
 70
     0
  9
$VISRETAIN
 70
     1
  9
$PLINEGEN
 70
     0
  9
$PSLTSCALE
 70
     1
  0
ENDSEC
  0
SECTION
  2
TABLES
  0
TABLE
  2
VPORT
 70
     1
  0
VPORT
  2
*ACTIVE
 70
     0
 10
0.0
 20
0.0
 11
1.0
 21
1.0
 12
48.438624085097032
 22
41.139119878261909
 13
0.0
 23
0.0
 14
0.5
 24
0.5
 15
0.5
 25
0.5
 16
0.0
 26
0.0
 36
1.0
 17
0.0
 27
0.0
 37
0.0
 40
86.013078248214157
 41
1.831871345029239
 42
50.0
 43
0.0
 44
0.0
 50
0.0
 51
0.0
 71
     0
 72
  1000
 73
     1
 74
     2
 75
     0
 76
     0
 77
     0
 78
     0
  0
ENDTAB
  0
TABLE
  2
LTYPE
 70
     3
  0
LTYPE
  2
CONTINUOUS
 70
     0
  3
Solid Line
 72
    65
 73
     0
 40
0.0
  0
LTYPE
  2
CENTER
 70
     0
  3
____ _ ____ _ ____ _ ____ _ ____ _ ____ _ ____
 72
    65
 73
     4
 40
2.0
 49
1.25
 49
-0.25
 49
0.25
 49
-0.25
  0
LTYPE
  2
PHANTOM2
 70
     0
  3
___ _ _ ___ _ _ ___ _ _ ___ _ _
 72
    65
 73
     6
 40
1.25
 49
0.625
 49
-0.125
 49
0.125
 49
-0.125
 49
0.125
 49
-0.125
  0
ENDTAB
  0
TABLE
  2
LAYER
 70
     3
  0
LAYER
  2
0
 70
     0
 62
     7
  6
CONTINUOUS
  0
LAYER
  2
1
 70
     0
 62
     1
  6
CENTER
  0
LAYER
  2
3
 70
     0
 62
     3
  6
CONTINUOUS
  0
ENDTAB
  0
TABLE
  2
STYLE
 70
     2
  0
STYLE
  2
STANDARD
 70
     0
 40
0.0
 41
1.0
 50
0.0
 71
     0
 42
0.2
  3
simplex.shx
  4
bigfont.shx
  0
STYLE
  2
STANDARD1
 70
     0
 40
0.0
 41
1.0
 50
0.0
 71
     0
 42
3.0
  3
txt
  4

  0
ENDTAB
  0
TABLE
  2
VIEW
 70
     0
  0
ENDTAB
  0
TABLE
  2
UCS
 70
     0
  0
ENDTAB
  0
TABLE
  2
APPID
 70
     3
  0
APPID
  2
ACAD
 70
     0
  0
APPID
  2
ACAD_MLEADERVER
 70
     0
  0
APPID
  2
ACAD_NAV_VCDISPLAY
 70
     0
  0
ENDTAB
  0
TABLE
  2
DIMSTYLE
 70
     1
  0
DIMSTYLE
  2
STANDARD
 70
     0
  3

  4

  5

  6

  7

 40
1.0
 41
0.18
 42
0.0625
 43
0.38
 44
0.18
 45
0.0
 46
0.0
 47
0.0
 48
0.0
140
0.18
141
0.09
142
0.0
143
25.399999999999999
144
1.0
145
0.0
146
1.0
147
0.09
 71
     0
 72
     0
 73
     1
 74
     1
 75
     0
 76
     0
 77
     0
 78
     0
170
     0
171
     2
172
     0
173
     0
174
     0
175
     0
176
     0
177
     0
178
     0
  0
ENDTAB
  0
ENDSEC
  0
SECTION
  2
BLOCKS
  0
BLOCK
  8
0
  2
$MODEL_SPACE
 70
     0
 10
0.0
 20
0.0
 30
0.0
  3
$MODEL_SPACE
  1

  0
ENDBLK
  5
21
  8
0
  0
BLOCK
 67
     1
  8
0
  2
$PAPER_SPACE
 70
     0
 10
0.0
 20
0.0
 30
0.0
  3
$PAPER_SPACE
  1

  0
ENDBLK
  5
5B
 67
     1
  8
0
  0
ENDSEC
  0
SECTION
  2
ENTITIES
  0
ARC
  5
18A
  8
0
 10
39.773049859686289
 20
27.989215277265341
 30
0.0
 40
12.275506638416489
 50
69.743841999607298
 51
110.2561580003928
  0
ARC
  5
18B
  8
0
 10
48.273049859686303
 20
27.989215277265341
 30
0.0
 40
12.275506638416489
 50
69.743841999607298
 51
110.2561580003928
  0
LINE
  5
18C
  8
0
 10
92.152959012133778
 20
39.505532537127813
 30
0.0
 11
91.577666385039876
 21
39.837677890243299
 31
0.0
  0
ARC
  5
18D
  8
0
 10
89.699220368077974
 20
35.919823243358401
 30
0.0
 40
4.3448986723233833
 50
64.384247467891299
 51
124.384247468007
  0
LINE
  5
18E
  8
0
 10
72.523049859686679
 20
39.505532537127813
 30
0.0
 11
73.098342486780595
 21
39.837677890243299
 31
0.0
  0
ARC
  5
18F
  8
0
 10
82.338004435909724
 20
24.0239112942152
 30
0.0
 40
16.24081062146659
 50
72.412046226029645
 51
107.5879537739703
  0
ARC
  5
190
  8
0
 10
74.976788503742483
 20
35.919823243358401
 30
0.0
 40
4.3448986723233833
 50
55.61575253199301
 51
115.6157525321087
  0
LINE
  5
191
  8
1
 10
82.338004435910406
 20
43.381374205687699
 30
0.0
 11
82.338004435910364
 21
18.35741043779413
 31
0.0
  0
LINE
  5
192
  8
3
 10
79.105004435910303
 20
20.890410437794149
 30
0.0
 11
79.105004435910303
 21
29.574410437794139
 31
0.0
  0
LINE
  5
193
  8
3
 10
85.571004435910297
 20
20.890410437794149
 30
0.0
 11
85.571004435910297
 21
29.574410437794139
 31
0.0
  0
LINE
  5
194
  8
0
 10
77.4305271477985
 20
39.505532537128182
 30
0.0
 11
77.430527147798443
 21
30.857410437794101
 31
0.0
  0
LINE
  5
195
  8
0
 10
87.245481724022113
 20
39.505532537127813
 30
0.0
 11
87.245481724022113
 21
30.857410437794101
 31
0.0
  0
LINE
  5
196
  8
0
 10
92.152959012133934
 20
39.859400681202352
 30
0.0
 11
92.152959012133934
 21
30.857410437794101
 31
0.0
  0
LINE
  5
197
  8
0
 10
72.523049859686694
 20
39.859400681202381
 30
0.0
 11
72.523049859686694
 21
30.857410437794101
 31
0.0
  0
LINE
  5
198
  8
0
 10
72.523049859686694
 20
30.857410437794101
 30
0.0
 11
92.152959012133934
 21
30.85741043779413
 31
0.0
  0
LINE
  5
199
  8
0
 10
79.138004435910318
 20
20.85741043779413
 30
0.0
 11
85.538004435910295
 21
20.85741043779413
 31
0.0
  0
LINE
  5
19A
  8
0
 10
78.338004435910307
 20
21.657410437794141
 30
0.0
 11
86.338004435910307
 21
21.657410437794141
 31
0.0
  0
LINE
  5
19B
  8
0
 10
78.338004435910307
 20
28.807410437794118
 30
0.0
 11
86.338004435910307
 21
28.807410437794118
 31
0.0
  0
LINE
  5
19C
  8
0
 10
79.138004435910318
 20
29.60741043779413
 30
0.0
 11
85.538004435910295
 21
29.60741043779413
 31
0.0
  0
ARC
  5
19D
  8
0
 10
83.765010395526275
 20
-1.64258956220712
 30
0.0
 40
42.500000000001208
 50
79.654697233457952
 51
90.0
  0
ARC
  5
19E
  8
0
 10
80.910998476294338
 20
-1.642589562207291
 30
0.0
 40
42.5000000000014
 50
90.0
 51
100.34530276654201
  0
LINE
  5
19F
  8
0
 10
83.765010395526275
 20
40.857410437794087
 30
0.0
 11
80.910998476294296
 21
40.857410437794087
 31
0.0
  0
ARC
  5
1A0
  8
0
 10
91.038004435910281
 20
38.199016300115233
 30
0.0
 40
2.0000000000000222
 50
56.118485681113953
 51
79.654697233457952
  0
ARC
  5
1A1
  8
0
 10
73.638004435910304
 20
38.199016300115197
 30
0.0
 40
2.000000000000052
 50
100.34530276654201
 51
123.881514318886
  0
LINE
  5
1A2
  8
0
 10
78.338004435910307
 20
21.657410437794141
 30
0.0
 11
79.138004435910318
 21
20.85741043779413
 31
0.0
  0
LINE
  5
1A3
  8
0
 10
85.538004435910295
 20
20.85741043779413
 30
0.0
 11
86.338004435910307
 21
21.657410437794141
 31
0.0
  0
LINE
  5
1A4
  8
0
 10
78.338004435910307
 20
28.807410437794118
 30
0.0
 11
78.338004435910307
 21
21.657410437794141
 31
0.0
  0
LINE
  5
1A5
  8
0
 10
86.338004435910307
 20
21.657410437794141
 30
0.0
 11
86.338004435910307
 21
28.807410437794118
 31
0.0
  0
LINE
  5
1A6
  8
0
 10
79.138004435910318
 20
29.60741043779413
 30
0.0
 11
78.338004435910307
 21
28.807410437794118
 31
0.0
  0
LINE
  5
1A7
  8
0
 10
86.338004435910307
 20
28.807410437794118
 30
0.0
 11
85.538004435910295
 21
29.60741043779413
 31
0.0
  0
LINE
  5
1A8
  8
0
 10
79.138004435910318
 20
30.85741043779413
 30
0.0
 11
79.138004435910318
 21
29.60741043779413
 31
0.0
  0
LINE
  5
1A9
  8
0
 10
85.538004435910295
 20
29.60741043779413
 30
0.0
 11
85.538004435910295
 21
30.85741043779413
 31
0.0
  0
LINE
  5
1AA
  8
1
 10
44.023049859686459
 20
45.85741043779413
 30
0.0
 11
44.023049859686473
 21
18.357410437794162
 31
0.0
  0
LINE
  5
1AB
  8
3
 10
40.790049859686512
 20
20.890410437794149
 30
0.0
 11
40.790049859686512
 21
29.574410437794171
 31
0.0
  0
LINE
  5
1AC
  8
3
 10
47.256049859686527
 20
20.890410437794149
 30
0.0
 11
47.256049859686527
 21
29.574410437794171
 31
0.0
  0
LINE
  5
1AD
  8
0
 10
52.523049859686523
 20
40.264721915681768
 30
0.0
 11
52.52304985968653
 21
30.857410437794162
 31
0.0
  0
LINE
  5
1AE
  8
0
 10
44.023049859686147
 20
39.505532537127813
 30
0.0
 11
44.023049859686147
 21
30.857410437794162
 31
0.0
  0
LINE
  5
1AF
  8
0
 10
35.523049859686523
 20
40.264721915681797
 30
0.0
 11
35.52304985968658
 21
30.857410437794162
 31
0.0
  0
LINE
  5
1B0
  8
0
 10
35.523049859686523
 20
30.857410437794162
 30
0.0
 11
52.52304985968653
 21
30.857410437794162
 31
0.0
  0
LINE
  5
1B1
  8
0
 10
40.823049859686527
 20
20.857410437794162
 30
0.0
 11
47.223049859686512
 21
20.857410437794162
 31
0.0
  0
LINE
  5
1B2
  8
0
 10
40.023049859686523
 20
21.657410437794141
 30
0.0
 11
48.023049859686523
 21
21.657410437794141
 31
0.0
  0
LINE
  5
1B3
  8
0
 10
40.023049859686523
 20
28.80741043779415
 30
0.0
 11
48.023049859686523
 21
28.80741043779415
 31
0.0
  0
LINE
  5
1B4
  8
0
 10
40.823049859686527
 20
29.607410437794162
 30
0.0
 11
47.223049859686512
 21
29.607410437794162
 31
0.0
  0
ARC
  5
1B5
  8
0
 10
45.450055819302463
 20
-1.642589562206296
 30
0.0
 40
42.500000000000433
 50
80.420067974402855
 51
90.0
  0
ARC
  5
1B6
  8
0
 10
42.59604390007047
 20
-1.6425895622064099
 30
0.0
 40
42.500000000000561
 50
90.0
 51
99.579932025597131
  0
LINE
  5
1B7
  8
0
 10
45.450055819302463
 20
40.857410437794158
 30
0.0
 11
42.59604390007047
 21
40.857410437794158
 31
0.0
  0
LINE
  5
1B8
  8
0
 10
40.023049859686523
 20
21.657410437794141
 30
0.0
 11
40.823049859686527
 21
20.857410437794162
 31
0.0
  0
LINE
  5
1B9
  8
0
 10
47.223049859686512
 20
20.857410437794162
 30
0.0
 11
48.023049859686523
 21
21.657410437794141
 31
0.0
  0
LINE
  5
1BA
  8
0
 10
40.023049859686523
 20
28.80741043779415
 30
0.0
 11
40.023049859686523
 21
21.657410437794141
 31
0.0
  0
LINE
  5
1BB
  8
0
 10
48.023049859686523
 20
21.657410437794141
 30
0.0
 11
48.023049859686523
 21
28.80741043779415
 31
0.0
  0
LINE
  5
1BC
  8
0
 10
40.823049859686527
 20
29.607410437794162
 30
0.0
 11
40.023049859686523
 21
28.80741043779415
 31
0.0
  0
LINE
  5
1BD
  8
0
 10
48.023049859686523
 20
28.80741043779415
 30
0.0
 11
47.223049859686512
 21
29.607410437794162
 31
0.0
  0
LINE
  5
1BE
  8
0
 10
40.823049859686527
 20
30.857410437794162
 30
0.0
 11
40.823049859686527
 21
29.607410437794162
 31
0.0
  0
LINE
  5
1BF
  8
0
 10
47.223049859686512
 20
29.607410437794162
 30
0.0
 11
47.223049859686512
 21
30.857410437794162
 31
0.0
  0
LINE
  5
1C0
  8
0
 10
44.023049859686402
 20
61.244161783742221
 30
0.0
 11
52.523049859686409
 21
66.151639071853964
 31
0.0
  0
LINE
  5
1C1
  8
0
 10
52.523049859686353
 20
66.151639071853992
 30
0.0
 11
52.523049859686409
 21
75.966593648077733
 31
0.0
  0
LINE
  5
1C2
  8
0
 10
52.523049859686409
 20
75.966593648077733
 30
0.0
 11
44.023049859686353
 21
80.87407093618944
 31
0.0
  0
LINE
  5
1C3
  8
0
 10
35.523049859686473
 20
75.966593648077691
 30
0.0
 11
35.523049859686473
 21
66.151639071853964
 31
0.0
  0
LINE
  5
1C4
  8
0
 10
44.023049859686523
 20
80.874070936189483
 30
0.0
 11
35.523049859686473
 21
75.966593648077691
 31
0.0
  0
LINE
  5
1C5
  8
0
 10
35.523049859686473
 20
66.151639071853964
 30
0.0
 11
44.023049859686473
 21
61.244161783742221
 31
0.0
  0
LINE
  5
1C6
  8
1
 10
33.023049859686473
 20
71.059116359965827
 30
0.0
 11
55.023049859686353
 21
71.059116359965827
 31
0.0
  0
LINE
  5
1C7
  8
1
 10
44.023049859686473
 20
58.357410437794101
 30
0.0
 11
44.023049859686402
 21
83.760822282137525
 31
0.0
  0
TEXT
  5
28B
  8
0
 62
     3
 10
0.0
 20
0.0
 30
0.0
 40
5.0
  1
BJ811-08010-R
  7
STANDARD1
  0
ENDSEC
  0
EOF
