  0
SECTION
  2
HEADER
  9
$ACADVER
  1
AC1009
  9
$INSBASE
 10
0.0
 20
0.0
 30
0.0
  9
$EXTMIN
 10
0.0
 20
-1.4802182810368341
 30
0.0
  9
$EXTMAX
 10
72.323186102908721
 20
46.822662932788369
 30
0.0
  9
$LIMMIN
 10
0.0
 20
0.0
  9
$LIMMAX
 10
270.0
 20
175.0
  9
$ORTHOMODE
 70
     1
  9
$REGENMODE
 70
     1
  9
$FILLMODE
 70
     1
  9
$QTEXTMODE
 70
     0
  9
$MIRRTEXT
 70
     0
  9
$DRAGMODE
 70
     2
  9
$LTSCALE
 40
10.0
  9
$OSMODE
 70
  3071
  9
$ATTMODE
 70
     1
  9
$TEXTSIZE
 40
0.2
  9
$TRACEWID
 40
0.05
  9
$TEXTSTYLE
  7
STANDARD
  9
$CLAYER
  8
3
  9
$CELTYPE
  6
BYLAYER
  9
$CECOLOR
 62
   256
  9
$DIMSCALE
 40
1.0
  9
$DIMASZ
 40
3.0
  9
$DIMEXO
 40
2.0
  9
$DIMDLI
 40
0.38
  9
$DIMRND
 40
0.0
  9
$DIMDLE
 40
0.0
  9
$DIMEXE
 40
2.0
  9
$DIMTP
 40
0.0
  9
$DIMTM
 40
0.0
  9
$DIMTXT
 40
3.2000000000000002
  9
$DIMCEN
 40
0.0
  9
$DIMTSZ
 40
0.0
  9
$DIMTOL
 70
     0
  9
$DIMLIM
 70
     0
  9
$DIMTIH
 70
     0
  9
$DIMTOH
 70
     0
  9
$DIMSE1
 70
     0
  9
$DIMSE2
 70
     0
  9
$DIMTAD
 70
     1
  9
$DIMZIN
 70
     0
  9
$DIMBLK
  1

  9
$DIMASO
 70
     0
  9
$DIMSHO
 70
     0
  9
$DIMPOST
  1

  9
$DIMAPOST
  1

  9
$DIMALT
 70
     0
  9
$DIMALTD
 70
     2
  9
$DIMALTF
 40
25.399999999999999
  9
$DIMLFAC
 40
1.0
  9
$DIMTOFL
 70
     1
  9
$DIMTVP
 40
1.6000000000000001
  9
$DIMTIX
 70
     1
  9
$DIMSOXD
 70
     0
  9
$DIMSAH
 70
     0
  9
$DIMBLK1
  1

  9
$DIMBLK2
  1

  9
$DIMSTYLE
  2
STANDARD
  9
$DIMCLRD
 70
     0
  9
$DIMCLRE
 70
     0
  9
$DIMCLRT
 70
     0
  9
$DIMTFAC
 40
1.0
  9
$DIMGAP
 40
0.09
  9
$LUNITS
 70
     2
  9
$LUPREC
 70
     4
  9
$SKETCHINC
 40
0.1
  9
$FILLETRAD
 40
0.0
  9
$AUNITS
 70
     1
  9
$AUPREC
 70
     4
  9
$MENU
  1
E:\r13\win\SUPPORT\ACAD
  9
$ELEVATION
 40
0.0
  9
$PELEVATION
 40
0.0
  9
$THICKNESS
 40
0.0
  9
$LIMCHECK
 70
     0
  9
$BLIPMODE
 70
     0
  9
$CHAMFERA
 40
0.0
  9
$CHAMFERB
 40
0.0
  9
$SKPOLY
 70
     0
  9
$TDCREATE
 40
2449839.7803587969
  9
$TDUPDATE
 40
2456598.4289206248
  9
$TDINDWG
 40
0.0308172801
  9
$TDUSRTIMER
 40
0.0308172801
  9
$USRTIMER
 70
     1
  9
$ANGBASE
 50
0.0
  9
$ANGDIR
 70
     0
  9
$PDMODE
 70
     0
  9
$PDSIZE
 40
0.0
  9
$PLINEWID
 40
0.0
  9
$COORDS
 70
     1
  9
$SPLFRAME
 70
     0
  9
$SPLINETYPE
 70
     6
  9
$SPLINESEGS
 70
     8
  9
$ATTDIA
 70
     0
  9
$ATTREQ
 70
     1
  9
$HANDLING
 70
     1
  9
$HANDSEED
  5
845
  9
$SURFTAB1
 70
     6
  9
$SURFTAB2
 70
     6
  9
$SURFTYPE
 70
     6
  9
$SURFU
 70
     6
  9
$SURFV
 70
     6
  9
$UCSNAME
  2

  9
$UCSORG
 10
0.0
 20
0.0
 30
0.0
  9
$UCSXDIR
 10
1.0
 20
0.0
 30
0.0
  9
$UCSYDIR
 10
0.0
 20
1.0
 30
0.0
  9
$PUCSNAME
  2

  9
$PUCSORG
 10
0.0
 20
0.0
 30
0.0
  9
$PUCSXDIR
 10
1.0
 20
0.0
 30
0.0
  9
$PUCSYDIR
 10
0.0
 20
1.0
 30
0.0
  9
$USERI1
 70
     0
  9
$USERI2
 70
     1
  9
$USERI3
 70
     0
  9
$USERI4
 70
     0
  9
$USERI5
 70
     0
  9
$USERR1
 40
0.0
  9
$USERR2
 40
0.0
  9
$USERR3
 40
0.0
  9
$USERR4
 40
0.0
  9
$USERR5
 40
0.0
  9
$WORLDVIEW
 70
     1
  9
$SHADEDGE
 70
     3
  9
$SHADEDIF
 70
    70
  9
$TILEMODE
 70
     1
  9
$MAXACTVP
 70
    16
  9
$PLIMCHECK
 70
     0
  9
$PEXTMIN
 10
1.0000000000000000E+020
 20
1.0000000000000000E+020
 30
1.0000000000000000E+020
  9
$PEXTMAX
 10
-1.0000000000000000E+020
 20
-1.0000000000000000E+020
 30
-1.0000000000000000E+020
  9
$PLIMMIN
 10
0.0
 20
0.0
  9
$PLIMMAX
 10
12.0
 20
9.0
  9
$UNITMODE
 70
     0
  9
$VISRETAIN
 70
     0
  9
$PLINEGEN
 70
     0
  9
$PSLTSCALE
 70
     0
  0
ENDSEC
  0
SECTION
  2
TABLES
  0
TABLE
  2
VPORT
 70
     1
  0
VPORT
  2
*ACTIVE
 70
     0
 10
0.0
 20
0.0
 11
1.0
 21
1.0
 12
139.88615432881801
 22
86.756324970927466
 13
0.0
 23
0.0
 14
10.0
 24
10.0
 15
10.0
 25
10.0
 16
0.0
 26
0.0
 36
1.0
 17
0.0
 27
0.0
 37
0.0
 40
178.07019624700729
 41
1.831871345029239
 42
50.0
 43
0.0
 44
0.0
 50
0.0
 51
0.0
 71
     0
 72
   500
 73
     1
 74
     0
 75
     0
 76
     0
 77
     0
 78
     2
  0
ENDTAB
  0
TABLE
  2
LTYPE
 70
     4
  0
LTYPE
  2
CONTINUOUS
 70
     0
  3
Solid Line
 72
    65
 73
     0
 40
0.0
  0
LTYPE
  2
CENTER
 70
     0
  3
____ _ ____ _ ____ _ ____ _ ____ _ ____ _ ____
 72
    65
 73
     4
 40
2.0
 49
1.25
 49
-0.25
 49
0.25
 49
-0.25
  0
LTYPE
  2
HIDDEN
 70
     0
  3
__ __ __ __ __ __ __ __ __ __ __ __ __ __ __ __
 72
    65
 73
     2
 40
0.375
 49
0.25
 49
-0.125
  0
LTYPE
  2
PHANTOM2
 70
     0
  3
___ _ _ ___ _ _ ___ _ _ ___ _ _
 72
    65
 73
     6
 40
1.25
 49
0.625
 49
-0.125
 49
0.125
 49
-0.125
 49
0.125
 49
-0.125
  0
ENDTAB
  0
TABLE
  2
LAYER
 70
     5
  0
LAYER
  2
0
 70
     0
 62
     7
  6
CONTINUOUS
  0
LAYER
  2
1
 70
     0
 62
     1
  6
CENTER
  0
LAYER
  2
2
 70
     0
 62
     2
  6
HIDDEN
  0
LAYER
  2
3
 70
     0
 62
     3
  6
CONTINUOUS
  0
LAYER
  2
ITTEN
 70
     0
 62
     1
  6
CENTER
  0
ENDTAB
  0
TABLE
  2
STYLE
 70
     2
  0
STYLE
  2
STANDARD
 70
     0
 40
0.0
 41
1.0
 50
0.0
 71
     0
 42
0.2
  3
TXT
  4
BIGFONT
  0
STYLE
  2
STANDARD1
 70
     0
 40
0.0
 41
1.0
 50
0.0
 71
     0
 42
3.0
  3
txt
  4

  0
ENDTAB
  0
TABLE
  2
VIEW
 70
     1
  0
VIEW
  2
ALL
 70
     0
 40
179.5384664489153
 10
135.0
 20
89.769233224457665
 41
0.0
 11
0.0
 21
0.0
 31
1.0
 12
0.0
 22
0.0
 32
0.0
 42
0.0
 43
0.0
 44
0.0
 50
0.0
 71
     0
  0
ENDTAB
  0
TABLE
  2
UCS
 70
     0
  0
ENDTAB
  0
TABLE
  2
APPID
 70
     5
  0
APPID
  2
ACAD
 70
     0
  0
APPID
  2
GENIUS_GENODEF_13
 70
     0
  0
APPID
  2
GENIUS_GENOBJ-N-FIL_13
 70
     0
  0
APPID
  2
ACAD_MLEADERVER
 70
     0
  0
APPID
  2
ACAD_NAV_VCDISPLAY
 70
     0
  0
ENDTAB
  0
TABLE
  2
DIMSTYLE
 70
     1
  0
DIMSTYLE
  2
STANDARD
 70
     0
  3

  4

  5

  6

  7

 40
1.0
 41
0.18
 42
0.0625
 43
0.38
 44
0.18
 45
0.0
 46
0.0
 47
0.0
 48
0.0
140
0.18
141
0.09
142
0.0
143
25.399999999999999
144
1.0
145
0.0
146
1.0
147
0.09
 71
     0
 72
     0
 73
     1
 74
     1
 75
     0
 76
     0
 77
     0
 78
     0
170
     0
171
     2
172
     0
173
     0
174
     0
175
     0
176
     0
177
     0
178
     0
  0
ENDTAB
  0
ENDSEC
  0
SECTION
  2
BLOCKS
  0
BLOCK
  8
0
  2
$MODEL_SPACE
 70
     0
 10
0.0
 20
0.0
 30
0.0
  3
$MODEL_SPACE
  1

  0
ENDBLK
  5
6F7
  8
0
  0
BLOCK
 67
     1
  8
0
  2
$PAPER_SPACE
 70
     0
 10
0.0
 20
0.0
 30
0.0
  3
$PAPER_SPACE
  1

  0
ENDBLK
  5
6F5
 67
     1
  8
0
  0
BLOCK
  8
0
  2
BATU
 70
     0
 10
0.0
 20
0.0
 30
0.0
  3
BATU
  1

  0
LINE
  5
62A
  8
ITTEN
 10
0.5
 20
0.0
 30
0.0
 11
-0.5
 21
0.0
 31
0.0
  0
LINE
  5
62B
  8
ITTEN
 10
0.0
 20
0.5
 30
0.0
 11
0.0
 21
-0.5
 31
0.0
  0
ENDBLK
  5
62F
  8
0
  0
ENDSEC
  0
SECTION
  2
ENTITIES
  0
LINE
  5
666
  8
1
 10
55.125434102908741
 20
36.822662932788383
 30
0.0
 11
72.323186102908721
 21
36.822662932788383
 31
0.0
  0
ARC
  5
667
  8
0
 10
63.72431010290876
 20
36.822662932788383
 30
0.0
 40
8.0
 50
254.41010199999999
 51
285.58989800000001
  0
ARC
  5
668
  8
0
 10
63.72431010290876
 20
36.822662932788383
 30
0.0
 40
8.0
 50
74.410101999999995
 51
105.58989800000001
  0
LINE
  5
66A
  8
1
 10
15.346438556206291
 20
36.822662932788383
 30
0.0
 11
47.346438556206287
 21
36.822662932788383
 31
0.0
  0
LINE
  5
66B
  8
0
 10
17.346438556206291
 20
31.688687932788358
 30
0.0
 11
18.846438556206291
 21
30.822662932788379
 31
0.0
  0
LINE
  5
66C
  8
0
 10
17.346438556206291
 20
41.956637932788361
 30
0.0
 11
18.846438556206291
 21
42.822662932788369
 31
0.0
  0
LINE
  5
66D
  8
0
 10
17.346438556206291
 20
41.956637932788361
 30
0.0
 11
17.346438556206291
 21
31.688687932788358
 31
0.0
  0
LINE
  5
66E
  8
1
 10
63.72431010290876
 20
46.822662932788369
 30
0.0
 11
63.72431010290876
 21
26.822662932788379
 31
0.0
  0
LINE
  5
66F
  8
3
 10
29.346438556206301
 20
36.822662932788383
 30
0.0
 11
43.499720556206277
 21
29.746021932788381
 31
0.0
  0
LINE
  5
670
  8
3
 10
29.346438556206301
 20
29.11698293278835
 30
0.0
 11
44.74490155620628
 21
36.532959932788351
 31
0.0
  0
LINE
  5
671
  8
3
 10
29.346438556206301
 20
36.822662932788383
 30
0.0
 11
43.499720556206277
 21
43.899303932788371
 31
0.0
  0
LINE
  5
672
  8
3
 10
29.346438556206301
 20
44.528342932788348
 30
0.0
 11
44.74490155620628
 21
37.11236593278835
 31
0.0
  0
ARC
  5
673
  8
0
 10
41.346438556206287
 20
32.822662932788383
 30
0.0
 40
4.0
 50
214.812242
 51
0.0
  0
ARC
  5
674
  8
0
 10
41.346438556206287
 20
33.116982932788353
 30
0.0
 40
4.0
 50
214.54941600000001
 51
0.0
  0
ARC
  5
675
  8
0
 10
41.346438556206287
 20
40.822662932788369
 30
0.0
 40
4.0
 50
0.0
 51
145.187758
  0
ARC
  5
676
  8
0
 10
41.346438556206287
 20
40.528342932788341
 30
0.0
 40
4.0
 50
0.0
 51
145.45058399999999
  0
LINE
  5
677
  8
0
 10
29.346438556206301
 20
36.822662932788383
 30
0.0
 11
44.634491556206306
 21
36.822662932788383
 31
0.0
  0
LINE
  5
678
  8
1
 10
41.346438556206287
 20
46.822662932788369
 30
0.0
 11
41.346438556206287
 21
26.822662932788379
 31
0.0
  0
LINE
  5
679
  8
0
 10
33.346438556206301
 20
28.822662932788379
 30
0.0
 11
38.062329556206294
 21
30.539106932788339
 31
0.0
  0
LINE
  5
67A
  8
0
 10
29.346438556206301
 20
30.822662932788379
 30
0.0
 11
29.346438556206301
 21
28.822662932788379
 31
0.0
  0
LINE
  5
67B
  8
0
 10
38.051889556206312
 20
30.848515932788359
 30
0.0
 11
33.294541556206298
 21
29.11698293278835
 31
0.0
  0
LINE
  5
67C
  8
0
 10
29.346438556206301
 20
28.822662932788379
 30
0.0
 11
33.346438556206301
 21
28.822662932788379
 31
0.0
  0
LINE
  5
67D
  8
0
 10
33.294541556206298
 20
29.11698293278835
 30
0.0
 11
29.346438556206301
 21
29.11698293278835
 31
0.0
  0
LINE
  5
67E
  8
0
 10
33.294541556206298
 20
29.11698293278835
 30
0.0
 11
33.346438556206301
 21
28.822662932788379
 31
0.0
  0
LINE
  5
67F
  8
0
 10
29.346438556206301
 20
44.822662932788369
 30
0.0
 11
33.346438556206301
 21
44.822662932788369
 31
0.0
  0
LINE
  5
680
  8
0
 10
33.294541556206298
 20
44.528342932788348
 30
0.0
 11
29.346438556206301
 21
44.528342932788348
 31
0.0
  0
LINE
  5
681
  8
3
 10
28.596438556206301
 20
42.822662932788369
 30
0.0
 11
28.596438556206301
 21
30.822662932788379
 31
0.0
  0
LINE
  5
682
  8
0
 10
18.846438556206291
 20
42.822662932788369
 30
0.0
 11
18.846438556206291
 21
30.822662932788379
 31
0.0
  0
LINE
  5
683
  8
0
 10
29.346438556206301
 20
42.822662932788369
 30
0.0
 11
29.346438556206301
 21
30.822662932788379
 31
0.0
  0
LINE
  5
684
  8
0
 10
18.846438556206291
 20
30.822662932788379
 30
0.0
 11
29.346438556206301
 21
30.822662932788379
 31
0.0
  0
INSERT
  5
685
  8
0
  2
BATU
 10
29.346438556206301
 20
36.822662932788383
 30
0.0
 41
0.001
 42
0.001
 43
0.001
 50
270.0
  0
LINE
  5
686
  8
0
 10
18.846438556206291
 20
42.822662932788369
 30
0.0
 11
29.346438556206301
 21
42.822662932788369
 31
0.0
  0
LINE
  5
687
  8
0
 10
29.346438556206301
 20
42.822662932788369
 30
0.0
 11
29.346438556206301
 21
44.822662932788369
 31
0.0
  0
LINE
  5
688
  8
0
 10
33.346438556206301
 20
44.822662932788369
 30
0.0
 11
38.062329556206294
 21
43.106218932788352
 31
0.0
  0
LINE
  5
689
  8
0
 10
38.051889556206312
 20
42.796809932788364
 30
0.0
 11
33.294541556206298
 21
44.528342932788348
 31
0.0
  0
LINE
  5
68A
  8
0
 10
33.294541556206298
 20
44.528342932788348
 30
0.0
 11
33.346438556206301
 21
44.822662932788369
 31
0.0
  0
LINE
  5
68B
  8
0
 10
61.574310102908747
 20
29.11698293278835
 30
0.0
 11
57.125434102908741
 21
36.822662932788383
 31
0.0
  0
ARC
  5
68C
  8
0
 10
35.346438556206287
 20
40.528342932788341
 30
0.0
 40
10.0
 50
338.24934999999999
 51
0.0
  0
LINE
  5
68D
  8
0
 10
45.346438556206287
 20
40.822662932788369
 30
0.0
 11
45.346438556206287
 21
32.822662932788383
 31
0.0
  0
ARC
  5
68E
  8
0
 10
35.346438556206287
 20
33.116982932788353
 30
0.0
 40
10.0
 50
0.0
 51
21.750649999999979
  0
LINE
  5
68F
  8
0
 10
61.574310102908747
 20
44.52834293278837
 30
0.0
 11
57.125434102908741
 21
36.822662932788383
 31
0.0
  0
LINE
  5
692
  8
0
 10
65.874310102908765
 20
29.11698293278835
 30
0.0
 11
70.323186102908778
 21
36.822662932788383
 31
0.0
  0
LINE
  5
693
  8
0
 10
65.874310102908765
 20
44.52834293278837
 30
0.0
 11
70.323186102908778
 21
36.822662932788383
 31
0.0
  0
CIRCLE
  5
69C
  8
3
 10
63.72431010290876
 20
36.822662932788383
 30
0.0
 40
2.5
  0
CIRCLE
  5
69D
  8
0
 10
63.72431010290876
 20
36.822662932788383
 30
0.0
 40
2.1000000000000001
  0
LINE
  5
6B2
  8
2
 10
44.346438556206749
 20
38.9226629327881
 30
0.0
 11
32.346438556206522
 21
38.9226629327881
 31
0.0
  0
LINE
  5
6B3
  8
2
 10
31.13400299090846
 20
36.822662932788361
 30
0.0
 11
32.346438556206522
 21
38.9226629327881
 31
0.0
  0
LINE
  5
6B4
  8
2
 10
44.746438556206833
 20
39.322662932788162
 30
0.0
 11
35.346438556206287
 21
39.322662932788162
 31
0.0
  0
LINE
  5
6B5
  8
2
 10
44.346438556206749
 20
38.9226629327881
 30
0.0
 11
45.346438556206287
 21
39.922662932787652
 31
0.0
  0
LINE
  5
6B6
  8
2
 10
34.653618233178648
 20
38.9226629327881
 30
0.0
 11
35.346438556206309
 21
39.322662932788162
 31
0.0
  0
LINE
  5
6B7
  8
2
 10
31.13400299090846
 20
36.822662932788361
 30
0.0
 11
32.346438556206522
 21
34.722662932788623
 31
0.0
  0
LINE
  5
6B8
  8
2
 10
34.653618233178648
 20
34.722662932788623
 30
0.0
 11
35.346438556206309
 21
34.32266293278856
 31
0.0
  0
LINE
  5
6B9
  8
2
 10
32.346438556206522
 20
38.9226629327881
 30
0.0
 11
32.346438556206522
 21
34.722662932788623
 31
0.0
  0
LINE
  5
6BA
  8
2
 10
35.346438556206287
 20
39.322662932788162
 30
0.0
 11
35.346438556206287
 21
34.32266293278856
 31
0.0
  0
LINE
  5
6BB
  8
2
 10
44.346438556206749
 20
34.722662932788623
 30
0.0
 11
44.346438556206749
 21
38.9226629327881
 31
0.0
  0
LINE
  5
6BC
  8
2
 10
44.346438556206749
 20
34.722662932788623
 30
0.0
 11
45.346438556206287
 21
33.722662932789078
 31
0.0
  0
LINE
  5
6BD
  8
2
 10
44.746438556206833
 20
34.32266293278856
 30
0.0
 11
35.346438556206287
 21
34.32266293278856
 31
0.0
  0
LINE
  5
6BE
  8
2
 10
44.346438556206749
 20
34.722662932788623
 30
0.0
 11
32.346438556206522
 21
34.722662932788623
 31
0.0
  0
TEXT
  5
7B4
  8
0
 62
     3
 10
0.0
 20
0.0
 30
0.0
 40
5.0
  1
BJ793-16001
  7
STANDARD1
  0
ENDSEC
  0
EOF
