  0
SECTION
  2
HEADER
  9
$ACADVER
  1
AC1009
  9
$INSBASE
 10
0.0
 20
0.0
 30
0.0
  9
$EXTMIN
 10
0.0
 20
-1.4802182810368341
 30
0.0
  9
$EXTMAX
 10
61.295445235955469
 20
43.142967897864082
 30
0.0
  9
$LIMMIN
 10
0.0
 20
0.0
  9
$LIMMAX
 10
270.0
 20
175.0
  9
$ORTHOMODE
 70
     1
  9
$REGENMODE
 70
     1
  9
$FILLMODE
 70
     1
  9
$QTEXTMODE
 70
     0
  9
$MIRRTEXT
 70
     0
  9
$DRAGMODE
 70
     2
  9
$LTSCALE
 40
10.0
  9
$OSMODE
 70
  3071
  9
$ATTMODE
 70
     1
  9
$TEXTSIZE
 40
0.2
  9
$TRACEWID
 40
0.05
  9
$TEXTSTYLE
  7
STANDARD
  9
$CLAYER
  8
3
  9
$CELTYPE
  6
BYLAYER
  9
$CECOLOR
 62
   256
  9
$DIMSCALE
 40
1.0
  9
$DIMASZ
 40
3.0
  9
$DIMEXO
 40
2.0
  9
$DIMDLI
 40
0.38
  9
$DIMRND
 40
0.0
  9
$DIMDLE
 40
0.0
  9
$DIMEXE
 40
2.0
  9
$DIMTP
 40
0.0
  9
$DIMTM
 40
0.0
  9
$DIMTXT
 40
3.2000000000000002
  9
$DIMCEN
 40
0.0
  9
$DIMTSZ
 40
0.0
  9
$DIMTOL
 70
     0
  9
$DIMLIM
 70
     0
  9
$DIMTIH
 70
     0
  9
$DIMTOH
 70
     0
  9
$DIMSE1
 70
     0
  9
$DIMSE2
 70
     0
  9
$DIMTAD
 70
     1
  9
$DIMZIN
 70
     0
  9
$DIMBLK
  1

  9
$DIMASO
 70
     0
  9
$DIMSHO
 70
     0
  9
$DIMPOST
  1

  9
$DIMAPOST
  1

  9
$DIMALT
 70
     0
  9
$DIMALTD
 70
     2
  9
$DIMALTF
 40
25.399999999999999
  9
$DIMLFAC
 40
1.0
  9
$DIMTOFL
 70
     1
  9
$DIMTVP
 40
1.6000000000000001
  9
$DIMTIX
 70
     1
  9
$DIMSOXD
 70
     0
  9
$DIMSAH
 70
     0
  9
$DIMBLK1
  1

  9
$DIMBLK2
  1

  9
$DIMSTYLE
  2
STANDARD
  9
$DIMCLRD
 70
     0
  9
$DIMCLRE
 70
     0
  9
$DIMCLRT
 70
     0
  9
$DIMTFAC
 40
1.0
  9
$DIMGAP
 40
0.09
  9
$LUNITS
 70
     2
  9
$LUPREC
 70
     4
  9
$SKETCHINC
 40
0.1
  9
$FILLETRAD
 40
0.0
  9
$AUNITS
 70
     1
  9
$AUPREC
 70
     4
  9
$MENU
  1
E:\r13\win\SUPPORT\ACAD
  9
$ELEVATION
 40
0.0
  9
$PELEVATION
 40
0.0
  9
$THICKNESS
 40
0.0
  9
$LIMCHECK
 70
     0
  9
$BLIPMODE
 70
     0
  9
$CHAMFERA
 40
0.0
  9
$CHAMFERB
 40
0.0
  9
$SKPOLY
 70
     0
  9
$TDCREATE
 40
2449839.7803587969
  9
$TDUPDATE
 40
2456598.4288641671
  9
$TDINDWG
 40
0.0216046296
  9
$TDUSRTIMER
 40
0.0216046296
  9
$USRTIMER
 70
     1
  9
$ANGBASE
 50
0.0
  9
$ANGDIR
 70
     0
  9
$PDMODE
 70
     0
  9
$PDSIZE
 40
0.0
  9
$PLINEWID
 40
0.0
  9
$COORDS
 70
     1
  9
$SPLFRAME
 70
     0
  9
$SPLINETYPE
 70
     6
  9
$SPLINESEGS
 70
     8
  9
$ATTDIA
 70
     0
  9
$ATTREQ
 70
     1
  9
$HANDLING
 70
     1
  9
$HANDSEED
  5
70F
  9
$SURFTAB1
 70
     6
  9
$SURFTAB2
 70
     6
  9
$SURFTYPE
 70
     6
  9
$SURFU
 70
     6
  9
$SURFV
 70
     6
  9
$UCSNAME
  2

  9
$UCSORG
 10
0.0
 20
0.0
 30
0.0
  9
$UCSXDIR
 10
1.0
 20
0.0
 30
0.0
  9
$UCSYDIR
 10
0.0
 20
1.0
 30
0.0
  9
$PUCSNAME
  2

  9
$PUCSORG
 10
0.0
 20
0.0
 30
0.0
  9
$PUCSXDIR
 10
1.0
 20
0.0
 30
0.0
  9
$PUCSYDIR
 10
0.0
 20
1.0
 30
0.0
  9
$USERI1
 70
     0
  9
$USERI2
 70
     1
  9
$USERI3
 70
     0
  9
$USERI4
 70
     0
  9
$USERI5
 70
     0
  9
$USERR1
 40
0.0
  9
$USERR2
 40
0.0
  9
$USERR3
 40
0.0
  9
$USERR4
 40
0.0
  9
$USERR5
 40
0.0
  9
$WORLDVIEW
 70
     1
  9
$SHADEDGE
 70
     3
  9
$SHADEDIF
 70
    70
  9
$TILEMODE
 70
     1
  9
$MAXACTVP
 70
    16
  9
$PLIMCHECK
 70
     0
  9
$PEXTMIN
 10
1.0000000000000000E+020
 20
1.0000000000000000E+020
 30
1.0000000000000000E+020
  9
$PEXTMAX
 10
-1.0000000000000000E+020
 20
-1.0000000000000000E+020
 30
-1.0000000000000000E+020
  9
$PLIMMIN
 10
0.0
 20
0.0
  9
$PLIMMAX
 10
12.0
 20
9.0
  9
$UNITMODE
 70
     0
  9
$VISRETAIN
 70
     0
  9
$PLINEGEN
 70
     0
  9
$PSLTSCALE
 70
     0
  0
ENDSEC
  0
SECTION
  2
TABLES
  0
TABLE
  2
VPORT
 70
     1
  0
VPORT
  2
*ACTIVE
 70
     0
 10
0.0
 20
0.0
 11
1.0
 21
1.0
 12
139.88615432881801
 22
86.756324970927466
 13
0.0
 23
0.0
 14
10.0
 24
10.0
 15
10.0
 25
10.0
 16
0.0
 26
0.0
 36
1.0
 17
0.0
 27
0.0
 37
0.0
 40
178.07019624700729
 41
1.831871345029239
 42
50.0
 43
0.0
 44
0.0
 50
0.0
 51
0.0
 71
     0
 72
   500
 73
     1
 74
     0
 75
     0
 76
     0
 77
     0
 78
     2
  0
ENDTAB
  0
TABLE
  2
LTYPE
 70
     4
  0
LTYPE
  2
CONTINUOUS
 70
     0
  3
Solid Line
 72
    65
 73
     0
 40
0.0
  0
LTYPE
  2
CENTER
 70
     0
  3
____ _ ____ _ ____ _ ____ _ ____ _ ____ _ ____
 72
    65
 73
     4
 40
2.0
 49
1.25
 49
-0.25
 49
0.25
 49
-0.25
  0
LTYPE
  2
HIDDEN
 70
     0
  3
__ __ __ __ __ __ __ __ __ __ __ __ __ __ __ __
 72
    65
 73
     2
 40
0.375
 49
0.25
 49
-0.125
  0
LTYPE
  2
PHANTOM2
 70
     0
  3
___ _ _ ___ _ _ ___ _ _ ___ _ _
 72
    65
 73
     6
 40
1.25
 49
0.625
 49
-0.125
 49
0.125
 49
-0.125
 49
0.125
 49
-0.125
  0
ENDTAB
  0
TABLE
  2
LAYER
 70
     4
  0
LAYER
  2
0
 70
     0
 62
     7
  6
CONTINUOUS
  0
LAYER
  2
1
 70
     0
 62
     1
  6
CENTER
  0
LAYER
  2
2
 70
     0
 62
     2
  6
HIDDEN
  0
LAYER
  2
3
 70
     0
 62
     3
  6
CONTINUOUS
  0
ENDTAB
  0
TABLE
  2
STYLE
 70
     2
  0
STYLE
  2
STANDARD
 70
     0
 40
0.0
 41
1.0
 50
0.0
 71
     0
 42
0.2
  3
TXT
  4
BIGFONT
  0
STYLE
  2
STANDARD1
 70
     0
 40
0.0
 41
1.0
 50
0.0
 71
     0
 42
3.0
  3
txt
  4

  0
ENDTAB
  0
TABLE
  2
VIEW
 70
     1
  0
VIEW
  2
ALL
 70
     0
 40
179.5384664489153
 10
135.0
 20
89.769233224457665
 41
0.0
 11
0.0
 21
0.0
 31
1.0
 12
0.0
 22
0.0
 32
0.0
 42
0.0
 43
0.0
 44
0.0
 50
0.0
 71
     0
  0
ENDTAB
  0
TABLE
  2
UCS
 70
     0
  0
ENDTAB
  0
TABLE
  2
APPID
 70
     5
  0
APPID
  2
ACAD
 70
     0
  0
APPID
  2
GENIUS_GENODEF_13
 70
     0
  0
APPID
  2
GENIUS_GENOBJ-N-FIL_13
 70
     0
  0
APPID
  2
ACAD_MLEADERVER
 70
     0
  0
APPID
  2
ACAD_NAV_VCDISPLAY
 70
     0
  0
ENDTAB
  0
TABLE
  2
DIMSTYLE
 70
     1
  0
DIMSTYLE
  2
STANDARD
 70
     0
  3

  4

  5

  6

  7

 40
1.0
 41
0.18
 42
0.0625
 43
0.38
 44
0.18
 45
0.0
 46
0.0
 47
0.0
 48
0.0
140
0.18
141
0.09
142
0.0
143
25.399999999999999
144
1.0
145
0.0
146
1.0
147
0.09
 71
     0
 72
     0
 73
     1
 74
     1
 75
     0
 76
     0
 77
     0
 78
     0
170
     0
171
     2
172
     0
173
     0
174
     0
175
     0
176
     0
177
     0
178
     0
  0
ENDTAB
  0
ENDSEC
  0
SECTION
  2
BLOCKS
  0
BLOCK
  8
0
  2
$MODEL_SPACE
 70
     0
 10
0.0
 20
0.0
 30
0.0
  3
$MODEL_SPACE
  1

  0
ENDBLK
  5
5C2
  8
0
  0
BLOCK
 67
     1
  8
0
  2
$PAPER_SPACE
 70
     0
 10
0.0
 20
0.0
 30
0.0
  3
$PAPER_SPACE
  1

  0
ENDBLK
  5
5C0
 67
     1
  8
0
  0
ENDSEC
  0
SECTION
  2
ENTITIES
  0
LINE
  5
531
  8
3
 10
30.250492273421319
 20
31.301738897864091
 30
0.0
 11
39.867007273421308
 21
35.957313897864083
 31
0.0
  0
LINE
  5
532
  8
3
 10
30.250492273421319
 20
36.142967897864082
 30
0.0
 11
39.118261273421332
 21
31.709082897864079
 31
0.0
  0
LINE
  5
533
  8
3
 10
30.250492273421319
 20
36.142967897864082
 30
0.0
 11
39.118261273421332
 21
40.576852897864079
 31
0.0
  0
LINE
  5
534
  8
3
 10
30.250492273421319
 20
40.984196897864081
 30
0.0
 11
39.867007273421308
 21
36.328621897864082
 31
0.0
  0
LINE
  5
535
  8
1
 10
21.250492273421312
 20
36.142967897864082
 30
0.0
 11
42.250492273421322
 21
36.142967897864082
 31
0.0
  0
ARC
  5
536
  8
0
 10
37.750492273421322
 20
33.642967897864082
 30
0.0
 40
2.5
 50
214.812241
 51
0.0
  0
ARC
  5
537
  8
0
 10
37.750492273421322
 20
33.801738897864091
 30
0.0
 40
2.5
 50
214.585373
 51
0.0
  0
ARC
  5
538
  8
0
 10
37.750492273421322
 20
38.642967897864082
 30
0.0
 40
2.5
 50
0.0
 51
145.187759
  0
ARC
  5
539
  8
0
 10
37.750492273421322
 20
38.484196897864081
 30
0.0
 40
2.5
 50
0.0
 51
145.414627
  0
LINE
  5
53A
  8
0
 10
30.250492273421319
 20
36.142967897864082
 30
0.0
 11
39.795416273421331
 21
36.142967897864082
 31
0.0
  0
LINE
  5
53B
  8
0
 10
24.250492273421319
 20
32.642967897864089
 30
0.0
 11
30.250492273421319
 21
32.642967897864089
 31
0.0
  0
LINE
  5
53C
  8
0
 10
24.250492273421319
 20
39.642967897864082
 30
0.0
 11
30.250492273421319
 21
39.642967897864082
 31
0.0
  0
LINE
  5
53D
  8
0
 10
23.250492273421319
 20
39.065617897864087
 30
0.0
 11
23.250492273421319
 21
33.220317897864078
 31
0.0
  0
LINE
  5
53E
  8
0
 10
24.250492273421319
 20
39.642967897864082
 30
0.0
 11
24.250492273421319
 21
32.642967897864089
 31
0.0
  0
LINE
  5
53F
  8
0
 10
23.250492273421319
 20
33.220317897864078
 30
0.0
 11
24.250492273421319
 21
32.642967897864089
 31
0.0
  0
LINE
  5
540
  8
0
 10
23.250492273421319
 20
39.065617897864087
 30
0.0
 11
24.250492273421319
 21
39.642967897864082
 31
0.0
  0
LINE
  5
541
  8
3
 10
29.750492273421319
 20
39.642967897864082
 30
0.0
 11
29.750492273421319
 21
32.642967897864089
 31
0.0
  0
LINE
  5
542
  8
0
 10
30.250492273421319
 20
39.642967897864082
 30
0.0
 11
30.250492273421319
 21
32.642967897864089
 31
0.0
  0
LINE
  5
543
  8
0
 10
30.250492273421319
 20
31.142967897864079
 30
0.0
 11
32.750492273421322
 21
31.142967897864079
 31
0.0
  0
LINE
  5
544
  8
0
 10
32.722496273421307
 20
31.301738897864091
 30
0.0
 11
30.250492273421319
 21
31.301738897864091
 31
0.0
  0
LINE
  5
545
  8
0
 10
30.250492273421319
 20
32.642967897864089
 30
0.0
 11
30.250492273421319
 21
31.142967897864079
 31
0.0
  0
LINE
  5
546
  8
0
 10
32.750492273421322
 20
31.142967897864079
 30
0.0
 11
35.697924273421307
 21
32.215744897864091
 31
0.0
  0
LINE
  5
547
  8
0
 10
35.692289273421331
 20
32.382654897864093
 30
0.0
 11
32.722496273421307
 21
31.301738897864091
 31
0.0
  0
LINE
  5
548
  8
0
 10
32.722496273421307
 20
31.301738897864091
 30
0.0
 11
32.750492273421322
 21
31.142967897864079
 31
0.0
  0
LINE
  5
549
  8
0
 10
30.250492273421319
 20
41.142967897864082
 30
0.0
 11
32.750492273421322
 21
41.142967897864082
 31
0.0
  0
LINE
  5
54A
  8
0
 10
32.722496273421307
 20
40.984196897864081
 30
0.0
 11
30.250492273421319
 21
40.984196897864081
 31
0.0
  0
LINE
  5
54B
  8
0
 10
30.250492273421319
 20
36.142467897864101
 30
0.0
 11
30.250492273421319
 21
36.14346789786407
 31
0.0
  0
LINE
  5
54C
  8
0
 10
30.2509922734213
 20
36.142967897864082
 30
0.0
 11
30.249992273421331
 21
36.142967897864082
 31
0.0
  0
LINE
  5
54D
  8
0
 10
30.250492273421319
 20
39.642967897864082
 30
0.0
 11
30.250492273421319
 21
41.142967897864082
 31
0.0
  0
LINE
  5
54E
  8
0
 10
32.750492273421322
 20
41.142967897864082
 30
0.0
 11
35.697924273421307
 21
40.07019089786408
 31
0.0
  0
LINE
  5
54F
  8
0
 10
35.692289273421331
 20
39.903280897864079
 30
0.0
 11
32.722496273421307
 21
40.984196897864081
 31
0.0
  0
LINE
  5
550
  8
0
 10
32.722496273421307
 20
40.984196897864081
 30
0.0
 11
32.750492273421322
 21
41.142967897864082
 31
0.0
  0
LINE
  5
551
  8
1
 10
49.20527523595544
 20
36.142967897864082
 30
0.0
 11
61.295445235955469
 21
36.142967897864082
 31
0.0
  0
LINE
  5
552
  8
1
 10
37.750492273421322
 20
43.142967897864082
 30
0.0
 11
37.750492273421322
 21
29.142967897864079
 31
0.0
  0
LINE
  5
553
  8
1
 10
55.250360235955441
 20
43.142967897864082
 30
0.0
 11
55.250360235955441
 21
29.142967897864079
 31
0.0
  0
ARC
  5
554
  8
0
 10
34.000492273421322
 20
38.484196897864081
 30
0.0
 40
6.25
 50
338.00061299999999
 51
0.0
  0
LINE
  5
555
  8
0
 10
40.250492273421308
 20
38.642967897864082
 30
0.0
 11
40.250492273421308
 21
33.642967897864082
 31
0.0
  0
ARC
  5
556
  8
0
 10
34.000492273421322
 20
33.801738897864091
 30
0.0
 40
6.25
 50
0.0
 51
21.99938700000002
  0
LINE
  5
557
  8
0
 10
54.000360235955441
 20
31.301738897864091
 30
0.0
 11
51.20527523595544
 21
36.142967897864082
 31
0.0
  0
LINE
  5
558
  8
0
 10
56.500360235955441
 20
31.301738897864091
 30
0.0
 11
59.295445235955441
 21
36.142967897864082
 31
0.0
  0
ARC
  5
559
  8
0
 10
55.250360235955441
 20
36.142967897864082
 30
0.0
 40
5.0
 50
255.52248800000001
 51
284.47751199999999
  0
ARC
  5
55B
  8
0
 10
55.250360235955441
 20
36.142967897864082
 30
0.0
 40
5.0
 50
75.522487999999981
 51
104.477512
  0
LINE
  5
55D
  8
0
 10
54.000360235955441
 20
40.984196897864081
 30
0.0
 11
51.20527523595544
 21
36.142967897864082
 31
0.0
  0
LINE
  5
55E
  8
0
 10
56.500360235955441
 20
40.984196897864081
 30
0.0
 11
59.295445235955441
 21
36.142967897864082
 31
0.0
  0
LINE
  5
55F
  8
0
 10
55.250360235955441
 20
36.142467897864101
 30
0.0
 11
55.250360235955441
 21
36.14346789786407
 31
0.0
  0
LINE
  5
560
  8
0
 10
55.250860235955429
 20
36.142967897864082
 30
0.0
 11
55.249860235955452
 21
36.142967897864082
 31
0.0
  0
CIRCLE
  5
56C
  8
0
 10
55.250360235955441
 20
36.142967897864082
 30
0.0
 40
1.2295
  0
CIRCLE
  5
56D
  8
3
 10
55.250360235955441
 20
36.142967897864082
 30
0.0
 40
1.5
  0
LINE
  5
580
  8
2
 10
32.750492273421322
 20
37.372467897864091
 30
0.0
 11
32.040640117452668
 21
36.142967897864089
 31
0.0
  0
LINE
  5
581
  8
2
 10
40.0209922734213
 20
37.642967897864089
 30
0.0
 11
34.250492273421322
 21
37.642967897864089
 31
0.0
  0
LINE
  5
582
  8
2
 10
39.750492273421301
 20
37.372467897864091
 30
0.0
 11
32.750492273421322
 21
37.372467897864091
 31
0.0
  0
LINE
  5
583
  8
2
 10
34.250492273421322
 20
37.642967897864089
 30
0.0
 11
33.781972529973928
 21
37.372467897864091
 31
0.0
  0
LINE
  5
584
  8
2
 10
39.750492273421301
 20
37.372467897864091
 30
0.0
 11
40.250492273421301
 21
37.872467897864077
 31
0.0
  0
LINE
  5
585
  8
2
 10
39.750492273421301
 20
34.913467897864102
 30
0.0
 11
39.750492273421301
 21
37.372467897864091
 31
0.0
  0
LINE
  5
586
  8
2
 10
39.750492273421301
 20
34.913467897864102
 30
0.0
 11
40.250492273421301
 21
34.413467897864102
 31
0.0
  0
LINE
  5
587
  8
2
 10
34.250492273421322
 20
34.642967897864089
 30
0.0
 11
33.781972529973928
 21
34.913467897864088
 31
0.0
  0
LINE
  5
588
  8
2
 10
32.750492273421322
 20
34.913467897864088
 30
0.0
 11
32.040640117452668
 21
36.142967897864089
 31
0.0
  0
LINE
  5
589
  8
2
 10
32.750492273421322
 20
34.913467897864088
 30
0.0
 11
32.750492273421287
 21
37.372467897864098
 31
0.0
  0
LINE
  5
58A
  8
2
 10
34.250492273421322
 20
34.642967897864089
 30
0.0
 11
34.250492273421322
 21
37.642967897864089
 31
0.0
  0
LINE
  5
58B
  8
2
 10
39.750492273421301
 20
34.913467897864102
 30
0.0
 11
32.750492273421322
 21
34.913467897864088
 31
0.0
  0
LINE
  5
58C
  8
2
 10
40.0209922734213
 20
34.642967897864089
 30
0.0
 11
34.250492273421322
 21
34.642967897864089
 31
0.0
  0
TEXT
  5
67E
  8
0
 62
     3
 10
0.0
 20
0.0
 30
0.0
 40
5.0
  1
BJ793-10001
  7
STANDARD1
  0
ENDSEC
  0
EOF
