  0
SECTION
  2
HEADER
  9
$ACADVER
  1
AC1009
  9
$INSBASE
 10
0.0
 20
0.0
 30
0.0
  9
$EXTMIN
 10
0.0
 20
-2.960436562073669
 30
0.0
  9
$EXTMAX
 10
129.50000000000011
 20
199.1172123080199
 30
0.0
  9
$LIMMIN
 10
0.0
 20
0.0
  9
$LIMMAX
 10
12.0
 20
9.0
  9
$ORTHOMODE
 70
     1
  9
$REGENMODE
 70
     1
  9
$FILLMODE
 70
     1
  9
$QTEXTMODE
 70
     0
  9
$MIRRTEXT
 70
     0
  9
$DRAGMODE
 70
     2
  9
$LTSCALE
 40
10.0
  9
$OSMODE
 70
    37
  9
$ATTMODE
 70
     1
  9
$TEXTSIZE
 40
0.2
  9
$TRACEWID
 40
0.05
  9
$TEXTSTYLE
  7
STANDARD
  9
$CLAYER
  8
0
  9
$CELTYPE
  6
BYLAYER
  9
$CECOLOR
 62
   256
  9
$DIMSCALE
 40
1.0
  9
$DIMASZ
 40
0.18
  9
$DIMEXO
 40
0.0625
  9
$DIMDLI
 40
0.38
  9
$DIMRND
 40
0.0
  9
$DIMDLE
 40
0.0
  9
$DIMEXE
 40
0.18
  9
$DIMTP
 40
0.0
  9
$DIMTM
 40
0.0
  9
$DIMTXT
 40
0.18
  9
$DIMCEN
 40
0.09
  9
$DIMTSZ
 40
0.0
  9
$DIMTOL
 70
     0
  9
$DIMLIM
 70
     0
  9
$DIMTIH
 70
     1
  9
$DIMTOH
 70
     1
  9
$DIMSE1
 70
     0
  9
$DIMSE2
 70
     0
  9
$DIMTAD
 70
     0
  9
$DIMZIN
 70
     0
  9
$DIMBLK
  1

  9
$DIMASO
 70
     1
  9
$DIMSHO
 70
     1
  9
$DIMPOST
  1

  9
$DIMAPOST
  1

  9
$DIMALT
 70
     0
  9
$DIMALTD
 70
     2
  9
$DIMALTF
 40
25.399999999999999
  9
$DIMLFAC
 40
1.0
  9
$DIMTOFL
 70
     0
  9
$DIMTVP
 40
0.0
  9
$DIMTIX
 70
     0
  9
$DIMSOXD
 70
     0
  9
$DIMSAH
 70
     0
  9
$DIMBLK1
  1

  9
$DIMBLK2
  1

  9
$DIMSTYLE
  2
STANDARD
  9
$DIMCLRD
 70
     0
  9
$DIMCLRE
 70
     0
  9
$DIMCLRT
 70
     0
  9
$DIMTFAC
 40
1.0
  9
$DIMGAP
 40
0.09
  9
$LUNITS
 70
     2
  9
$LUPREC
 70
     4
  9
$SKETCHINC
 40
0.1
  9
$FILLETRAD
 40
0.0
  9
$AUNITS
 70
     0
  9
$AUPREC
 70
     0
  9
$MENU
  1
.
  9
$ELEVATION
 40
0.0
  9
$PELEVATION
 40
0.0
  9
$THICKNESS
 40
0.0
  9
$LIMCHECK
 70
     0
  9
$BLIPMODE
 70
     0
  9
$CHAMFERA
 40
0.0
  9
$CHAMFERB
 40
0.0
  9
$SKPOLY
 70
     0
  9
$TDCREATE
 40
2453083.4120647679
  9
$TDUPDATE
 40
2457114.5895449189
  9
$TDINDWG
 40
0.514869838
  9
$TDUSRTIMER
 40
0.5148697222000001
  9
$USRTIMER
 70
     1
  9
$ANGBASE
 50
0.0
  9
$ANGDIR
 70
     0
  9
$PDMODE
 70
     0
  9
$PDSIZE
 40
0.0
  9
$PLINEWID
 40
0.0
  9
$COORDS
 70
     1
  9
$SPLFRAME
 70
     0
  9
$SPLINETYPE
 70
     6
  9
$SPLINESEGS
 70
     8
  9
$ATTDIA
 70
     0
  9
$ATTREQ
 70
     1
  9
$HANDLING
 70
     1
  9
$HANDSEED
  5
2146
  9
$SURFTAB1
 70
     6
  9
$SURFTAB2
 70
     6
  9
$SURFTYPE
 70
     6
  9
$SURFU
 70
     6
  9
$SURFV
 70
     6
  9
$UCSNAME
  2

  9
$UCSORG
 10
0.0
 20
0.0
 30
0.0
  9
$UCSXDIR
 10
1.0
 20
0.0
 30
0.0
  9
$UCSYDIR
 10
0.0
 20
1.0
 30
0.0
  9
$PUCSNAME
  2

  9
$PUCSORG
 10
0.0
 20
0.0
 30
0.0
  9
$PUCSXDIR
 10
1.0
 20
0.0
 30
0.0
  9
$PUCSYDIR
 10
0.0
 20
1.0
 30
0.0
  9
$USERI1
 70
     0
  9
$USERI2
 70
     1
  9
$USERI3
 70
     0
  9
$USERI4
 70
     0
  9
$USERI5
 70
     0
  9
$USERR1
 40
0.0
  9
$USERR2
 40
0.0
  9
$USERR3
 40
0.0
  9
$USERR4
 40
0.0
  9
$USERR5
 40
0.0
  9
$WORLDVIEW
 70
     1
  9
$SHADEDGE
 70
     3
  9
$SHADEDIF
 70
    70
  9
$TILEMODE
 70
     1
  9
$MAXACTVP
 70
    64
  9
$PLIMCHECK
 70
     0
  9
$PEXTMIN
 10
0.0
 20
0.0
 30
0.0
  9
$PEXTMAX
 10
0.0
 20
0.0
 30
0.0
  9
$PLIMMIN
 10
0.0
 20
0.0
  9
$PLIMMAX
 10
12.0
 20
9.0
  9
$UNITMODE
 70
     0
  9
$VISRETAIN
 70
     1
  9
$PLINEGEN
 70
     0
  9
$PSLTSCALE
 70
     1
  0
ENDSEC
  0
SECTION
  2
TABLES
  0
TABLE
  2
VPORT
 70
     1
  0
VPORT
  2
*ACTIVE
 70
     0
 10
0.0
 20
0.0
 11
1.0
 21
1.0
 12
261.82197496522951
 22
150.0
 13
0.0
 23
0.0
 14
0.5
 24
0.5
 15
0.5
 25
0.5
 16
0.0
 26
0.0
 36
1.0
 17
0.0
 27
0.0
 37
0.0
 40
300.0
 41
1.74547983310153
 42
50.0
 43
0.0
 44
0.0
 50
0.0
 51
0.0
 71
     0
 72
  1000
 73
     1
 74
     2
 75
     0
 76
     0
 77
     0
 78
     0
  0
ENDTAB
  0
TABLE
  2
LTYPE
 70
     3
  0
LTYPE
  2
CONTINUOUS
 70
     0
  3
Solid Line
 72
    65
 73
     0
 40
0.0
  0
LTYPE
  2
CENTER
 70
     0
  3
____ _ ____ _ ____ _ ____ _ ____ _ ____ _ ____
 72
    65
 73
     4
 40
2.0
 49
1.25
 49
-0.25
 49
0.25
 49
-0.25
  0
LTYPE
  2
PHANTOM2
 70
     0
  3
___ _ _ ___ _ _ ___ _ _ ___ _ _
 72
    65
 73
     6
 40
1.25
 49
0.625
 49
-0.125
 49
0.125
 49
-0.125
 49
0.125
 49
-0.125
  0
ENDTAB
  0
TABLE
  2
LAYER
 70
     2
  0
LAYER
  2
0
 70
     0
 62
     7
  6
CONTINUOUS
  0
LAYER
  2
1
 70
     0
 62
     1
  6
CENTER
  0
ENDTAB
  0
TABLE
  2
STYLE
 70
     2
  0
STYLE
  2
STANDARD
 70
     0
 40
0.0
 41
1.0
 50
0.0
 71
     0
 42
0.2
  3
simplex.shx
  4
bigfont.shx
  0
STYLE
  2
STANDARD1
 70
     0
 40
0.0
 41
1.0
 50
0.0
 71
     0
 42
3.0
  3
txt
  4

  0
ENDTAB
  0
TABLE
  2
VIEW
 70
     0
  0
ENDTAB
  0
TABLE
  2
UCS
 70
     0
  0
ENDTAB
  0
TABLE
  2
APPID
 70
     4
  0
APPID
  2
ACAD
 70
     0
  0
APPID
  2
ACAD_MLEADERVER
 70
     0
  0
APPID
  2
ACAD_NAV_VCDISPLAY
 70
     0
  0
APPID
  2
ACAD_EXEMPT_FROM_CAD_STANDARDS
 70
     0
  0
ENDTAB
  0
TABLE
  2
DIMSTYLE
 70
     1
  0
DIMSTYLE
  2
STANDARD
 70
     0
  3

  4

  5

  6

  7

 40
1.0
 41
0.18
 42
0.0625
 43
0.38
 44
0.18
 45
0.0
 46
0.0
 47
0.0
 48
0.0
140
0.18
141
0.09
142
0.0
143
25.399999999999999
144
1.0
145
0.0
146
1.0
147
0.09
 71
     0
 72
     0
 73
     1
 74
     1
 75
     0
 76
     0
 77
     0
 78
     0
170
     0
171
     2
172
     0
173
     0
174
     0
175
     0
176
     0
177
     0
178
     0
  0
ENDTAB
  0
ENDSEC
  0
SECTION
  2
BLOCKS
  0
BLOCK
  8
0
  2
$MODEL_SPACE
 70
     0
 10
0.0
 20
0.0
 30
0.0
  3
$MODEL_SPACE
  1

  0
ENDBLK
  5
21
  8
0
  0
BLOCK
 67
     1
  8
0
  2
$PAPER_SPACE
 70
     0
 10
0.0
 20
0.0
 30
0.0
  3
$PAPER_SPACE
  1

  0
ENDBLK
  5
5B
 67
     1
  8
0
  0
ENDSEC
  0
SECTION
  2
ENTITIES
  0
LINE
  5
1C42
  8
0
 10
56.800000000000033
 20
35.0
 30
0.0
 11
43.199999999999989
 21
35.0
 31
0.0
  0
LINE
  5
1C44
  8
0
 10
59.372999999999998
 20
101.5
 30
0.0
 11
40.62700000000001
 21
101.4999999999999
 31
0.0
  0
LINE
  5
1C45
  8
0
 10
59.245999999999988
 20
115.5
 30
0.0
 11
40.754000000000083
 21
115.5
 31
0.0
  0
LINE
  5
1C46
  8
0
 10
59.500000000000128
 20
115.246
 30
0.0
 11
40.500000000000028
 21
115.246
 31
0.0
  0
LINE
  5
1C47
  8
0
 10
59.500000000000071
 20
101.627
 30
0.0
 11
40.500000000000028
 21
101.627
 31
0.0
  0
LINE
  5
1C4E
  8
0
 10
41.999999999999943
 20
101.5
 30
0.0
 11
41.999999999999943
 21
51.499999999999972
 31
0.0
  0
LINE
  5
1C4F
  8
0
 10
41.999999999999972
 20
45.200000000000102
 30
0.0
 11
41.999999999999943
 21
38.199999999999989
 31
0.0
  0
LINE
  5
1C52
  8
0
 10
59.372999999999998
 20
101.5
 30
0.0
 11
59.500000000000007
 21
101.627
 31
0.0
  0
LINE
  5
1C53
  8
0
 10
40.499999999999993
 20
101.627
 30
0.0
 11
40.62700000000001
 21
101.5
 31
0.0
  0
LINE
  5
1C54
  8
0
 10
40.75400000000004
 20
115.5
 30
0.0
 11
40.500000000000028
 21
115.246
 31
0.0
  0
LINE
  5
1C55
  8
0
 10
59.500000000000007
 20
115.246
 30
0.0
 11
59.245999999999988
 21
115.5
 31
0.0
  0
LINE
  5
1C56
  8
0
 10
40.500000000000028
 20
115.246
 30
0.0
 11
40.49999999999995
 21
112.4069873499347
 31
0.0
  0
LINE
  5
1C57
  8
0
 10
40.499999999999957
 20
107.70698734993449
 30
0.0
 11
40.499999999999993
 21
101.627
 31
0.0
  0
LINE
  5
1C59
  8
0
 10
59.500000000000007
 20
114.22365000000001
 30
0.0
 11
59.500000000000007
 21
115.246
 31
0.0
  0
LINE
  5
1C6E
  8
1
 10
50.000000000000028
 20
150.1172123080197
 30
0.0
 11
50.0
 21
30.0
 31
0.0
  0
LINE
  5
1C73
  8
0
 10
58.000000000000071
 20
38.199999999999989
 30
0.0
 11
41.999999999999943
 21
38.199999999999989
 31
0.0
  0
LINE
  5
1C74
  8
0
 10
41.999999999999943
 20
38.199999999999989
 30
0.0
 11
43.199999999999953
 21
35.0
 31
0.0
  0
ARC
  5
1C76
  8
0
 10
43.674999999999947
 20
48.372900092776199
 30
0.0
 40
3.1749999999999989
 50
118.9711304232496
 51
241.31448996022931
  0
ARC
  5
1C80
  8
0
 10
34.487448793636759
 20
48.349999999999987
 30
0.0
 40
8.1462215553119393
 50
337.25177833354837
 51
22.748221666452121
  0
ARC
  5
1C86
  8
0
 10
65.512551206363256
 20
48.349999999999987
 30
0.0
 40
8.1462215553119393
 50
157.25177833354789
 51
202.7482216664516
  0
ARC
  5
1C87
  8
0
 10
56.32500000000006
 20
48.372900092776199
 30
0.0
 40
3.1749999999999989
 50
298.68551003977069
 51
61.028869576750417
  0
LINE
  5
1C88
  8
0
 10
58.000000000000071
 20
38.199999999999989
 30
0.0
 11
56.800000000000033
 21
35.0
 31
0.0
  0
LINE
  5
1C89
  8
0
 10
58.000000000000007
 20
45.200000000000102
 30
0.0
 11
58.000000000000071
 21
38.199999999999989
 31
0.0
  0
LINE
  5
1C8A
  8
0
 10
58.000000000000071
 20
101.5
 30
0.0
 11
58.000000000000071
 21
51.499999999999972
 31
0.0
  0
ARC
  5
1CA1
  8
0
 10
69.008978414050489
 20
110.0569873499346
 30
0.0
 40
9.7950584724582761
 50
166.11836459866529
 51
193.88163540133581
  0
LINE
  5
1CA2
  8
0
 10
59.500000000000171
 20
115.246
 30
0.0
 11
59.500000000000142
 21
112.40698734993479
 31
0.0
  0
LINE
  5
1D97
  8
1
 10
25.90000000000002
 20
126.01721230801959
 30
0.0
 11
74.100000000000023
 21
126.01721230801969
 31
0.0
  0
LINE
  5
1DA8
  8
1
 10
25.90000000000002
 20
184.61721230801979
 30
0.0
 11
74.100000000000023
 21
184.61721230801979
 31
0.0
  0
LINE
  5
1DA9
  8
1
 10
50.000000000000028
 20
170.1172123080197
 30
0.0
 11
50.000000000000028
 21
199.1172123080199
 31
0.0
  0
ARC
  5
1DAB
  8
0
 10
50.000000000000028
 20
184.61721230801979
 30
0.0
 40
9.2459999999999525
 50
184.96366092568601
 51
355.03633907431401
  0
ARC
  5
1DAC
  8
0
 10
50.000000000000028
 20
184.61721230801979
 30
0.0
 40
9.5000000000000853
 50
184.83062859204219
 51
355.16937140795773
  0
LINE
  5
1DAD
  8
0
 10
31.700000000000031
 20
183.8172123080198
 30
0.0
 11
68.300000000000011
 21
183.8172123080198
 31
0.0
  0
LINE
  5
1DAE
  8
0
 10
31.700000000000031
 20
185.4172123080198
 30
0.0
 11
68.300000000000011
 21
185.4172123080198
 31
0.0
  0
ARC
  5
1DAF
  8
0
 10
68.300000000000011
 20
184.61721230801979
 30
0.0
 40
0.8000000000000113
 50
270.0
 51
90.0
  0
ARC
  5
1DB1
  8
0
 10
31.700000000000031
 20
184.61721230801979
 30
0.0
 40
0.8000000000000113
 50
90.0
 51
270.0
  0
ARC
  5
1DB5
  8
0
 10
50.000000000000028
 20
184.61721230801979
 30
0.0
 40
9.5000000000000853
 50
4.8306285920420899
 51
175.1693714079579
  0
ARC
  5
1DB6
  8
0
 10
50.000000000000028
 20
184.61721230801979
 30
0.0
 40
9.2459999999999525
 50
4.9636609256858009
 51
175.03633907431421
  0
ARC
  5
1DBD
  8
0
 10
120.0
 20
144.31721230801969
 30
0.0
 40
0.8
 50
0.0
 51
180.0
  0
LINE
  5
1DBE
  8
0
 10
120.8
 20
115.246
 30
0.0
 11
129.5
 21
115.246
 31
0.0
  0
LINE
  5
1DBF
  8
0
 10
120.8
 20
115.5
 30
0.0
 11
129.2459999999999
 21
115.5
 31
0.0
  0
LINE
  5
1DC0
  8
0
 10
120.8
 20
110.1026448585346
 30
0.0
 11
120.8
 21
144.31721230801969
 31
0.0
  0
LINE
  5
1DC1
  8
0
 10
119.2
 20
110.1026448585346
 30
0.0
 11
119.2
 21
144.31721230801969
 31
0.0
  0
ARC
  5
1DC2
  8
0
 10
120.0
 20
110.1026448585346
 30
0.0
 40
0.8
 50
180.0
 51
0.0
  0
ARC
  5
1DC3
  8
0
 10
120.0
 20
110.0569873499345
 30
0.0
 40
2.350000000000136
 50
109.9028018866707
 51
70.097198113329256
  0
CIRCLE
  5
1DC4
  8
0
 10
120.0
 20
48.364986387907607
 30
0.0
 40
2.7856065134641379
  0
LINE
  5
1DC5
  8
0
 10
113.2
 20
35.0
 30
0.0
 11
126.8
 21
35.0
 31
0.0
  0
LINE
  5
1DC6
  8
0
 10
110.627
 20
101.5
 30
0.0
 11
129.37299999999999
 21
101.5
 31
0.0
  0
LINE
  5
1DC7
  8
0
 10
110.754
 20
115.5
 30
0.0
 11
119.2
 21
115.5
 31
0.0
  0
LINE
  5
1DC8
  8
0
 10
110.4999999999999
 20
115.246
 30
0.0
 11
119.2
 21
115.246
 31
0.0
  0
LINE
  5
1DC9
  8
0
 10
110.4999999999999
 20
101.627
 30
0.0
 11
129.5
 21
101.627
 31
0.0
  0
LINE
  5
1DCA
  8
0
 10
128.0
 20
101.5
 30
0.0
 11
128.0
 21
38.199999999999989
 31
0.0
  0
LINE
  5
1DCB
  8
0
 10
110.627
 20
101.5
 30
0.0
 11
110.5
 21
101.627
 31
0.0
  0
LINE
  5
1DCC
  8
0
 10
129.5
 20
101.627
 30
0.0
 11
129.37299999999999
 21
101.5
 31
0.0
  0
LINE
  5
1DCD
  8
0
 10
129.24600000000001
 20
115.5
 30
0.0
 11
129.5
 21
115.246
 31
0.0
  0
LINE
  5
1DCE
  8
0
 10
110.5
 20
115.246
 30
0.0
 11
110.754
 21
115.5
 31
0.0
  0
LINE
  5
1DCF
  8
0
 10
129.50000000000011
 20
115.246
 30
0.0
 11
129.5
 21
101.627
 31
0.0
  0
LINE
  5
1DD0
  8
1
 10
119.9999999999999
 20
150.1172123080197
 30
0.0
 11
120.0
 21
30.0
 31
0.0
  0
LINE
  5
1DD1
  8
0
 10
111.9999999999999
 20
38.199999999999989
 30
0.0
 11
128.0
 21
38.199999999999989
 31
0.0
  0
LINE
  5
1DD2
  8
0
 10
128.0
 20
38.199999999999989
 30
0.0
 11
126.8
 21
35.0
 31
0.0
  0
LINE
  5
1DD3
  8
0
 10
111.9999999999999
 20
38.199999999999989
 30
0.0
 11
113.2
 21
35.0
 31
0.0
  0
LINE
  5
1DD4
  8
0
 10
111.9999999999999
 20
101.5
 30
0.0
 11
112.0
 21
38.199999999999989
 31
0.0
  0
LINE
  5
1DD5
  8
0
 10
110.4999999999998
 20
115.246
 30
0.0
 11
110.4999999999999
 21
101.627
 31
0.0
  0
ARC
  5
1E27
  8
0
 10
50.000000000000021
 20
126.01721230801969
 30
0.0
 40
17.5
 50
302.01874306041668
 51
237.98125693958329
  0
LINE
  5
1E2C
  8
0
 10
59.500000000000107
 20
107.70698734993439
 30
0.0
 11
59.500000000000071
 21
101.627
 31
0.0
  0
ARC
  5
1E2D
  8
0
 10
50.000000000000021
 20
126.01721230801969
 30
0.0
 40
19.100000000000001
 50
298.94221121003909
 51
241.05778878996099
  0
ARC
  5
1E2E
  8
0
 10
30.991021585949571
 20
110.0569873499346
 30
0.0
 40
9.7950584724582761
 50
346.11836459866407
 51
13.881635401334711
  0
TEXT
  5
1EE7
  8
0
 62
     3
 10
0.0
 20
0.0
 30
0.0
 40
10.0
  1
BJ774-16050-SUS
  7
STANDARD1
  0
ENDSEC
  0
EOF
