  0
SECTION
  2
HEADER
  9
$ACADVER
  1
AC1009
  9
$INSBASE
 10
0.0
 20
0.0
 30
0.0
  9
$EXTMIN
 10
0.0
 20
-2.960436562073669
 30
0.0
  9
$EXTMAX
 10
116.4870395634379
 20
193.8307754849202
 30
0.0
  9
$LIMMIN
 10
0.0
 20
0.0
  9
$LIMMAX
 10
12.0
 20
9.0
  9
$ORTHOMODE
 70
     1
  9
$REGENMODE
 70
     1
  9
$FILLMODE
 70
     1
  9
$QTEXTMODE
 70
     0
  9
$MIRRTEXT
 70
     0
  9
$DRAGMODE
 70
     2
  9
$LTSCALE
 40
5.0
  9
$OSMODE
 70
    37
  9
$ATTMODE
 70
     1
  9
$TEXTSIZE
 40
0.2
  9
$TRACEWID
 40
0.05
  9
$TEXTSTYLE
  7
STANDARD
  9
$CLAYER
  8
0
  9
$CELTYPE
  6
BYLAYER
  9
$CECOLOR
 62
   256
  9
$DIMSCALE
 40
1.0
  9
$DIMASZ
 40
0.18
  9
$DIMEXO
 40
0.0625
  9
$DIMDLI
 40
0.38
  9
$DIMRND
 40
0.0
  9
$DIMDLE
 40
0.0
  9
$DIMEXE
 40
0.18
  9
$DIMTP
 40
0.0
  9
$DIMTM
 40
0.0
  9
$DIMTXT
 40
0.18
  9
$DIMCEN
 40
0.09
  9
$DIMTSZ
 40
0.0
  9
$DIMTOL
 70
     0
  9
$DIMLIM
 70
     0
  9
$DIMTIH
 70
     1
  9
$DIMTOH
 70
     1
  9
$DIMSE1
 70
     0
  9
$DIMSE2
 70
     0
  9
$DIMTAD
 70
     0
  9
$DIMZIN
 70
     0
  9
$DIMBLK
  1

  9
$DIMASO
 70
     1
  9
$DIMSHO
 70
     1
  9
$DIMPOST
  1

  9
$DIMAPOST
  1

  9
$DIMALT
 70
     0
  9
$DIMALTD
 70
     2
  9
$DIMALTF
 40
25.399999999999999
  9
$DIMLFAC
 40
1.0
  9
$DIMTOFL
 70
     0
  9
$DIMTVP
 40
0.0
  9
$DIMTIX
 70
     0
  9
$DIMSOXD
 70
     0
  9
$DIMSAH
 70
     0
  9
$DIMBLK1
  1

  9
$DIMBLK2
  1

  9
$DIMSTYLE
  2
STANDARD
  9
$DIMCLRD
 70
     0
  9
$DIMCLRE
 70
     0
  9
$DIMCLRT
 70
     0
  9
$DIMTFAC
 40
1.0
  9
$DIMGAP
 40
0.09
  9
$LUNITS
 70
     2
  9
$LUPREC
 70
     4
  9
$SKETCHINC
 40
0.1
  9
$FILLETRAD
 40
0.0
  9
$AUNITS
 70
     0
  9
$AUPREC
 70
     0
  9
$MENU
  1
.
  9
$ELEVATION
 40
0.0
  9
$PELEVATION
 40
0.0
  9
$THICKNESS
 40
0.0
  9
$LIMCHECK
 70
     0
  9
$BLIPMODE
 70
     0
  9
$CHAMFERA
 40
0.0
  9
$CHAMFERB
 40
0.0
  9
$SKPOLY
 70
     0
  9
$TDCREATE
 40
2453083.4120647679
  9
$TDUPDATE
 40
2457114.5895046531
  9
$TDINDWG
 40
0.3835368519
  9
$TDUSRTIMER
 40
0.3835367361
  9
$USRTIMER
 70
     1
  9
$ANGBASE
 50
0.0
  9
$ANGDIR
 70
     0
  9
$PDMODE
 70
     0
  9
$PDSIZE
 40
0.0
  9
$PLINEWID
 40
0.0
  9
$COORDS
 70
     1
  9
$SPLFRAME
 70
     0
  9
$SPLINETYPE
 70
     6
  9
$SPLINESEGS
 70
     8
  9
$ATTDIA
 70
     0
  9
$ATTREQ
 70
     1
  9
$HANDLING
 70
     1
  9
$HANDSEED
  5
1D23
  9
$SURFTAB1
 70
     6
  9
$SURFTAB2
 70
     6
  9
$SURFTYPE
 70
     6
  9
$SURFU
 70
     6
  9
$SURFV
 70
     6
  9
$UCSNAME
  2

  9
$UCSORG
 10
0.0
 20
0.0
 30
0.0
  9
$UCSXDIR
 10
1.0
 20
0.0
 30
0.0
  9
$UCSYDIR
 10
0.0
 20
1.0
 30
0.0
  9
$PUCSNAME
  2

  9
$PUCSORG
 10
0.0
 20
0.0
 30
0.0
  9
$PUCSXDIR
 10
1.0
 20
0.0
 30
0.0
  9
$PUCSYDIR
 10
0.0
 20
1.0
 30
0.0
  9
$USERI1
 70
     0
  9
$USERI2
 70
     1
  9
$USERI3
 70
     0
  9
$USERI4
 70
     0
  9
$USERI5
 70
     0
  9
$USERR1
 40
0.0
  9
$USERR2
 40
0.0
  9
$USERR3
 40
0.0
  9
$USERR4
 40
0.0
  9
$USERR5
 40
0.0
  9
$WORLDVIEW
 70
     1
  9
$SHADEDGE
 70
     3
  9
$SHADEDIF
 70
    70
  9
$TILEMODE
 70
     1
  9
$MAXACTVP
 70
    64
  9
$PLIMCHECK
 70
     0
  9
$PEXTMIN
 10
0.0
 20
0.0
 30
0.0
  9
$PEXTMAX
 10
0.0
 20
0.0
 30
0.0
  9
$PLIMMIN
 10
0.0
 20
0.0
  9
$PLIMMAX
 10
12.0
 20
9.0
  9
$UNITMODE
 70
     0
  9
$VISRETAIN
 70
     1
  9
$PLINEGEN
 70
     0
  9
$PSLTSCALE
 70
     1
  0
ENDSEC
  0
SECTION
  2
TABLES
  0
TABLE
  2
VPORT
 70
     1
  0
VPORT
  2
*ACTIVE
 70
     0
 10
0.0
 20
0.0
 11
1.0
 21
1.0
 12
261.82197496522951
 22
150.0
 13
0.0
 23
0.0
 14
0.5
 24
0.5
 15
0.5
 25
0.5
 16
0.0
 26
0.0
 36
1.0
 17
0.0
 27
0.0
 37
0.0
 40
300.0
 41
1.74547983310153
 42
50.0
 43
0.0
 44
0.0
 50
0.0
 51
0.0
 71
     0
 72
  1000
 73
     1
 74
     2
 75
     0
 76
     0
 77
     0
 78
     0
  0
ENDTAB
  0
TABLE
  2
LTYPE
 70
     3
  0
LTYPE
  2
CONTINUOUS
 70
     0
  3
Solid Line
 72
    65
 73
     0
 40
0.0
  0
LTYPE
  2
CENTER
 70
     0
  3
____ _ ____ _ ____ _ ____ _ ____ _ ____ _ ____
 72
    65
 73
     4
 40
2.0
 49
1.25
 49
-0.25
 49
0.25
 49
-0.25
  0
LTYPE
  2
PHANTOM2
 70
     0
  3
___ _ _ ___ _ _ ___ _ _ ___ _ _
 72
    65
 73
     6
 40
1.25
 49
0.625
 49
-0.125
 49
0.125
 49
-0.125
 49
0.125
 49
-0.125
  0
ENDTAB
  0
TABLE
  2
LAYER
 70
     2
  0
LAYER
  2
0
 70
     0
 62
     7
  6
CONTINUOUS
  0
LAYER
  2
1
 70
     0
 62
     1
  6
CENTER
  0
ENDTAB
  0
TABLE
  2
STYLE
 70
     2
  0
STYLE
  2
STANDARD
 70
     0
 40
0.0
 41
1.0
 50
0.0
 71
     0
 42
0.2
  3
simplex.shx
  4
bigfont.shx
  0
STYLE
  2
STANDARD1
 70
     0
 40
0.0
 41
1.0
 50
0.0
 71
     0
 42
3.0
  3
txt
  4

  0
ENDTAB
  0
TABLE
  2
VIEW
 70
     0
  0
ENDTAB
  0
TABLE
  2
UCS
 70
     0
  0
ENDTAB
  0
TABLE
  2
APPID
 70
     4
  0
APPID
  2
ACAD
 70
     0
  0
APPID
  2
ACAD_MLEADERVER
 70
     0
  0
APPID
  2
ACAD_NAV_VCDISPLAY
 70
     0
  0
APPID
  2
ACAD_EXEMPT_FROM_CAD_STANDARDS
 70
     0
  0
ENDTAB
  0
TABLE
  2
DIMSTYLE
 70
     1
  0
DIMSTYLE
  2
STANDARD
 70
     0
  3

  4

  5

  6

  7

 40
1.0
 41
0.18
 42
0.0625
 43
0.38
 44
0.18
 45
0.0
 46
0.0
 47
0.0
 48
0.0
140
0.18
141
0.09
142
0.0
143
25.399999999999999
144
1.0
145
0.0
146
1.0
147
0.09
 71
     0
 72
     0
 73
     1
 74
     1
 75
     0
 76
     0
 77
     0
 78
     0
170
     0
171
     2
172
     0
173
     0
174
     0
175
     0
176
     0
177
     0
178
     0
  0
ENDTAB
  0
ENDSEC
  0
SECTION
  2
BLOCKS
  0
BLOCK
  8
0
  2
$MODEL_SPACE
 70
     0
 10
0.0
 20
0.0
 30
0.0
  3
$MODEL_SPACE
  1

  0
ENDBLK
  5
21
  8
0
  0
BLOCK
 67
     1
  8
0
  2
$PAPER_SPACE
 70
     0
 10
0.0
 20
0.0
 30
0.0
  3
$PAPER_SPACE
  1

  0
ENDBLK
  5
5B
 67
     1
  8
0
  0
ENDSEC
  0
SECTION
  2
ENTITIES
  0
LINE
  5
16D6
  8
0
 10
54.800000000000018
 20
34.999999999999993
 30
0.0
 11
45.199999999999989
 21
34.999999999999993
 31
0.0
  0
LINE
  5
16D8
  8
0
 10
57.695999999999863
 20
121.4999999999998
 30
0.0
 11
42.303999999999952
 21
121.4999999999998
 31
0.0
  0
LINE
  5
16D9
  8
0
 10
57.822999999999887
 20
107.4999999999999
 30
0.0
 11
42.176999999999943
 21
107.4999999999999
 31
0.0
  0
LINE
  5
16DA
  8
0
 10
57.949999999999818
 20
121.2459999999999
 30
0.0
 11
42.049999999999933
 21
121.2459999999998
 31
0.0
  0
LINE
  5
16DB
  8
0
 10
57.94999999999991
 20
107.6269999999999
 30
0.0
 11
42.049999999999883
 21
107.6269999999999
 31
0.0
  0
LINE
  5
16E2
  8
0
 10
43.999999999999929
 20
107.4999999999999
 30
0.0
 11
44.0
 21
47.499999999999993
 31
0.0
  0
LINE
  5
16E6
  8
0
 10
42.303999999999952
 20
121.4999999999998
 30
0.0
 11
42.049999999999947
 21
121.2459999999998
 31
0.0
  0
LINE
  5
16E9
  8
0
 10
42.049999999999947
 20
107.6269999999999
 30
0.0
 11
42.176999999999929
 21
107.4999999999999
 31
0.0
  0
LINE
  5
1703
  8
1
 10
49.999999999999957
 20
147.9307754849203
 30
0.0
 11
50.0
 21
30.0
 31
0.0
  0
ARC
  5
1706
  8
0
 10
45.199999999999982
 20
45.349999999999859
 30
0.0
 40
2.2000000000000002
 50
120.4675225022893
 51
239.53247749771
  0
ARC
  5
170C
  8
0
 10
37.965439345472561
 20
45.349999999999888
 30
0.0
 40
6.4061238118827362
 50
340.3899767489188
 51
19.610023251082499
  0
LINE
  5
1711
  8
0
 10
44.000000000000028
 20
43.199999999999918
 30
0.0
 11
43.999999999999972
 21
38.200000000000003
 31
0.0
  0
LINE
  5
1716
  8
0
 10
44.000000000000028
 20
38.200000000000003
 30
0.0
 11
45.199999999999989
 21
34.999999999999993
 31
0.0
  0
LINE
  5
1719
  8
0
 10
55.999999999999979
 20
107.4999999999999
 30
0.0
 11
55.999999999999979
 21
47.499999999999943
 31
0.0
  0
LINE
  5
171A
  8
0
 10
55.999999999999972
 20
38.200000000000003
 30
0.0
 11
54.800000000000018
 21
34.999999999999993
 31
0.0
  0
LINE
  5
171B
  8
0
 10
55.999999999999972
 20
43.199999999999918
 30
0.0
 11
56.000000000000043
 21
38.200000000000003
 31
0.0
  0
ARC
  5
171C
  8
0
 10
62.034560654527439
 20
45.349999999999888
 30
0.0
 40
6.4061238118827362
 50
160.38997674891749
 51
199.6100232510812
  0
ARC
  5
171D
  8
0
 10
54.800000000000011
 20
45.349999999999859
 30
0.0
 40
2.2000000000000002
 50
300.46752250229002
 51
59.532477497710723
  0
LINE
  5
171F
  8
0
 10
43.999999999999972
 20
38.200000000000138
 30
0.0
 11
55.999999999999972
 21
38.200000000000003
 31
0.0
  0
ARC
  5
1730
  8
0
 10
34.030291760339111
 20
117.6050305798407
 30
0.0
 40
8.4461956080405969
 50
341.71458729641648
 51
18.285412703583461
  0
ARC
  5
1736
  8
0
 10
65.969708239660804
 20
117.6050305798407
 30
0.0
 40
8.4461956080405969
 50
161.71458729641631
 51
198.2854127035834
  0
LINE
  5
1738
  8
0
 10
57.94999999999991
 20
107.6269999999999
 30
0.0
 11
57.822999999999922
 21
107.4999999999999
 31
0.0
  0
LINE
  5
1739
  8
0
 10
57.695999999999913
 20
121.4999999999998
 30
0.0
 11
57.94999999999991
 21
121.2459999999998
 31
0.0
  0
ARC
  5
1818
  8
0
 10
49.999999999999993
 20
128.8307754849202
 30
0.0
 40
12.5
 50
307.60539845331579
 51
232.39460154668379
  0
ARC
  5
181B
  8
0
 10
49.999999999999993
 20
128.8307754849202
 30
0.0
 40
14.1
 50
302.38038269192077
 51
237.619617308079
  0
LINE
  5
1828
  8
1
 10
69.099999999999966
 20
128.8307754849202
 30
0.0
 11
30.899999999999991
 21
128.8307754849202
 31
0.0
  0
LINE
  5
182B
  8
1
 10
49.999999999999957
 20
167.9307754849203
 30
0.0
 11
49.999999999999957
 21
193.8307754849202
 31
0.0
  0
LINE
  5
182C
  8
1
 10
69.099999999999966
 20
180.88077548492029
 30
0.0
 11
30.899999999999959
 21
180.88077548492029
 31
0.0
  0
ARC
  5
182D
  8
0
 10
49.999999999999957
 20
180.88077548492029
 30
0.0
 40
7.6959999999999988
 50
5.9666809375536749
 51
174.03331906244611
  0
ARC
  5
182E
  8
0
 10
49.999999999999957
 20
180.88077548492029
 30
0.0
 40
7.9500000000000002
 50
5.7753882496815558
 51
174.22461175031819
  0
LINE
  5
182F
  8
0
 10
63.299999999999997
 20
180.0807754849202
 30
0.0
 11
36.699999999999918
 21
180.0807754849202
 31
0.0
  0
LINE
  5
1830
  8
0
 10
63.299999999999997
 20
181.68077548492019
 30
0.0
 11
36.699999999999918
 21
181.6807754849203
 31
0.0
  0
ARC
  5
1831
  8
0
 10
63.299999999999997
 20
180.88077548492029
 30
0.0
 40
0.8000000000000113
 50
270.0
 51
90.0
  0
ARC
  5
1833
  8
0
 10
36.699999999999918
 20
180.88077548492029
 30
0.0
 40
0.8000000000000113
 50
90.0
 51
270.0
  0
ARC
  5
1834
  8
0
 10
49.999999999999957
 20
180.88077548492029
 30
0.0
 40
7.6959999999999988
 50
185.96668093755341
 51
354.03331906244648
  0
ARC
  5
1835
  8
0
 10
49.999999999999957
 20
180.88077548492029
 30
0.0
 40
7.9500000000000002
 50
185.7753882496813
 51
354.22461175031862
  0
ARC
  5
1845
  8
0
 10
104.9999999999999
 20
142.13077548492021
 30
0.0
 40
0.8
 50
0.0
 51
180.0
  0
LINE
  5
1846
  8
0
 10
105.8
 20
121.2459999999998
 30
0.0
 11
112.9499999999999
 21
121.2459999999998
 31
0.0
  0
LINE
  5
1847
  8
0
 10
105.8
 20
121.4999999999998
 30
0.0
 11
112.6959999999999
 21
121.4999999999998
 31
0.0
  0
LINE
  5
1848
  8
0
 10
105.7999999999999
 20
117.6050305798407
 30
0.0
 11
105.8
 21
142.13077548492021
 31
0.0
  0
LINE
  5
1849
  8
0
 10
104.1999999999999
 20
117.6050305798407
 30
0.0
 11
104.1999999999999
 21
142.13077548492021
 31
0.0
  0
ARC
  5
184A
  8
0
 10
104.9999999999999
 20
117.6050305798407
 30
0.0
 40
0.8
 50
180.0
 51
0.0
  0
ARC
  5
184B
  8
0
 10
104.9999999999999
 20
117.6050305798407
 30
0.0
 40
2.6500000000000621
 50
107.57096355329919
 51
72.429036446700124
  0
CIRCLE
  5
184C
  8
0
 10
104.9999999999999
 20
45.349999999999874
 30
0.0
 40
1.896216772288418
  0
LINE
  5
184D
  8
0
 10
100.2
 20
34.999999999999993
 30
0.0
 11
109.8
 21
35.0
 31
0.0
  0
LINE
  5
184E
  8
0
 10
97.303999999999903
 20
121.4999999999998
 30
0.0
 11
104.1999999999999
 21
121.4999999999998
 31
0.0
  0
LINE
  5
184F
  8
0
 10
97.176999999999936
 20
107.4999999999999
 30
0.0
 11
112.82299999999989
 21
107.4999999999999
 31
0.0
  0
LINE
  5
1850
  8
0
 10
97.04999999999994
 20
121.2459999999999
 30
0.0
 11
104.1999999999999
 21
121.2459999999998
 31
0.0
  0
LINE
  5
1851
  8
0
 10
97.049999999999926
 20
107.6269999999999
 30
0.0
 11
112.9499999999999
 21
107.6269999999999
 31
0.0
  0
LINE
  5
1852
  8
0
 10
110.9999999999999
 20
107.4999999999999
 30
0.0
 11
111.0
 21
38.200000000000152
 31
0.0
  0
LINE
  5
1853
  8
0
 10
112.6959999999999
 20
121.4999999999998
 30
0.0
 11
112.9499999999999
 21
121.2459999999998
 31
0.0
  0
LINE
  5
1854
  8
0
 10
112.9499999999999
 20
107.6269999999999
 30
0.0
 11
112.82299999999989
 21
107.4999999999999
 31
0.0
  0
LINE
  5
1855
  8
0
 10
110.9999999999999
 20
38.200000000000003
 30
0.0
 11
109.8
 21
35.0
 31
0.0
  0
LINE
  5
1856
  8
0
 10
98.999999999999915
 20
107.4999999999999
 30
0.0
 11
98.999999999999986
 21
38.200000000000003
 31
0.0
  0
LINE
  5
1857
  8
0
 10
99.000000000000014
 20
38.200000000000003
 30
0.0
 11
100.2
 21
35.0
 31
0.0
  0
LINE
  5
1858
  8
0
 10
111.0
 20
38.200000000000152
 30
0.0
 11
99.000000000000014
 21
38.200000000000003
 31
0.0
  0
LINE
  5
185B
  8
0
 10
97.04999999999994
 20
107.6269999999999
 30
0.0
 11
97.176999999999936
 21
107.4999999999999
 31
0.0
  0
LINE
  5
185C
  8
0
 10
97.303999999999903
 20
121.4999999999998
 30
0.0
 11
97.049999999999912
 21
121.2459999999998
 31
0.0
  0
LINE
  5
185D
  8
1
 10
104.9999999999999
 20
147.93077548492019
 30
0.0
 11
104.9999999999999
 21
29.999999999999989
 31
0.0
  0
TEXT
  5
192A
  8
0
 62
     3
 10
0.0
 20
0.0
 30
0.0
 40
10.0
  1
BJ774-12060-SUS
  7
STANDARD1
  0
LINE
  5
19BE
  8
0
 10
42.049999999999947
 20
114.9550305798407
 30
0.0
 11
42.049999999999947
 21
107.6269999999999
 31
0.0
  0
LINE
  5
19C1
  8
0
 10
57.94999999999996
 20
114.9550305798407
 30
0.0
 11
57.94999999999996
 21
107.6269999999999
 31
0.0
  0
LINE
  5
19C2
  8
0
 10
42.049999999999947
 20
121.2459999999998
 30
0.0
 11
42.049999999999947
 21
120.25503057984081
 31
0.0
  0
LINE
  5
19C3
  8
0
 10
57.94999999999996
 20
121.2459999999998
 30
0.0
 11
57.94999999999996
 21
120.25503057984081
 31
0.0
  0
LINE
  5
1A0B
  8
0
 10
97.04999999999994
 20
121.2459999999999
 30
0.0
 11
97.04999999999994
 21
107.6269999999999
 31
0.0
  0
LINE
  5
1A0C
  8
0
 10
112.9499999999999
 20
121.2459999999998
 30
0.0
 11
112.9499999999999
 21
107.6269999999999
 31
0.0
  0
ENDSEC
  0
EOF
