  0
SECTION
  2
HEADER
  9
$ACADVER
  1
AC1009
  9
$INSBASE
 10
0.0
 20
0.0
 30
0.0
  9
$EXTMIN
 10
0.0
 20
-2.960436562073669
 30
0.0
  9
$EXTMAX
 10
138.80000000000001
 20
229.90000000000001
 30
0.0
  9
$LIMMIN
 10
0.0
 20
0.0
  9
$LIMMAX
 10
12.0
 20
9.0
  9
$ORTHOMODE
 70
     1
  9
$REGENMODE
 70
     1
  9
$FILLMODE
 70
     1
  9
$QTEXTMODE
 70
     0
  9
$MIRRTEXT
 70
     0
  9
$DRAGMODE
 70
     2
  9
$LTSCALE
 40
10.0
  9
$OSMODE
 70
    37
  9
$ATTMODE
 70
     1
  9
$TEXTSIZE
 40
0.2
  9
$TRACEWID
 40
0.05
  9
$TEXTSTYLE
  7
STANDARD
  9
$CLAYER
  8
0
  9
$CELTYPE
  6
BYLAYER
  9
$CECOLOR
 62
   256
  9
$DIMSCALE
 40
1.0
  9
$DIMASZ
 40
0.18
  9
$DIMEXO
 40
0.0625
  9
$DIMDLI
 40
0.38
  9
$DIMRND
 40
0.0
  9
$DIMDLE
 40
0.0
  9
$DIMEXE
 40
0.18
  9
$DIMTP
 40
0.0
  9
$DIMTM
 40
0.0
  9
$DIMTXT
 40
0.18
  9
$DIMCEN
 40
0.09
  9
$DIMTSZ
 40
0.0
  9
$DIMTOL
 70
     0
  9
$DIMLIM
 70
     0
  9
$DIMTIH
 70
     1
  9
$DIMTOH
 70
     1
  9
$DIMSE1
 70
     0
  9
$DIMSE2
 70
     0
  9
$DIMTAD
 70
     0
  9
$DIMZIN
 70
     0
  9
$DIMBLK
  1

  9
$DIMASO
 70
     1
  9
$DIMSHO
 70
     1
  9
$DIMPOST
  1

  9
$DIMAPOST
  1

  9
$DIMALT
 70
     0
  9
$DIMALTD
 70
     2
  9
$DIMALTF
 40
25.399999999999999
  9
$DIMLFAC
 40
1.0
  9
$DIMTOFL
 70
     0
  9
$DIMTVP
 40
0.0
  9
$DIMTIX
 70
     0
  9
$DIMSOXD
 70
     0
  9
$DIMSAH
 70
     0
  9
$DIMBLK1
  1

  9
$DIMBLK2
  1

  9
$DIMSTYLE
  2
STANDARD
  9
$DIMCLRD
 70
     0
  9
$DIMCLRE
 70
     0
  9
$DIMCLRT
 70
     0
  9
$DIMTFAC
 40
1.0
  9
$DIMGAP
 40
0.09
  9
$LUNITS
 70
     2
  9
$LUPREC
 70
     4
  9
$SKETCHINC
 40
0.1
  9
$FILLETRAD
 40
1.5
  9
$AUNITS
 70
     0
  9
$AUPREC
 70
     0
  9
$MENU
  1
.
  9
$ELEVATION
 40
0.0
  9
$PELEVATION
 40
0.0
  9
$THICKNESS
 40
0.0
  9
$LIMCHECK
 70
     0
  9
$BLIPMODE
 70
     0
  9
$CHAMFERA
 40
0.0
  9
$CHAMFERB
 40
0.0
  9
$SKPOLY
 70
     0
  9
$TDCREATE
 40
2453083.4120647679
  9
$TDUPDATE
 40
2457497.6472919211
  9
$TDINDWG
 40
0.5619833102
  9
$TDUSRTIMER
 40
0.5619831944
  9
$USRTIMER
 70
     1
  9
$ANGBASE
 50
0.0
  9
$ANGDIR
 70
     0
  9
$PDMODE
 70
     0
  9
$PDSIZE
 40
0.0
  9
$PLINEWID
 40
0.0
  9
$COORDS
 70
     1
  9
$SPLFRAME
 70
     0
  9
$SPLINETYPE
 70
     6
  9
$SPLINESEGS
 70
     8
  9
$ATTDIA
 70
     0
  9
$ATTREQ
 70
     1
  9
$HANDLING
 70
     1
  9
$HANDSEED
  5
51F2
  9
$SURFTAB1
 70
     6
  9
$SURFTAB2
 70
     6
  9
$SURFTYPE
 70
     6
  9
$SURFU
 70
     6
  9
$SURFV
 70
     6
  9
$UCSNAME
  2

  9
$UCSORG
 10
0.0
 20
0.0
 30
0.0
  9
$UCSXDIR
 10
1.0
 20
0.0
 30
0.0
  9
$UCSYDIR
 10
0.0
 20
1.0
 30
0.0
  9
$PUCSNAME
  2

  9
$PUCSORG
 10
0.0
 20
0.0
 30
0.0
  9
$PUCSXDIR
 10
1.0
 20
0.0
 30
0.0
  9
$PUCSYDIR
 10
0.0
 20
1.0
 30
0.0
  9
$USERI1
 70
     0
  9
$USERI2
 70
     1
  9
$USERI3
 70
     0
  9
$USERI4
 70
     0
  9
$USERI5
 70
     0
  9
$USERR1
 40
0.0
  9
$USERR2
 40
0.0
  9
$USERR3
 40
0.0
  9
$USERR4
 40
0.0
  9
$USERR5
 40
0.0
  9
$WORLDVIEW
 70
     1
  9
$SHADEDGE
 70
     3
  9
$SHADEDIF
 70
    70
  9
$TILEMODE
 70
     1
  9
$MAXACTVP
 70
    64
  9
$PLIMCHECK
 70
     0
  9
$PEXTMIN
 10
0.0
 20
0.0
 30
0.0
  9
$PEXTMAX
 10
0.0
 20
0.0
 30
0.0
  9
$PLIMMIN
 10
0.0
 20
0.0
  9
$PLIMMAX
 10
12.0
 20
9.0
  9
$UNITMODE
 70
     0
  9
$VISRETAIN
 70
     1
  9
$PLINEGEN
 70
     0
  9
$PSLTSCALE
 70
     1
  0
ENDSEC
  0
SECTION
  2
TABLES
  0
TABLE
  2
VPORT
 70
     1
  0
VPORT
  2
*ACTIVE
 70
     0
 10
0.0
 20
0.0
 11
1.0
 21
1.0
 12
188.08412864000019
 22
113.4655608698674
 13
0.0
 23
0.0
 14
0.5
 24
0.5
 15
0.5
 25
0.5
 16
0.0
 26
0.0
 36
1.0
 17
0.0
 27
0.0
 37
0.0
 40
234.91427957721061
 41
2.6019575856443709
 42
50.0
 43
0.0
 44
0.0
 50
0.0
 51
0.0
 71
     0
 72
  1000
 73
     1
 74
     2
 75
     0
 76
     0
 77
     0
 78
     0
  0
ENDTAB
  0
TABLE
  2
LTYPE
 70
     3
  0
LTYPE
  2
CONTINUOUS
 70
     0
  3
Solid Line
 72
    65
 73
     0
 40
0.0
  0
LTYPE
  2
CENTER
 70
     0
  3
____ _ ____ _ ____ _ ____ _ ____ _ ____ _ ____
 72
    65
 73
     4
 40
2.0
 49
1.25
 49
-0.25
 49
0.25
 49
-0.25
  0
LTYPE
  2
PHANTOM2
 70
     0
  3
___ _ _ ___ _ _ ___ _ _ ___ _ _
 72
    65
 73
     6
 40
1.25
 49
0.625
 49
-0.125
 49
0.125
 49
-0.125
 49
0.125
 49
-0.125
  0
ENDTAB
  0
TABLE
  2
LAYER
 70
     2
  0
LAYER
  2
0
 70
     0
 62
     7
  6
CONTINUOUS
  0
LAYER
  2
1
 70
     0
 62
     1
  6
CENTER
  0
ENDTAB
  0
TABLE
  2
STYLE
 70
     2
  0
STYLE
  2
STANDARD
 70
     0
 40
0.0
 41
1.0
 50
0.0
 71
     0
 42
0.2
  3
simplex.shx
  4
bigfont.shx
  0
STYLE
  2
STANDARD1
 70
     0
 40
0.0
 41
1.0
 50
0.0
 71
     0
 42
3.0
  3
txt
  4

  0
ENDTAB
  0
TABLE
  2
VIEW
 70
     0
  0
ENDTAB
  0
TABLE
  2
UCS
 70
     0
  0
ENDTAB
  0
TABLE
  2
APPID
 70
     5
  0
APPID
  2
ACAD
 70
     0
  0
APPID
  2
DCO15
 70
     0
  0
APPID
  2
ACAD_MLEADERVER
 70
     0
  0
APPID
  2
ACAD_NAV_VCDISPLAY
 70
     0
  0
APPID
  2
ACAD_EXEMPT_FROM_CAD_STANDARDS
 70
     0
  0
ENDTAB
  0
TABLE
  2
DIMSTYLE
 70
     1
  0
DIMSTYLE
  2
STANDARD
 70
     0
  3

  4

  5

  6

  7

 40
1.0
 41
0.18
 42
0.0625
 43
0.38
 44
0.18
 45
0.0
 46
0.0
 47
0.0
 48
0.0
140
0.18
141
0.09
142
0.0
143
25.399999999999999
144
1.0
145
0.0
146
1.0
147
0.09
 71
     0
 72
     0
 73
     1
 74
     1
 75
     0
 76
     0
 77
     0
 78
     0
170
     0
171
     2
172
     0
173
     0
174
     0
175
     0
176
     0
177
     0
178
     0
  0
ENDTAB
  0
ENDSEC
  0
SECTION
  2
BLOCKS
  0
BLOCK
  8
0
  2
$MODEL_SPACE
 70
     0
 10
0.0
 20
0.0
 30
0.0
  3
$MODEL_SPACE
  1

  0
ENDBLK
  5
21
  8
0
  0
BLOCK
 67
     1
  8
0
  2
$PAPER_SPACE
 70
     0
 10
0.0
 20
0.0
 30
0.0
  3
$PAPER_SPACE
  1

  0
ENDBLK
  5
5B
 67
     1
  8
0
  0
ENDSEC
  0
SECTION
  2
ENTITIES
  0
LINE
  5
480C
  8
0
 10
137.30000000000001
 20
157.00000000000011
 30
0.0
 11
118.5
 21
157.00000000000011
 31
0.0
  0
LINE
  5
4820
  8
0
 10
135.01801176735671
 20
141.99999999999969
 30
0.0
 11
120.7819882326432
 21
141.99999999999969
 31
0.0
  0
LINE
  5
4832
  8
0
 10
123.6631819994378
 20
152.5082327237111
 30
0.0
 11
132.13681800056219
 21
152.5082327237111
 31
0.0
  0
LINE
  5
4836
  8
0
 10
123.6631819994378
 20
144.9999999999998
 30
0.0
 11
132.1368180005621
 21
144.99999999999969
 31
0.0
  0
LINE
  5
48FC
  8
0
 10
14.39941088065596
 20
219.7368180005621
 30
0.0
 11
41.860613281632148
 21
221.7616335698936
 31
0.0
  0
LINE
  5
49E2
  8
0
 10
55.40000000000002
 20
162.0
 30
0.0
 11
44.599999999999987
 21
162.0
 31
0.0
  0
LINE
  5
49F9
  8
0
 10
42.700000000000088
 20
35.000000000000021
 30
0.0
 11
57.300000000000047
 21
34.999999999999993
 31
0.0
  0
LINE
  5
4A06
  8
0
 10
60.90000000000002
 20
119.0
 30
0.0
 11
39.100000000000001
 21
119.0
 31
0.0
  0
LINE
  5
4A07
  8
0
 10
60.000000000000789
 20
157.0
 30
0.0
 11
40.000000000000057
 21
157.00000000000011
 31
0.0
  0
LINE
  5
4A0F
  8
0
 10
42.508132567704124
 20
142.0
 30
0.0
 11
39.100000000000009
 21
142.0
 31
0.0
  0
LINE
  5
4A10
  8
0
 10
39.100000000000001
 20
120.651
 30
0.0
 11
60.899999999999999
 21
120.651
 31
0.0
  0
ARC
  5
4A13
  8
0
 10
43.6749999445518
 20
46.302779173713859
 30
0.0
 40
3.1750000000000038
 50
121.8406767131669
 51
238.1593232868324
  0
LINE
  5
4A14
  8
0
 10
44.099999999999987
 20
161.5
 30
0.0
 11
44.099999999999987
 21
157.0
 31
0.0
  0
LINE
  5
4A24
  8
1
 10
50.0
 20
167.0
 30
0.0
 11
50.0
 21
30.0
 31
0.0
  0
LINE
  5
4A26
  8
0
 10
42.000000000000092
 20
119.0
 30
0.0
 11
42.000000000000092
 21
49.000000000000043
 31
0.0
  0
LINE
  5
4A28
  8
0
 10
42.000000000000071
 20
43.605558347427667
 30
0.0
 11
42.000000000000071
 21
36.999999999999993
 31
0.0
  0
ARC
  5
4A30
  8
0
 10
35.486673950000593
 20
46.303372551291638
 30
0.0
 40
7.0494833733210376
 50
337.50131149897669
 51
22.490384476286678
  0
LINE
  5
4A35
  8
0
 10
42.000000000000121
 20
36.999999999999993
 30
0.0
 11
58.000000000000149
 21
36.999999999999993
 31
0.0
  0
LINE
  5
4A38
  8
0
 10
42.000000000000071
 20
36.999999999999993
 30
0.0
 11
42.700000000000088
 21
35.000000000000021
 31
0.0
  0
ARC
  5
4A3B
  8
0
 10
64.513326049999634
 20
46.303372551291638
 30
0.0
 40
7.0494833733210376
 50
157.50961552371319
 51
202.4986885010232
  0
LINE
  5
4A3C
  8
0
 10
58.000000000000149
 20
43.605558347427667
 30
0.0
 11
58.000000000000149
 21
36.999999999999993
 31
0.0
  0
LINE
  5
4A3D
  8
0
 10
58.000000000000099
 20
119.0
 30
0.0
 11
58.000000000000099
 21
49.000000000000043
 31
0.0
  0
ARC
  5
4A3E
  8
0
 10
56.325000055448399
 20
46.302779173713859
 30
0.0
 40
3.1750000000000038
 50
301.8406767131674
 51
58.159323286833072
  0
LINE
  5
4A3F
  8
0
 10
58.000000000000149
 20
36.999999999999993
 30
0.0
 11
57.300000000000111
 21
35.000000000000021
 31
0.0
  0
ARC
  5
4A42
  8
0
 10
36.100000000000009
 20
142.0
 30
0.0
 40
3.0
 50
0.0
 51
90.0
  0
ARC
  5
4A4D
  8
0
 10
36.209114393929227
 20
137.08817135179839
 30
0.0
 40
7.987721240932375
 50
37.946281335112147
 51
82.095574073909177
  0
ARC
  5
4A53
  8
0
 10
44.599999999999987
 20
161.5
 30
0.0
 40
0.5
 50
90.0
 51
179.9999999999996
  0
ARC
  5
4A56
  8
0
 10
55.40000000000002
 20
161.5
 30
0.0
 40
0.5
 50
0.0000000000003689
 51
90.0
  0
LINE
  5
4A57
  8
0
 10
55.90000000000002
 20
161.5
 30
0.0
 11
55.90000000000002
 21
157.0
 31
0.0
  0
LINE
  5
4A58
  8
0
 10
44.099999999999987
 20
161.5
 30
0.0
 11
55.90000000000002
 21
161.5
 31
0.0
  0
ARC
  5
4A5B
  8
0
 10
48.393437655250658
 20
31.87393316404507
 30
0.0
 40
125.40726612724021
 50
93.837643033631977
 51
105.8583360637892
  0
LINE
  5
4A5D
  8
0
 10
12.99999999999997
 20
151.05594819884109
 30
0.0
 11
12.999999999999989
 21
146.5
 31
0.0
  0
ARC
  5
4A5F
  8
0
 10
14.49999999999997
 20
151.05594819884121
 30
0.0
 40
1.5
 50
104.4903759827977
 51
180.00000000000111
  0
ARC
  5
4A60
  8
0
 10
14.500000000000041
 20
146.5
 30
0.0
 40
1.5
 50
180.0
 51
270.0
  0
ARC
  5
4A62
  8
0
 10
85.499999999999972
 20
151.05594819884209
 30
0.0
 40
1.5
 50
359.99999999999892
 51
75.509624017202313
  0
ARC
  5
4A64
  8
0
 10
51.606562344753812
 20
31.873933164046498
 30
0.0
 40
125.4072661272385
 50
74.141663936212709
 51
86.162356966370083
  0
ARC
  5
4A65
  8
0
 10
55.935398921845767
 20
155.2083987069353
 30
0.0
 40
2.223194440739654
 50
7.5368142513785461
 51
53.694167757480962
  0
ARC
  5
4A66
  8
0
 10
63.790885606070759
 20
137.08817135179839
 30
0.0
 40
7.987721240932375
 50
97.90442592609061
 51
142.05371866488781
  0
ARC
  5
4A67
  8
0
 10
62.464555942577881
 20
142.4965762996267
 30
0.0
 40
4.9974212391635957
 50
149.93758519681151
 51
185.70269239329741
  0
LINE
  5
4A68
  8
0
 10
58.139386718367959
 20
155.5
 30
0.0
 11
58.139386718367909
 21
144.99999999999989
 31
0.0
  0
ARC
  5
4A69
  8
0
 10
63.899999999999999
 20
142.0
 30
0.0
 40
3.0
 50
90.0
 51
180.0
  0
LINE
  5
4A6A
  8
0
 10
57.491867432295891
 20
142.0
 30
0.0
 11
60.899999999999999
 21
142.0
 31
0.0
  0
LINE
  5
4A6B
  8
0
 10
85.500000000000014
 20
145.00000000000091
 30
0.0
 11
58.139386718367909
 21
144.99999999999989
 31
0.0
  0
LINE
  5
4A6F
  8
1
 10
50.0
 20
198.09999999999999
 30
0.0
 11
50.0
 21
229.90000000000001
 31
0.0
  0
LINE
  5
4A70
  8
1
 10
7.9999999999999778
 20
214.0
 30
0.0
 11
92.000000000000014
 21
214.00000000000011
 31
0.0
  0
LINE
  5
4A71
  8
0
 10
12.99999999999998
 20
209.7598054754898
 30
0.0
 11
12.99999999999998
 21
218.24019452451029
 31
0.0
  0
ARC
  5
4A73
  8
0
 10
14.49999999999998
 20
218.24019452451029
 30
0.0
 40
1.5
 50
93.845106901105524
 51
180.0
  0
ARC
  5
4A77
  8
0
 10
14.49999999999998
 20
209.7598054754898
 30
0.0
 40
1.5
 50
180.0
 51
266.15489309889438
  0
LINE
  5
4A78
  8
0
 10
14.39941088065596
 20
208.2631819994379
 30
0.0
 11
41.860613281632119
 21
206.2383664301064
 31
0.0
  0
LINE
  5
4A79
  8
0
 10
85.600589119344036
 20
208.2631819994379
 30
0.0
 11
58.139386718367959
 21
206.2383664301064
 31
0.0
  0
ARC
  5
4A7A
  8
0
 10
85.5
 20
209.7598054754898
 30
0.0
 40
1.5
 50
273.84510690110551
 51
0.0000000000000127
  0
ARC
  5
4A7D
  8
0
 10
85.5
 20
218.24019452451029
 30
0.0
 40
1.5
 50
0.0000000000000127
 51
86.154893098894476
  0
LINE
  5
4A7E
  8
0
 10
87.0
 20
209.7598054754898
 30
0.0
 11
87.0
 21
218.24019452451029
 31
0.0
  0
LINE
  5
4A7F
  8
0
 10
85.600589119344036
 20
219.7368180005621
 30
0.0
 11
58.139386718367959
 21
221.7616335698936
 31
0.0
  0
CIRCLE
  5
4A87
  8
0
 10
50.0
 20
214.0
 30
0.0
 40
5.9000000000000048
  0
CIRCLE
  5
4A88
  8
0
 10
50.0
 20
214.0
 30
0.0
 40
5.4000000000000048
  0
CIRCLE
  5
4A89
  8
0
 10
82.823694538424775
 20
214.00025312404719
 30
0.0
 40
2.1000000000000001
  0
CIRCLE
  5
4A8A
  8
0
 10
82.823694538424775
 20
214.00025312404719
 30
0.0
 40
1.8999999999999999
  0
LINE
  5
4BA7
  8
0
 10
135.90000000000009
 20
36.999999999999993
 30
0.0
 11
135.2000000000001
 21
35.000000000000021
 31
0.0
  0
LINE
  5
4BA9
  8
0
 10
135.90000000000009
 20
119.0
 30
0.0
 11
135.90000000000009
 21
36.999999999999993
 31
0.0
  0
LINE
  5
4BAC
  8
0
 10
119.90000000000001
 20
36.999999999999993
 30
0.0
 11
120.59999999999999
 21
35.000000000000021
 31
0.0
  0
LINE
  5
4BAD
  8
0
 10
119.90000000000011
 20
36.999999999999993
 30
0.0
 11
135.90000000000009
 21
36.999999999999993
 31
0.0
  0
LINE
  5
4BB0
  8
0
 10
119.90000000000001
 20
119.0
 30
0.0
 11
119.90000000000001
 21
36.999999999999993
 31
0.0
  0
LINE
  5
4BB1
  8
1
 10
127.90000000000001
 20
167.0
 30
0.0
 11
127.90000000000001
 21
29.999999999999801
 31
0.0
  0
LINE
  5
4BB7
  8
0
 10
120.59999999999999
 20
35.000000000000021
 30
0.0
 11
135.19999999999999
 21
34.999999999999993
 31
0.0
  0
CIRCLE
  5
4BBA
  8
0
 10
127.90000000000001
 20
46.302779173713859
 30
0.0
 40
2.6972208262861841
  0
ARC
  5
4BC3
  8
0
 10
118.5
 20
155.50000000000011
 30
0.0
 40
1.5
 50
90.0
 51
180.0
  0
LINE
  5
4BC4
  8
0
 10
119.7819882326432
 20
155.51589366922121
 30
0.0
 11
119.7819882326432
 21
143.4999999999998
 31
0.0
  0
POLYLINE
  5
4BC7
  8
0
 10
120.7819882326432
 20
157.00000000000006
 30
0.0
 66
     1
 70
     8
  0
VERTEX
  8
0
  5
4FEA
 10
120.782
 20
157.000
 30
0.000000
  70
    32
  0
VERTEX
  8
0
  5
4FEB
 10
120.770
 20
157.000
 30
0.000000
  70
    32
  0
VERTEX
  8
0
  5
4FEC
 10
120.757
 20
157.000
 30
0.000000
  70
    32
  0
VERTEX
  8
0
  5
4FED
 10
120.745
 20
156.999
 30
0.000000
  70
    32
  0
VERTEX
  8
0
  5
4FEE
 10
120.733
 20
156.998
 30
0.000000
  70
    32
  0
VERTEX
  8
0
  5
4FEF
 10
120.721
 20
156.997
 30
0.000000
  70
    32
  0
VERTEX
  8
0
  5
4FF0
 10
120.708
 20
156.996
 30
0.000000
  70
    32
  0
VERTEX
  8
0
  5
4FF1
 10
120.696
 20
156.994
 30
0.000000
  70
    32
  0
VERTEX
  8
0
  5
4FF2
 10
120.684
 20
156.993
 30
0.000000
  70
    32
  0
VERTEX
  8
0
  5
4FF3
 10
120.672
 20
156.991
 30
0.000000
  70
    32
  0
VERTEX
  8
0
  5
4FF4
 10
120.660
 20
156.989
 30
0.000000
  70
    32
  0
VERTEX
  8
0
  5
4FF5
 10
120.647
 20
156.986
 30
0.000000
  70
    32
  0
VERTEX
  8
0
  5
4FF6
 10
120.635
 20
156.984
 30
0.000000
  70
    32
  0
VERTEX
  8
0
  5
4FF7
 10
120.623
 20
156.981
 30
0.000000
  70
    32
  0
VERTEX
  8
0
  5
4FF8
 10
120.611
 20
156.978
 30
0.000000
  70
    32
  0
VERTEX
  8
0
  5
4FF9
 10
120.599
 20
156.975
 30
0.000000
  70
    32
  0
VERTEX
  8
0
  5
4FFA
 10
120.587
 20
156.971
 30
0.000000
  70
    32
  0
VERTEX
  8
0
  5
4FFB
 10
120.575
 20
156.967
 30
0.000000
  70
    32
  0
VERTEX
  8
0
  5
4FFC
 10
120.563
 20
156.964
 30
0.000000
  70
    32
  0
VERTEX
  8
0
  5
4FFD
 10
120.551
 20
156.959
 30
0.000000
  70
    32
  0
VERTEX
  8
0
  5
4FFE
 10
120.539
 20
156.955
 30
0.000000
  70
    32
  0
VERTEX
  8
0
  5
4FFF
 10
120.527
 20
156.950
 30
0.000000
  70
    32
  0
VERTEX
  8
0
  5
5000
 10
120.515
 20
156.946
 30
0.000000
  70
    32
  0
VERTEX
  8
0
  5
5001
 10
120.503
 20
156.941
 30
0.000000
  70
    32
  0
VERTEX
  8
0
  5
5002
 10
120.492
 20
156.935
 30
0.000000
  70
    32
  0
VERTEX
  8
0
  5
5003
 10
120.480
 20
156.930
 30
0.000000
  70
    32
  0
VERTEX
  8
0
  5
5004
 10
120.468
 20
156.924
 30
0.000000
  70
    32
  0
VERTEX
  8
0
  5
5005
 10
120.457
 20
156.918
 30
0.000000
  70
    32
  0
VERTEX
  8
0
  5
5006
 10
120.445
 20
156.912
 30
0.000000
  70
    32
  0
VERTEX
  8
0
  5
5007
 10
120.434
 20
156.906
 30
0.000000
  70
    32
  0
VERTEX
  8
0
  5
5008
 10
120.422
 20
156.899
 30
0.000000
  70
    32
  0
VERTEX
  8
0
  5
5009
 10
120.411
 20
156.893
 30
0.000000
  70
    32
  0
VERTEX
  8
0
  5
500A
 10
120.399
 20
156.886
 30
0.000000
  70
    32
  0
VERTEX
  8
0
  5
500B
 10
120.388
 20
156.879
 30
0.000000
  70
    32
  0
VERTEX
  8
0
  5
500C
 10
120.377
 20
156.871
 30
0.000000
  70
    32
  0
VERTEX
  8
0
  5
500D
 10
120.366
 20
156.864
 30
0.000000
  70
    32
  0
VERTEX
  8
0
  5
500E
 10
120.354
 20
156.856
 30
0.000000
  70
    32
  0
VERTEX
  8
0
  5
500F
 10
120.343
 20
156.848
 30
0.000000
  70
    32
  0
VERTEX
  8
0
  5
5010
 10
120.332
 20
156.840
 30
0.000000
  70
    32
  0
VERTEX
  8
0
  5
5011
 10
120.321
 20
156.831
 30
0.000000
  70
    32
  0
VERTEX
  8
0
  5
5012
 10
120.311
 20
156.823
 30
0.000000
  70
    32
  0
VERTEX
  8
0
  5
5013
 10
120.300
 20
156.814
 30
0.000000
  70
    32
  0
VERTEX
  8
0
  5
5014
 10
120.289
 20
156.805
 30
0.000000
  70
    32
  0
VERTEX
  8
0
  5
5015
 10
120.278
 20
156.796
 30
0.000000
  70
    32
  0
VERTEX
  8
0
  5
5016
 10
120.268
 20
156.787
 30
0.000000
  70
    32
  0
VERTEX
  8
0
  5
5017
 10
120.257
 20
156.777
 30
0.000000
  70
    32
  0
VERTEX
  8
0
  5
5018
 10
120.247
 20
156.767
 30
0.000000
  70
    32
  0
VERTEX
  8
0
  5
5019
 10
120.237
 20
156.757
 30
0.000000
  70
    32
  0
VERTEX
  8
0
  5
501A
 10
120.226
 20
156.747
 30
0.000000
  70
    32
  0
VERTEX
  8
0
  5
501B
 10
120.216
 20
156.737
 30
0.000000
  70
    32
  0
VERTEX
  8
0
  5
501C
 10
120.206
 20
156.726
 30
0.000000
  70
    32
  0
VERTEX
  8
0
  5
501D
 10
120.196
 20
156.716
 30
0.000000
  70
    32
  0
VERTEX
  8
0
  5
501E
 10
120.186
 20
156.705
 30
0.000000
  70
    32
  0
VERTEX
  8
0
  5
501F
 10
120.176
 20
156.694
 30
0.000000
  70
    32
  0
VERTEX
  8
0
  5
5020
 10
120.167
 20
156.683
 30
0.000000
  70
    32
  0
VERTEX
  8
0
  5
5021
 10
120.157
 20
156.671
 30
0.000000
  70
    32
  0
VERTEX
  8
0
  5
5022
 10
120.148
 20
156.660
 30
0.000000
  70
    32
  0
VERTEX
  8
0
  5
5023
 10
120.138
 20
156.648
 30
0.000000
  70
    32
  0
VERTEX
  8
0
  5
5024
 10
120.129
 20
156.636
 30
0.000000
  70
    32
  0
VERTEX
  8
0
  5
5025
 10
120.120
 20
156.624
 30
0.000000
  70
    32
  0
VERTEX
  8
0
  5
5026
 10
120.110
 20
156.611
 30
0.000000
  70
    32
  0
VERTEX
  8
0
  5
5027
 10
120.101
 20
156.599
 30
0.000000
  70
    32
  0
VERTEX
  8
0
  5
5028
 10
120.092
 20
156.586
 30
0.000000
  70
    32
  0
VERTEX
  8
0
  5
5029
 10
120.084
 20
156.574
 30
0.000000
  70
    32
  0
VERTEX
  8
0
  5
502A
 10
120.075
 20
156.561
 30
0.000000
  70
    32
  0
VERTEX
  8
0
  5
502B
 10
120.066
 20
156.548
 30
0.000000
  70
    32
  0
VERTEX
  8
0
  5
502C
 10
120.058
 20
156.534
 30
0.000000
  70
    32
  0
VERTEX
  8
0
  5
502D
 10
120.049
 20
156.521
 30
0.000000
  70
    32
  0
VERTEX
  8
0
  5
502E
 10
120.041
 20
156.507
 30
0.000000
  70
    32
  0
VERTEX
  8
0
  5
502F
 10
120.033
 20
156.494
 30
0.000000
  70
    32
  0
VERTEX
  8
0
  5
5030
 10
120.025
 20
156.480
 30
0.000000
  70
    32
  0
VERTEX
  8
0
  5
5031
 10
120.017
 20
156.466
 30
0.000000
  70
    32
  0
VERTEX
  8
0
  5
5032
 10
120.009
 20
156.452
 30
0.000000
  70
    32
  0
VERTEX
  8
0
  5
5033
 10
120.001
 20
156.437
 30
0.000000
  70
    32
  0
VERTEX
  8
0
  5
5034
 10
119.994
 20
156.423
 30
0.000000
  70
    32
  0
VERTEX
  8
0
  5
5035
 10
119.986
 20
156.408
 30
0.000000
  70
    32
  0
VERTEX
  8
0
  5
5036
 10
119.979
 20
156.394
 30
0.000000
  70
    32
  0
VERTEX
  8
0
  5
5037
 10
119.972
 20
156.379
 30
0.000000
  70
    32
  0
VERTEX
  8
0
  5
5038
 10
119.964
 20
156.364
 30
0.000000
  70
    32
  0
VERTEX
  8
0
  5
5039
 10
119.957
 20
156.349
 30
0.000000
  70
    32
  0
VERTEX
  8
0
  5
503A
 10
119.951
 20
156.333
 30
0.000000
  70
    32
  0
VERTEX
  8
0
  5
503B
 10
119.944
 20
156.318
 30
0.000000
  70
    32
  0
VERTEX
  8
0
  5
503C
 10
119.937
 20
156.302
 30
0.000000
  70
    32
  0
VERTEX
  8
0
  5
503D
 10
119.931
 20
156.287
 30
0.000000
  70
    32
  0
VERTEX
  8
0
  5
503E
 10
119.924
 20
156.271
 30
0.000000
  70
    32
  0
VERTEX
  8
0
  5
503F
 10
119.918
 20
156.255
 30
0.000000
  70
    32
  0
VERTEX
  8
0
  5
5040
 10
119.912
 20
156.239
 30
0.000000
  70
    32
  0
VERTEX
  8
0
  5
5041
 10
119.906
 20
156.223
 30
0.000000
  70
    32
  0
VERTEX
  8
0
  5
5042
 10
119.900
 20
156.207
 30
0.000000
  70
    32
  0
VERTEX
  8
0
  5
5043
 10
119.894
 20
156.191
 30
0.000000
  70
    32
  0
VERTEX
  8
0
  5
5044
 10
119.889
 20
156.174
 30
0.000000
  70
    32
  0
VERTEX
  8
0
  5
5045
 10
119.883
 20
156.158
 30
0.000000
  70
    32
  0
VERTEX
  8
0
  5
5046
 10
119.878
 20
156.141
 30
0.000000
  70
    32
  0
VERTEX
  8
0
  5
5047
 10
119.873
 20
156.125
 30
0.000000
  70
    32
  0
VERTEX
  8
0
  5
5048
 10
119.868
 20
156.108
 30
0.000000
  70
    32
  0
VERTEX
  8
0
  5
5049
 10
119.863
 20
156.091
 30
0.000000
  70
    32
  0
VERTEX
  8
0
  5
504A
 10
119.858
 20
156.074
 30
0.000000
  70
    32
  0
VERTEX
  8
0
  5
504B
 10
119.853
 20
156.057
 30
0.000000
  70
    32
  0
VERTEX
  8
0
  5
504C
 10
119.849
 20
156.040
 30
0.000000
  70
    32
  0
VERTEX
  8
0
  5
504D
 10
119.845
 20
156.023
 30
0.000000
  70
    32
  0
VERTEX
  8
0
  5
504E
 10
119.840
 20
156.005
 30
0.000000
  70
    32
  0
VERTEX
  8
0
  5
504F
 10
119.836
 20
155.988
 30
0.000000
  70
    32
  0
VERTEX
  8
0
  5
5050
 10
119.832
 20
155.971
 30
0.000000
  70
    32
  0
VERTEX
  8
0
  5
5051
 10
119.829
 20
155.953
 30
0.000000
  70
    32
  0
VERTEX
  8
0
  5
5052
 10
119.825
 20
155.935
 30
0.000000
  70
    32
  0
VERTEX
  8
0
  5
5053
 10
119.822
 20
155.918
 30
0.000000
  70
    32
  0
VERTEX
  8
0
  5
5054
 10
119.818
 20
155.900
 30
0.000000
  70
    32
  0
VERTEX
  8
0
  5
5055
 10
119.815
 20
155.882
 30
0.000000
  70
    32
  0
VERTEX
  8
0
  5
5056
 10
119.812
 20
155.864
 30
0.000000
  70
    32
  0
VERTEX
  8
0
  5
5057
 10
119.809
 20
155.847
 30
0.000000
  70
    32
  0
VERTEX
  8
0
  5
5058
 10
119.806
 20
155.829
 30
0.000000
  70
    32
  0
VERTEX
  8
0
  5
5059
 10
119.804
 20
155.811
 30
0.000000
  70
    32
  0
VERTEX
  8
0
  5
505A
 10
119.801
 20
155.793
 30
0.000000
  70
    32
  0
VERTEX
  8
0
  5
505B
 10
119.799
 20
155.775
 30
0.000000
  70
    32
  0
VERTEX
  8
0
  5
505C
 10
119.797
 20
155.756
 30
0.000000
  70
    32
  0
VERTEX
  8
0
  5
505D
 10
119.795
 20
155.738
 30
0.000000
  70
    32
  0
VERTEX
  8
0
  5
505E
 10
119.793
 20
155.720
 30
0.000000
  70
    32
  0
VERTEX
  8
0
  5
505F
 10
119.791
 20
155.702
 30
0.000000
  70
    32
  0
VERTEX
  8
0
  5
5060
 10
119.790
 20
155.684
 30
0.000000
  70
    32
  0
VERTEX
  8
0
  5
5061
 10
119.788
 20
155.665
 30
0.000000
  70
    32
  0
VERTEX
  8
0
  5
5062
 10
119.787
 20
155.647
 30
0.000000
  70
    32
  0
VERTEX
  8
0
  5
5063
 10
119.786
 20
155.629
 30
0.000000
  70
    32
  0
VERTEX
  8
0
  5
5064
 10
119.785
 20
155.610
 30
0.000000
  70
    32
  0
VERTEX
  8
0
  5
5065
 10
119.784
 20
155.592
 30
0.000000
  70
    32
  0
VERTEX
  8
0
  5
5066
 10
119.783
 20
155.574
 30
0.000000
  70
    32
  0
VERTEX
  8
0
  5
5067
 10
119.783
 20
155.555
 30
0.000000
  70
    32
  0
VERTEX
  8
0
  5
5068
 10
119.782
 20
155.537
 30
0.000000
  70
    32
  0
VERTEX
  8
0
  5
5069
 10
119.782
 20
155.518
 30
0.000000
  70
    32
  0
VERTEX
  8
0
  5
506A
 10
119.782
 20
155.500
 30
0.000000
  70
    32
  0
SEQEND
  8
0
  5
506B
  0
LINE
  5
4BC8
  8
0
 10
122.1631819994378
 20
151.0082327237111
 30
0.0
 11
122.1631819994378
 21
146.4999999999998
 31
0.0
  0
ARC
  5
4BCA
  8
0
 10
123.6631819994378
 20
151.0082327237111
 30
0.0
 40
1.5
 50
89.999999999999801
 51
179.9999999999998
  0
ARC
  5
4BCB
  8
0
 10
123.6631819994378
 20
146.4999999999998
 30
0.0
 40
1.5
 50
180.0
 51
270.0
  0
POLYLINE
  5
4BCC
  8
0
 10
120.7819882326432
 20
141.99999999999974
 30
0.0
 66
     1
 70
     8
  0
VERTEX
  8
0
  5
506C
 10
120.782
 20
142.000
 30
0.000000
  70
    32
  0
VERTEX
  8
0
  5
506D
 10
120.770
 20
142.000
 30
0.000000
  70
    32
  0
VERTEX
  8
0
  5
506E
 10
120.757
 20
142.000
 30
0.000000
  70
    32
  0
VERTEX
  8
0
  5
506F
 10
120.745
 20
142.001
 30
0.000000
  70
    32
  0
VERTEX
  8
0
  5
5070
 10
120.733
 20
142.002
 30
0.000000
  70
    32
  0
VERTEX
  8
0
  5
5071
 10
120.721
 20
142.003
 30
0.000000
  70
    32
  0
VERTEX
  8
0
  5
5072
 10
120.708
 20
142.004
 30
0.000000
  70
    32
  0
VERTEX
  8
0
  5
5073
 10
120.696
 20
142.006
 30
0.000000
  70
    32
  0
VERTEX
  8
0
  5
5074
 10
120.684
 20
142.007
 30
0.000000
  70
    32
  0
VERTEX
  8
0
  5
5075
 10
120.672
 20
142.009
 30
0.000000
  70
    32
  0
VERTEX
  8
0
  5
5076
 10
120.660
 20
142.011
 30
0.000000
  70
    32
  0
VERTEX
  8
0
  5
5077
 10
120.647
 20
142.014
 30
0.000000
  70
    32
  0
VERTEX
  8
0
  5
5078
 10
120.635
 20
142.016
 30
0.000000
  70
    32
  0
VERTEX
  8
0
  5
5079
 10
120.623
 20
142.019
 30
0.000000
  70
    32
  0
VERTEX
  8
0
  5
507A
 10
120.611
 20
142.022
 30
0.000000
  70
    32
  0
VERTEX
  8
0
  5
507B
 10
120.599
 20
142.025
 30
0.000000
  70
    32
  0
VERTEX
  8
0
  5
507C
 10
120.587
 20
142.029
 30
0.000000
  70
    32
  0
VERTEX
  8
0
  5
507D
 10
120.575
 20
142.033
 30
0.000000
  70
    32
  0
VERTEX
  8
0
  5
507E
 10
120.563
 20
142.036
 30
0.000000
  70
    32
  0
VERTEX
  8
0
  5
507F
 10
120.551
 20
142.041
 30
0.000000
  70
    32
  0
VERTEX
  8
0
  5
5080
 10
120.539
 20
142.045
 30
0.000000
  70
    32
  0
VERTEX
  8
0
  5
5081
 10
120.527
 20
142.050
 30
0.000000
  70
    32
  0
VERTEX
  8
0
  5
5082
 10
120.515
 20
142.054
 30
0.000000
  70
    32
  0
VERTEX
  8
0
  5
5083
 10
120.503
 20
142.059
 30
0.000000
  70
    32
  0
VERTEX
  8
0
  5
5084
 10
120.492
 20
142.065
 30
0.000000
  70
    32
  0
VERTEX
  8
0
  5
5085
 10
120.480
 20
142.070
 30
0.000000
  70
    32
  0
VERTEX
  8
0
  5
5086
 10
120.468
 20
142.076
 30
0.000000
  70
    32
  0
VERTEX
  8
0
  5
5087
 10
120.457
 20
142.082
 30
0.000000
  70
    32
  0
VERTEX
  8
0
  5
5088
 10
120.445
 20
142.088
 30
0.000000
  70
    32
  0
VERTEX
  8
0
  5
5089
 10
120.434
 20
142.094
 30
0.000000
  70
    32
  0
VERTEX
  8
0
  5
508A
 10
120.422
 20
142.101
 30
0.000000
  70
    32
  0
VERTEX
  8
0
  5
508B
 10
120.411
 20
142.107
 30
0.000000
  70
    32
  0
VERTEX
  8
0
  5
508C
 10
120.399
 20
142.114
 30
0.000000
  70
    32
  0
VERTEX
  8
0
  5
508D
 10
120.388
 20
142.121
 30
0.000000
  70
    32
  0
VERTEX
  8
0
  5
508E
 10
120.377
 20
142.129
 30
0.000000
  70
    32
  0
VERTEX
  8
0
  5
508F
 10
120.366
 20
142.136
 30
0.000000
  70
    32
  0
VERTEX
  8
0
  5
5090
 10
120.354
 20
142.144
 30
0.000000
  70
    32
  0
VERTEX
  8
0
  5
5091
 10
120.343
 20
142.152
 30
0.000000
  70
    32
  0
VERTEX
  8
0
  5
5092
 10
120.332
 20
142.160
 30
0.000000
  70
    32
  0
VERTEX
  8
0
  5
5093
 10
120.321
 20
142.169
 30
0.000000
  70
    32
  0
VERTEX
  8
0
  5
5094
 10
120.311
 20
142.177
 30
0.000000
  70
    32
  0
VERTEX
  8
0
  5
5095
 10
120.300
 20
142.186
 30
0.000000
  70
    32
  0
VERTEX
  8
0
  5
5096
 10
120.289
 20
142.195
 30
0.000000
  70
    32
  0
VERTEX
  8
0
  5
5097
 10
120.278
 20
142.204
 30
0.000000
  70
    32
  0
VERTEX
  8
0
  5
5098
 10
120.268
 20
142.213
 30
0.000000
  70
    32
  0
VERTEX
  8
0
  5
5099
 10
120.257
 20
142.223
 30
0.000000
  70
    32
  0
VERTEX
  8
0
  5
509A
 10
120.247
 20
142.233
 30
0.000000
  70
    32
  0
VERTEX
  8
0
  5
509B
 10
120.237
 20
142.243
 30
0.000000
  70
    32
  0
VERTEX
  8
0
  5
509C
 10
120.226
 20
142.253
 30
0.000000
  70
    32
  0
VERTEX
  8
0
  5
509D
 10
120.216
 20
142.263
 30
0.000000
  70
    32
  0
VERTEX
  8
0
  5
509E
 10
120.206
 20
142.274
 30
0.000000
  70
    32
  0
VERTEX
  8
0
  5
509F
 10
120.196
 20
142.284
 30
0.000000
  70
    32
  0
VERTEX
  8
0
  5
50A0
 10
120.186
 20
142.295
 30
0.000000
  70
    32
  0
VERTEX
  8
0
  5
50A1
 10
120.176
 20
142.306
 30
0.000000
  70
    32
  0
VERTEX
  8
0
  5
50A2
 10
120.167
 20
142.317
 30
0.000000
  70
    32
  0
VERTEX
  8
0
  5
50A3
 10
120.157
 20
142.329
 30
0.000000
  70
    32
  0
VERTEX
  8
0
  5
50A4
 10
120.148
 20
142.340
 30
0.000000
  70
    32
  0
VERTEX
  8
0
  5
50A5
 10
120.138
 20
142.352
 30
0.000000
  70
    32
  0
VERTEX
  8
0
  5
50A6
 10
120.129
 20
142.364
 30
0.000000
  70
    32
  0
VERTEX
  8
0
  5
50A7
 10
120.120
 20
142.376
 30
0.000000
  70
    32
  0
VERTEX
  8
0
  5
50A8
 10
120.110
 20
142.389
 30
0.000000
  70
    32
  0
VERTEX
  8
0
  5
50A9
 10
120.101
 20
142.401
 30
0.000000
  70
    32
  0
VERTEX
  8
0
  5
50AA
 10
120.092
 20
142.414
 30
0.000000
  70
    32
  0
VERTEX
  8
0
  5
50AB
 10
120.084
 20
142.426
 30
0.000000
  70
    32
  0
VERTEX
  8
0
  5
50AC
 10
120.075
 20
142.439
 30
0.000000
  70
    32
  0
VERTEX
  8
0
  5
50AD
 10
120.066
 20
142.452
 30
0.000000
  70
    32
  0
VERTEX
  8
0
  5
50AE
 10
120.058
 20
142.466
 30
0.000000
  70
    32
  0
VERTEX
  8
0
  5
50AF
 10
120.049
 20
142.479
 30
0.000000
  70
    32
  0
VERTEX
  8
0
  5
50B0
 10
120.041
 20
142.493
 30
0.000000
  70
    32
  0
VERTEX
  8
0
  5
50B1
 10
120.033
 20
142.506
 30
0.000000
  70
    32
  0
VERTEX
  8
0
  5
50B2
 10
120.025
 20
142.520
 30
0.000000
  70
    32
  0
VERTEX
  8
0
  5
50B3
 10
120.017
 20
142.534
 30
0.000000
  70
    32
  0
VERTEX
  8
0
  5
50B4
 10
120.009
 20
142.548
 30
0.000000
  70
    32
  0
VERTEX
  8
0
  5
50B5
 10
120.001
 20
142.563
 30
0.000000
  70
    32
  0
VERTEX
  8
0
  5
50B6
 10
119.994
 20
142.577
 30
0.000000
  70
    32
  0
VERTEX
  8
0
  5
50B7
 10
119.986
 20
142.592
 30
0.000000
  70
    32
  0
VERTEX
  8
0
  5
50B8
 10
119.979
 20
142.606
 30
0.000000
  70
    32
  0
VERTEX
  8
0
  5
50B9
 10
119.972
 20
142.621
 30
0.000000
  70
    32
  0
VERTEX
  8
0
  5
50BA
 10
119.964
 20
142.636
 30
0.000000
  70
    32
  0
VERTEX
  8
0
  5
50BB
 10
119.957
 20
142.651
 30
0.000000
  70
    32
  0
VERTEX
  8
0
  5
50BC
 10
119.951
 20
142.667
 30
0.000000
  70
    32
  0
VERTEX
  8
0
  5
50BD
 10
119.944
 20
142.682
 30
0.000000
  70
    32
  0
VERTEX
  8
0
  5
50BE
 10
119.937
 20
142.698
 30
0.000000
  70
    32
  0
VERTEX
  8
0
  5
50BF
 10
119.931
 20
142.713
 30
0.000000
  70
    32
  0
VERTEX
  8
0
  5
50C0
 10
119.924
 20
142.729
 30
0.000000
  70
    32
  0
VERTEX
  8
0
  5
50C1
 10
119.918
 20
142.745
 30
0.000000
  70
    32
  0
VERTEX
  8
0
  5
50C2
 10
119.912
 20
142.761
 30
0.000000
  70
    32
  0
VERTEX
  8
0
  5
50C3
 10
119.906
 20
142.777
 30
0.000000
  70
    32
  0
VERTEX
  8
0
  5
50C4
 10
119.900
 20
142.793
 30
0.000000
  70
    32
  0
VERTEX
  8
0
  5
50C5
 10
119.894
 20
142.809
 30
0.000000
  70
    32
  0
VERTEX
  8
0
  5
50C6
 10
119.889
 20
142.826
 30
0.000000
  70
    32
  0
VERTEX
  8
0
  5
50C7
 10
119.883
 20
142.842
 30
0.000000
  70
    32
  0
VERTEX
  8
0
  5
50C8
 10
119.878
 20
142.859
 30
0.000000
  70
    32
  0
VERTEX
  8
0
  5
50C9
 10
119.873
 20
142.875
 30
0.000000
  70
    32
  0
VERTEX
  8
0
  5
50CA
 10
119.868
 20
142.892
 30
0.000000
  70
    32
  0
VERTEX
  8
0
  5
50CB
 10
119.863
 20
142.909
 30
0.000000
  70
    32
  0
VERTEX
  8
0
  5
50CC
 10
119.858
 20
142.926
 30
0.000000
  70
    32
  0
VERTEX
  8
0
  5
50CD
 10
119.853
 20
142.943
 30
0.000000
  70
    32
  0
VERTEX
  8
0
  5
50CE
 10
119.849
 20
142.960
 30
0.000000
  70
    32
  0
VERTEX
  8
0
  5
50CF
 10
119.845
 20
142.977
 30
0.000000
  70
    32
  0
VERTEX
  8
0
  5
50D0
 10
119.840
 20
142.995
 30
0.000000
  70
    32
  0
VERTEX
  8
0
  5
50D1
 10
119.836
 20
143.012
 30
0.000000
  70
    32
  0
VERTEX
  8
0
  5
50D2
 10
119.832
 20
143.029
 30
0.000000
  70
    32
  0
VERTEX
  8
0
  5
50D3
 10
119.829
 20
143.047
 30
0.000000
  70
    32
  0
VERTEX
  8
0
  5
50D4
 10
119.825
 20
143.065
 30
0.000000
  70
    32
  0
VERTEX
  8
0
  5
50D5
 10
119.822
 20
143.082
 30
0.000000
  70
    32
  0
VERTEX
  8
0
  5
50D6
 10
119.818
 20
143.100
 30
0.000000
  70
    32
  0
VERTEX
  8
0
  5
50D7
 10
119.815
 20
143.118
 30
0.000000
  70
    32
  0
VERTEX
  8
0
  5
50D8
 10
119.812
 20
143.136
 30
0.000000
  70
    32
  0
VERTEX
  8
0
  5
50D9
 10
119.809
 20
143.153
 30
0.000000
  70
    32
  0
VERTEX
  8
0
  5
50DA
 10
119.806
 20
143.171
 30
0.000000
  70
    32
  0
VERTEX
  8
0
  5
50DB
 10
119.804
 20
143.189
 30
0.000000
  70
    32
  0
VERTEX
  8
0
  5
50DC
 10
119.801
 20
143.207
 30
0.000000
  70
    32
  0
VERTEX
  8
0
  5
50DD
 10
119.799
 20
143.225
 30
0.000000
  70
    32
  0
VERTEX
  8
0
  5
50DE
 10
119.797
 20
143.244
 30
0.000000
  70
    32
  0
VERTEX
  8
0
  5
50DF
 10
119.795
 20
143.262
 30
0.000000
  70
    32
  0
VERTEX
  8
0
  5
50E0
 10
119.793
 20
143.280
 30
0.000000
  70
    32
  0
VERTEX
  8
0
  5
50E1
 10
119.791
 20
143.298
 30
0.000000
  70
    32
  0
VERTEX
  8
0
  5
50E2
 10
119.790
 20
143.316
 30
0.000000
  70
    32
  0
VERTEX
  8
0
  5
50E3
 10
119.788
 20
143.335
 30
0.000000
  70
    32
  0
VERTEX
  8
0
  5
50E4
 10
119.787
 20
143.353
 30
0.000000
  70
    32
  0
VERTEX
  8
0
  5
50E5
 10
119.786
 20
143.371
 30
0.000000
  70
    32
  0
VERTEX
  8
0
  5
50E6
 10
119.785
 20
143.390
 30
0.000000
  70
    32
  0
VERTEX
  8
0
  5
50E7
 10
119.784
 20
143.408
 30
0.000000
  70
    32
  0
VERTEX
  8
0
  5
50E8
 10
119.783
 20
143.426
 30
0.000000
  70
    32
  0
VERTEX
  8
0
  5
50E9
 10
119.783
 20
143.445
 30
0.000000
  70
    32
  0
VERTEX
  8
0
  5
50EA
 10
119.782
 20
143.463
 30
0.000000
  70
    32
  0
VERTEX
  8
0
  5
50EB
 10
119.782
 20
143.482
 30
0.000000
  70
    32
  0
VERTEX
  8
0
  5
50EC
 10
119.782
 20
143.500
 30
0.000000
  70
    32
  0
SEQEND
  8
0
  5
50ED
  0
POLYLINE
  5
4BE8
  8
0
 10
135.01801176735671
 20
141.99999999999974
 30
0.0
 66
     1
 70
     8
  0
VERTEX
  8
0
  5
50EE
 10
135.018
 20
142.000
 30
0.000000
  70
    32
  0
VERTEX
  8
0
  5
50EF
 10
135.030
 20
142.000
 30
0.000000
  70
    32
  0
VERTEX
  8
0
  5
50F0
 10
135.043
 20
142.000
 30
0.000000
  70
    32
  0
VERTEX
  8
0
  5
50F1
 10
135.055
 20
142.001
 30
0.000000
  70
    32
  0
VERTEX
  8
0
  5
50F2
 10
135.067
 20
142.002
 30
0.000000
  70
    32
  0
VERTEX
  8
0
  5
50F3
 10
135.079
 20
142.003
 30
0.000000
  70
    32
  0
VERTEX
  8
0
  5
50F4
 10
135.092
 20
142.004
 30
0.000000
  70
    32
  0
VERTEX
  8
0
  5
50F5
 10
135.104
 20
142.006
 30
0.000000
  70
    32
  0
VERTEX
  8
0
  5
50F6
 10
135.116
 20
142.007
 30
0.000000
  70
    32
  0
VERTEX
  8
0
  5
50F7
 10
135.128
 20
142.009
 30
0.000000
  70
    32
  0
VERTEX
  8
0
  5
50F8
 10
135.140
 20
142.011
 30
0.000000
  70
    32
  0
VERTEX
  8
0
  5
50F9
 10
135.153
 20
142.014
 30
0.000000
  70
    32
  0
VERTEX
  8
0
  5
50FA
 10
135.165
 20
142.016
 30
0.000000
  70
    32
  0
VERTEX
  8
0
  5
50FB
 10
135.177
 20
142.019
 30
0.000000
  70
    32
  0
VERTEX
  8
0
  5
50FC
 10
135.189
 20
142.022
 30
0.000000
  70
    32
  0
VERTEX
  8
0
  5
50FD
 10
135.201
 20
142.025
 30
0.000000
  70
    32
  0
VERTEX
  8
0
  5
50FE
 10
135.213
 20
142.029
 30
0.000000
  70
    32
  0
VERTEX
  8
0
  5
50FF
 10
135.225
 20
142.033
 30
0.000000
  70
    32
  0
VERTEX
  8
0
  5
5100
 10
135.237
 20
142.036
 30
0.000000
  70
    32
  0
VERTEX
  8
0
  5
5101
 10
135.249
 20
142.041
 30
0.000000
  70
    32
  0
VERTEX
  8
0
  5
5102
 10
135.261
 20
142.045
 30
0.000000
  70
    32
  0
VERTEX
  8
0
  5
5103
 10
135.273
 20
142.050
 30
0.000000
  70
    32
  0
VERTEX
  8
0
  5
5104
 10
135.285
 20
142.054
 30
0.000000
  70
    32
  0
VERTEX
  8
0
  5
5105
 10
135.297
 20
142.059
 30
0.000000
  70
    32
  0
VERTEX
  8
0
  5
5106
 10
135.308
 20
142.065
 30
0.000000
  70
    32
  0
VERTEX
  8
0
  5
5107
 10
135.320
 20
142.070
 30
0.000000
  70
    32
  0
VERTEX
  8
0
  5
5108
 10
135.332
 20
142.076
 30
0.000000
  70
    32
  0
VERTEX
  8
0
  5
5109
 10
135.343
 20
142.082
 30
0.000000
  70
    32
  0
VERTEX
  8
0
  5
510A
 10
135.355
 20
142.088
 30
0.000000
  70
    32
  0
VERTEX
  8
0
  5
510B
 10
135.366
 20
142.094
 30
0.000000
  70
    32
  0
VERTEX
  8
0
  5
510C
 10
135.378
 20
142.101
 30
0.000000
  70
    32
  0
VERTEX
  8
0
  5
510D
 10
135.389
 20
142.107
 30
0.000000
  70
    32
  0
VERTEX
  8
0
  5
510E
 10
135.401
 20
142.114
 30
0.000000
  70
    32
  0
VERTEX
  8
0
  5
510F
 10
135.412
 20
142.121
 30
0.000000
  70
    32
  0
VERTEX
  8
0
  5
5110
 10
135.423
 20
142.129
 30
0.000000
  70
    32
  0
VERTEX
  8
0
  5
5111
 10
135.434
 20
142.136
 30
0.000000
  70
    32
  0
VERTEX
  8
0
  5
5112
 10
135.446
 20
142.144
 30
0.000000
  70
    32
  0
VERTEX
  8
0
  5
5113
 10
135.457
 20
142.152
 30
0.000000
  70
    32
  0
VERTEX
  8
0
  5
5114
 10
135.468
 20
142.160
 30
0.000000
  70
    32
  0
VERTEX
  8
0
  5
5115
 10
135.479
 20
142.169
 30
0.000000
  70
    32
  0
VERTEX
  8
0
  5
5116
 10
135.489
 20
142.177
 30
0.000000
  70
    32
  0
VERTEX
  8
0
  5
5117
 10
135.500
 20
142.186
 30
0.000000
  70
    32
  0
VERTEX
  8
0
  5
5118
 10
135.511
 20
142.195
 30
0.000000
  70
    32
  0
VERTEX
  8
0
  5
5119
 10
135.522
 20
142.204
 30
0.000000
  70
    32
  0
VERTEX
  8
0
  5
511A
 10
135.532
 20
142.213
 30
0.000000
  70
    32
  0
VERTEX
  8
0
  5
511B
 10
135.543
 20
142.223
 30
0.000000
  70
    32
  0
VERTEX
  8
0
  5
511C
 10
135.553
 20
142.233
 30
0.000000
  70
    32
  0
VERTEX
  8
0
  5
511D
 10
135.563
 20
142.243
 30
0.000000
  70
    32
  0
VERTEX
  8
0
  5
511E
 10
135.574
 20
142.253
 30
0.000000
  70
    32
  0
VERTEX
  8
0
  5
511F
 10
135.584
 20
142.263
 30
0.000000
  70
    32
  0
VERTEX
  8
0
  5
5120
 10
135.594
 20
142.274
 30
0.000000
  70
    32
  0
VERTEX
  8
0
  5
5121
 10
135.604
 20
142.284
 30
0.000000
  70
    32
  0
VERTEX
  8
0
  5
5122
 10
135.614
 20
142.295
 30
0.000000
  70
    32
  0
VERTEX
  8
0
  5
5123
 10
135.624
 20
142.306
 30
0.000000
  70
    32
  0
VERTEX
  8
0
  5
5124
 10
135.633
 20
142.317
 30
0.000000
  70
    32
  0
VERTEX
  8
0
  5
5125
 10
135.643
 20
142.329
 30
0.000000
  70
    32
  0
VERTEX
  8
0
  5
5126
 10
135.652
 20
142.340
 30
0.000000
  70
    32
  0
VERTEX
  8
0
  5
5127
 10
135.662
 20
142.352
 30
0.000000
  70
    32
  0
VERTEX
  8
0
  5
5128
 10
135.671
 20
142.364
 30
0.000000
  70
    32
  0
VERTEX
  8
0
  5
5129
 10
135.680
 20
142.376
 30
0.000000
  70
    32
  0
VERTEX
  8
0
  5
512A
 10
135.690
 20
142.389
 30
0.000000
  70
    32
  0
VERTEX
  8
0
  5
512B
 10
135.699
 20
142.401
 30
0.000000
  70
    32
  0
VERTEX
  8
0
  5
512C
 10
135.708
 20
142.414
 30
0.000000
  70
    32
  0
VERTEX
  8
0
  5
512D
 10
135.716
 20
142.426
 30
0.000000
  70
    32
  0
VERTEX
  8
0
  5
512E
 10
135.725
 20
142.439
 30
0.000000
  70
    32
  0
VERTEX
  8
0
  5
512F
 10
135.734
 20
142.452
 30
0.000000
  70
    32
  0
VERTEX
  8
0
  5
5130
 10
135.742
 20
142.466
 30
0.000000
  70
    32
  0
VERTEX
  8
0
  5
5131
 10
135.751
 20
142.479
 30
0.000000
  70
    32
  0
VERTEX
  8
0
  5
5132
 10
135.759
 20
142.493
 30
0.000000
  70
    32
  0
VERTEX
  8
0
  5
5133
 10
135.767
 20
142.506
 30
0.000000
  70
    32
  0
VERTEX
  8
0
  5
5134
 10
135.775
 20
142.520
 30
0.000000
  70
    32
  0
VERTEX
  8
0
  5
5135
 10
135.783
 20
142.534
 30
0.000000
  70
    32
  0
VERTEX
  8
0
  5
5136
 10
135.791
 20
142.548
 30
0.000000
  70
    32
  0
VERTEX
  8
0
  5
5137
 10
135.799
 20
142.563
 30
0.000000
  70
    32
  0
VERTEX
  8
0
  5
5138
 10
135.806
 20
142.577
 30
0.000000
  70
    32
  0
VERTEX
  8
0
  5
5139
 10
135.814
 20
142.592
 30
0.000000
  70
    32
  0
VERTEX
  8
0
  5
513A
 10
135.821
 20
142.606
 30
0.000000
  70
    32
  0
VERTEX
  8
0
  5
513B
 10
135.828
 20
142.621
 30
0.000000
  70
    32
  0
VERTEX
  8
0
  5
513C
 10
135.836
 20
142.636
 30
0.000000
  70
    32
  0
VERTEX
  8
0
  5
513D
 10
135.843
 20
142.651
 30
0.000000
  70
    32
  0
VERTEX
  8
0
  5
513E
 10
135.849
 20
142.667
 30
0.000000
  70
    32
  0
VERTEX
  8
0
  5
513F
 10
135.856
 20
142.682
 30
0.000000
  70
    32
  0
VERTEX
  8
0
  5
5140
 10
135.863
 20
142.698
 30
0.000000
  70
    32
  0
VERTEX
  8
0
  5
5141
 10
135.869
 20
142.713
 30
0.000000
  70
    32
  0
VERTEX
  8
0
  5
5142
 10
135.876
 20
142.729
 30
0.000000
  70
    32
  0
VERTEX
  8
0
  5
5143
 10
135.882
 20
142.745
 30
0.000000
  70
    32
  0
VERTEX
  8
0
  5
5144
 10
135.888
 20
142.761
 30
0.000000
  70
    32
  0
VERTEX
  8
0
  5
5145
 10
135.894
 20
142.777
 30
0.000000
  70
    32
  0
VERTEX
  8
0
  5
5146
 10
135.900
 20
142.793
 30
0.000000
  70
    32
  0
VERTEX
  8
0
  5
5147
 10
135.906
 20
142.809
 30
0.000000
  70
    32
  0
VERTEX
  8
0
  5
5148
 10
135.911
 20
142.826
 30
0.000000
  70
    32
  0
VERTEX
  8
0
  5
5149
 10
135.917
 20
142.842
 30
0.000000
  70
    32
  0
VERTEX
  8
0
  5
514A
 10
135.922
 20
142.859
 30
0.000000
  70
    32
  0
VERTEX
  8
0
  5
514B
 10
135.927
 20
142.875
 30
0.000000
  70
    32
  0
VERTEX
  8
0
  5
514C
 10
135.932
 20
142.892
 30
0.000000
  70
    32
  0
VERTEX
  8
0
  5
514D
 10
135.937
 20
142.909
 30
0.000000
  70
    32
  0
VERTEX
  8
0
  5
514E
 10
135.942
 20
142.926
 30
0.000000
  70
    32
  0
VERTEX
  8
0
  5
514F
 10
135.947
 20
142.943
 30
0.000000
  70
    32
  0
VERTEX
  8
0
  5
5150
 10
135.951
 20
142.960
 30
0.000000
  70
    32
  0
VERTEX
  8
0
  5
5151
 10
135.955
 20
142.977
 30
0.000000
  70
    32
  0
VERTEX
  8
0
  5
5152
 10
135.960
 20
142.995
 30
0.000000
  70
    32
  0
VERTEX
  8
0
  5
5153
 10
135.964
 20
143.012
 30
0.000000
  70
    32
  0
VERTEX
  8
0
  5
5154
 10
135.968
 20
143.029
 30
0.000000
  70
    32
  0
VERTEX
  8
0
  5
5155
 10
135.971
 20
143.047
 30
0.000000
  70
    32
  0
VERTEX
  8
0
  5
5156
 10
135.975
 20
143.065
 30
0.000000
  70
    32
  0
VERTEX
  8
0
  5
5157
 10
135.978
 20
143.082
 30
0.000000
  70
    32
  0
VERTEX
  8
0
  5
5158
 10
135.982
 20
143.100
 30
0.000000
  70
    32
  0
VERTEX
  8
0
  5
5159
 10
135.985
 20
143.118
 30
0.000000
  70
    32
  0
VERTEX
  8
0
  5
515A
 10
135.988
 20
143.136
 30
0.000000
  70
    32
  0
VERTEX
  8
0
  5
515B
 10
135.991
 20
143.153
 30
0.000000
  70
    32
  0
VERTEX
  8
0
  5
515C
 10
135.994
 20
143.171
 30
0.000000
  70
    32
  0
VERTEX
  8
0
  5
515D
 10
135.996
 20
143.189
 30
0.000000
  70
    32
  0
VERTEX
  8
0
  5
515E
 10
135.999
 20
143.207
 30
0.000000
  70
    32
  0
VERTEX
  8
0
  5
515F
 10
136.001
 20
143.225
 30
0.000000
  70
    32
  0
VERTEX
  8
0
  5
5160
 10
136.003
 20
143.244
 30
0.000000
  70
    32
  0
VERTEX
  8
0
  5
5161
 10
136.005
 20
143.262
 30
0.000000
  70
    32
  0
VERTEX
  8
0
  5
5162
 10
136.007
 20
143.280
 30
0.000000
  70
    32
  0
VERTEX
  8
0
  5
5163
 10
136.009
 20
143.298
 30
0.000000
  70
    32
  0
VERTEX
  8
0
  5
5164
 10
136.010
 20
143.316
 30
0.000000
  70
    32
  0
VERTEX
  8
0
  5
5165
 10
136.012
 20
143.335
 30
0.000000
  70
    32
  0
VERTEX
  8
0
  5
5166
 10
136.013
 20
143.353
 30
0.000000
  70
    32
  0
VERTEX
  8
0
  5
5167
 10
136.014
 20
143.371
 30
0.000000
  70
    32
  0
VERTEX
  8
0
  5
5168
 10
136.015
 20
143.390
 30
0.000000
  70
    32
  0
VERTEX
  8
0
  5
5169
 10
136.016
 20
143.408
 30
0.000000
  70
    32
  0
VERTEX
  8
0
  5
516A
 10
136.017
 20
143.426
 30
0.000000
  70
    32
  0
VERTEX
  8
0
  5
516B
 10
136.017
 20
143.445
 30
0.000000
  70
    32
  0
VERTEX
  8
0
  5
516C
 10
136.018
 20
143.463
 30
0.000000
  70
    32
  0
VERTEX
  8
0
  5
516D
 10
136.018
 20
143.482
 30
0.000000
  70
    32
  0
VERTEX
  8
0
  5
516E
 10
136.018
 20
143.500
 30
0.000000
  70
    32
  0
SEQEND
  8
0
  5
516F
  0
ARC
  5
4BE9
  8
0
 10
132.1368180005621
 20
146.4999999999998
 30
0.0
 40
1.5
 50
270.0
 51
0.0000000000000127
  0
ARC
  5
4BEA
  8
0
 10
132.13681800056219
 20
151.0082327237111
 30
0.0
 40
1.5
 50
0.0000000000002163
 51
90.000000000000185
  0
LINE
  5
4BEB
  8
0
 10
133.63681800056219
 20
151.0082327237111
 30
0.0
 11
133.63681800056219
 21
146.4999999999998
 31
0.0
  0
POLYLINE
  5
4BEC
  8
0
 10
135.01801176735671
 20
157.00000000000006
 30
0.0
 66
     1
 70
     8
  0
VERTEX
  8
0
  5
5170
 10
135.018
 20
157.000
 30
0.000000
  70
    32
  0
VERTEX
  8
0
  5
5171
 10
135.030
 20
157.000
 30
0.000000
  70
    32
  0
VERTEX
  8
0
  5
5172
 10
135.043
 20
157.000
 30
0.000000
  70
    32
  0
VERTEX
  8
0
  5
5173
 10
135.055
 20
156.999
 30
0.000000
  70
    32
  0
VERTEX
  8
0
  5
5174
 10
135.067
 20
156.998
 30
0.000000
  70
    32
  0
VERTEX
  8
0
  5
5175
 10
135.079
 20
156.997
 30
0.000000
  70
    32
  0
VERTEX
  8
0
  5
5176
 10
135.092
 20
156.996
 30
0.000000
  70
    32
  0
VERTEX
  8
0
  5
5177
 10
135.104
 20
156.994
 30
0.000000
  70
    32
  0
VERTEX
  8
0
  5
5178
 10
135.116
 20
156.993
 30
0.000000
  70
    32
  0
VERTEX
  8
0
  5
5179
 10
135.128
 20
156.991
 30
0.000000
  70
    32
  0
VERTEX
  8
0
  5
517A
 10
135.140
 20
156.989
 30
0.000000
  70
    32
  0
VERTEX
  8
0
  5
517B
 10
135.153
 20
156.986
 30
0.000000
  70
    32
  0
VERTEX
  8
0
  5
517C
 10
135.165
 20
156.984
 30
0.000000
  70
    32
  0
VERTEX
  8
0
  5
517D
 10
135.177
 20
156.981
 30
0.000000
  70
    32
  0
VERTEX
  8
0
  5
517E
 10
135.189
 20
156.978
 30
0.000000
  70
    32
  0
VERTEX
  8
0
  5
517F
 10
135.201
 20
156.975
 30
0.000000
  70
    32
  0
VERTEX
  8
0
  5
5180
 10
135.213
 20
156.971
 30
0.000000
  70
    32
  0
VERTEX
  8
0
  5
5181
 10
135.225
 20
156.967
 30
0.000000
  70
    32
  0
VERTEX
  8
0
  5
5182
 10
135.237
 20
156.964
 30
0.000000
  70
    32
  0
VERTEX
  8
0
  5
5183
 10
135.249
 20
156.959
 30
0.000000
  70
    32
  0
VERTEX
  8
0
  5
5184
 10
135.261
 20
156.955
 30
0.000000
  70
    32
  0
VERTEX
  8
0
  5
5185
 10
135.273
 20
156.950
 30
0.000000
  70
    32
  0
VERTEX
  8
0
  5
5186
 10
135.285
 20
156.946
 30
0.000000
  70
    32
  0
VERTEX
  8
0
  5
5187
 10
135.297
 20
156.941
 30
0.000000
  70
    32
  0
VERTEX
  8
0
  5
5188
 10
135.308
 20
156.935
 30
0.000000
  70
    32
  0
VERTEX
  8
0
  5
5189
 10
135.320
 20
156.930
 30
0.000000
  70
    32
  0
VERTEX
  8
0
  5
518A
 10
135.332
 20
156.924
 30
0.000000
  70
    32
  0
VERTEX
  8
0
  5
518B
 10
135.343
 20
156.918
 30
0.000000
  70
    32
  0
VERTEX
  8
0
  5
518C
 10
135.355
 20
156.912
 30
0.000000
  70
    32
  0
VERTEX
  8
0
  5
518D
 10
135.366
 20
156.906
 30
0.000000
  70
    32
  0
VERTEX
  8
0
  5
518E
 10
135.378
 20
156.899
 30
0.000000
  70
    32
  0
VERTEX
  8
0
  5
518F
 10
135.389
 20
156.893
 30
0.000000
  70
    32
  0
VERTEX
  8
0
  5
5190
 10
135.401
 20
156.886
 30
0.000000
  70
    32
  0
VERTEX
  8
0
  5
5191
 10
135.412
 20
156.879
 30
0.000000
  70
    32
  0
VERTEX
  8
0
  5
5192
 10
135.423
 20
156.871
 30
0.000000
  70
    32
  0
VERTEX
  8
0
  5
5193
 10
135.434
 20
156.864
 30
0.000000
  70
    32
  0
VERTEX
  8
0
  5
5194
 10
135.446
 20
156.856
 30
0.000000
  70
    32
  0
VERTEX
  8
0
  5
5195
 10
135.457
 20
156.848
 30
0.000000
  70
    32
  0
VERTEX
  8
0
  5
5196
 10
135.468
 20
156.840
 30
0.000000
  70
    32
  0
VERTEX
  8
0
  5
5197
 10
135.479
 20
156.831
 30
0.000000
  70
    32
  0
VERTEX
  8
0
  5
5198
 10
135.489
 20
156.823
 30
0.000000
  70
    32
  0
VERTEX
  8
0
  5
5199
 10
135.500
 20
156.814
 30
0.000000
  70
    32
  0
VERTEX
  8
0
  5
519A
 10
135.511
 20
156.805
 30
0.000000
  70
    32
  0
VERTEX
  8
0
  5
519B
 10
135.522
 20
156.796
 30
0.000000
  70
    32
  0
VERTEX
  8
0
  5
519C
 10
135.532
 20
156.787
 30
0.000000
  70
    32
  0
VERTEX
  8
0
  5
519D
 10
135.543
 20
156.777
 30
0.000000
  70
    32
  0
VERTEX
  8
0
  5
519E
 10
135.553
 20
156.767
 30
0.000000
  70
    32
  0
VERTEX
  8
0
  5
519F
 10
135.563
 20
156.757
 30
0.000000
  70
    32
  0
VERTEX
  8
0
  5
51A0
 10
135.574
 20
156.747
 30
0.000000
  70
    32
  0
VERTEX
  8
0
  5
51A1
 10
135.584
 20
156.737
 30
0.000000
  70
    32
  0
VERTEX
  8
0
  5
51A2
 10
135.594
 20
156.726
 30
0.000000
  70
    32
  0
VERTEX
  8
0
  5
51A3
 10
135.604
 20
156.716
 30
0.000000
  70
    32
  0
VERTEX
  8
0
  5
51A4
 10
135.614
 20
156.705
 30
0.000000
  70
    32
  0
VERTEX
  8
0
  5
51A5
 10
135.624
 20
156.694
 30
0.000000
  70
    32
  0
VERTEX
  8
0
  5
51A6
 10
135.633
 20
156.683
 30
0.000000
  70
    32
  0
VERTEX
  8
0
  5
51A7
 10
135.643
 20
156.671
 30
0.000000
  70
    32
  0
VERTEX
  8
0
  5
51A8
 10
135.652
 20
156.660
 30
0.000000
  70
    32
  0
VERTEX
  8
0
  5
51A9
 10
135.662
 20
156.648
 30
0.000000
  70
    32
  0
VERTEX
  8
0
  5
51AA
 10
135.671
 20
156.636
 30
0.000000
  70
    32
  0
VERTEX
  8
0
  5
51AB
 10
135.680
 20
156.624
 30
0.000000
  70
    32
  0
VERTEX
  8
0
  5
51AC
 10
135.690
 20
156.611
 30
0.000000
  70
    32
  0
VERTEX
  8
0
  5
51AD
 10
135.699
 20
156.599
 30
0.000000
  70
    32
  0
VERTEX
  8
0
  5
51AE
 10
135.708
 20
156.586
 30
0.000000
  70
    32
  0
VERTEX
  8
0
  5
51AF
 10
135.716
 20
156.574
 30
0.000000
  70
    32
  0
VERTEX
  8
0
  5
51B0
 10
135.725
 20
156.561
 30
0.000000
  70
    32
  0
VERTEX
  8
0
  5
51B1
 10
135.734
 20
156.548
 30
0.000000
  70
    32
  0
VERTEX
  8
0
  5
51B2
 10
135.742
 20
156.534
 30
0.000000
  70
    32
  0
VERTEX
  8
0
  5
51B3
 10
135.751
 20
156.521
 30
0.000000
  70
    32
  0
VERTEX
  8
0
  5
51B4
 10
135.759
 20
156.507
 30
0.000000
  70
    32
  0
VERTEX
  8
0
  5
51B5
 10
135.767
 20
156.494
 30
0.000000
  70
    32
  0
VERTEX
  8
0
  5
51B6
 10
135.775
 20
156.480
 30
0.000000
  70
    32
  0
VERTEX
  8
0
  5
51B7
 10
135.783
 20
156.466
 30
0.000000
  70
    32
  0
VERTEX
  8
0
  5
51B8
 10
135.791
 20
156.452
 30
0.000000
  70
    32
  0
VERTEX
  8
0
  5
51B9
 10
135.799
 20
156.437
 30
0.000000
  70
    32
  0
VERTEX
  8
0
  5
51BA
 10
135.806
 20
156.423
 30
0.000000
  70
    32
  0
VERTEX
  8
0
  5
51BB
 10
135.814
 20
156.408
 30
0.000000
  70
    32
  0
VERTEX
  8
0
  5
51BC
 10
135.821
 20
156.394
 30
0.000000
  70
    32
  0
VERTEX
  8
0
  5
51BD
 10
135.828
 20
156.379
 30
0.000000
  70
    32
  0
VERTEX
  8
0
  5
51BE
 10
135.836
 20
156.364
 30
0.000000
  70
    32
  0
VERTEX
  8
0
  5
51BF
 10
135.843
 20
156.349
 30
0.000000
  70
    32
  0
VERTEX
  8
0
  5
51C0
 10
135.849
 20
156.333
 30
0.000000
  70
    32
  0
VERTEX
  8
0
  5
51C1
 10
135.856
 20
156.318
 30
0.000000
  70
    32
  0
VERTEX
  8
0
  5
51C2
 10
135.863
 20
156.302
 30
0.000000
  70
    32
  0
VERTEX
  8
0
  5
51C3
 10
135.869
 20
156.287
 30
0.000000
  70
    32
  0
VERTEX
  8
0
  5
51C4
 10
135.876
 20
156.271
 30
0.000000
  70
    32
  0
VERTEX
  8
0
  5
51C5
 10
135.882
 20
156.255
 30
0.000000
  70
    32
  0
VERTEX
  8
0
  5
51C6
 10
135.888
 20
156.239
 30
0.000000
  70
    32
  0
VERTEX
  8
0
  5
51C7
 10
135.894
 20
156.223
 30
0.000000
  70
    32
  0
VERTEX
  8
0
  5
51C8
 10
135.900
 20
156.207
 30
0.000000
  70
    32
  0
VERTEX
  8
0
  5
51C9
 10
135.906
 20
156.191
 30
0.000000
  70
    32
  0
VERTEX
  8
0
  5
51CA
 10
135.911
 20
156.174
 30
0.000000
  70
    32
  0
VERTEX
  8
0
  5
51CB
 10
135.917
 20
156.158
 30
0.000000
  70
    32
  0
VERTEX
  8
0
  5
51CC
 10
135.922
 20
156.141
 30
0.000000
  70
    32
  0
VERTEX
  8
0
  5
51CD
 10
135.927
 20
156.125
 30
0.000000
  70
    32
  0
VERTEX
  8
0
  5
51CE
 10
135.932
 20
156.108
 30
0.000000
  70
    32
  0
VERTEX
  8
0
  5
51CF
 10
135.937
 20
156.091
 30
0.000000
  70
    32
  0
VERTEX
  8
0
  5
51D0
 10
135.942
 20
156.074
 30
0.000000
  70
    32
  0
VERTEX
  8
0
  5
51D1
 10
135.947
 20
156.057
 30
0.000000
  70
    32
  0
VERTEX
  8
0
  5
51D2
 10
135.951
 20
156.040
 30
0.000000
  70
    32
  0
VERTEX
  8
0
  5
51D3
 10
135.955
 20
156.023
 30
0.000000
  70
    32
  0
VERTEX
  8
0
  5
51D4
 10
135.960
 20
156.005
 30
0.000000
  70
    32
  0
VERTEX
  8
0
  5
51D5
 10
135.964
 20
155.988
 30
0.000000
  70
    32
  0
VERTEX
  8
0
  5
51D6
 10
135.968
 20
155.971
 30
0.000000
  70
    32
  0
VERTEX
  8
0
  5
51D7
 10
135.971
 20
155.953
 30
0.000000
  70
    32
  0
VERTEX
  8
0
  5
51D8
 10
135.975
 20
155.935
 30
0.000000
  70
    32
  0
VERTEX
  8
0
  5
51D9
 10
135.978
 20
155.918
 30
0.000000
  70
    32
  0
VERTEX
  8
0
  5
51DA
 10
135.982
 20
155.900
 30
0.000000
  70
    32
  0
VERTEX
  8
0
  5
51DB
 10
135.985
 20
155.882
 30
0.000000
  70
    32
  0
VERTEX
  8
0
  5
51DC
 10
135.988
 20
155.864
 30
0.000000
  70
    32
  0
VERTEX
  8
0
  5
51DD
 10
135.991
 20
155.847
 30
0.000000
  70
    32
  0
VERTEX
  8
0
  5
51DE
 10
135.994
 20
155.829
 30
0.000000
  70
    32
  0
VERTEX
  8
0
  5
51DF
 10
135.996
 20
155.811
 30
0.000000
  70
    32
  0
VERTEX
  8
0
  5
51E0
 10
135.999
 20
155.793
 30
0.000000
  70
    32
  0
VERTEX
  8
0
  5
51E1
 10
136.001
 20
155.775
 30
0.000000
  70
    32
  0
VERTEX
  8
0
  5
51E2
 10
136.003
 20
155.756
 30
0.000000
  70
    32
  0
VERTEX
  8
0
  5
51E3
 10
136.005
 20
155.738
 30
0.000000
  70
    32
  0
VERTEX
  8
0
  5
51E4
 10
136.007
 20
155.720
 30
0.000000
  70
    32
  0
VERTEX
  8
0
  5
51E5
 10
136.009
 20
155.702
 30
0.000000
  70
    32
  0
VERTEX
  8
0
  5
51E6
 10
136.010
 20
155.684
 30
0.000000
  70
    32
  0
VERTEX
  8
0
  5
51E7
 10
136.012
 20
155.665
 30
0.000000
  70
    32
  0
VERTEX
  8
0
  5
51E8
 10
136.013
 20
155.647
 30
0.000000
  70
    32
  0
VERTEX
  8
0
  5
51E9
 10
136.014
 20
155.629
 30
0.000000
  70
    32
  0
VERTEX
  8
0
  5
51EA
 10
136.015
 20
155.610
 30
0.000000
  70
    32
  0
VERTEX
  8
0
  5
51EB
 10
136.016
 20
155.592
 30
0.000000
  70
    32
  0
VERTEX
  8
0
  5
51EC
 10
136.017
 20
155.574
 30
0.000000
  70
    32
  0
VERTEX
  8
0
  5
51ED
 10
136.017
 20
155.555
 30
0.000000
  70
    32
  0
VERTEX
  8
0
  5
51EE
 10
136.018
 20
155.537
 30
0.000000
  70
    32
  0
VERTEX
  8
0
  5
51EF
 10
136.018
 20
155.518
 30
0.000000
  70
    32
  0
VERTEX
  8
0
  5
51F0
 10
136.018
 20
155.500
 30
0.000000
  70
    32
  0
SEQEND
  8
0
  5
51F1
  0
LINE
  5
4BED
  8
0
 10
136.01801176735671
 20
155.51589366922121
 30
0.0
 11
136.01801176735671
 21
143.4999999999998
 31
0.0
  0
ARC
  5
4BF4
  8
0
 10
137.30000000000001
 20
155.50000000000011
 30
0.0
 40
1.5
 50
0.0000000000000127
 51
90.0
  0
LINE
  5
4BF6
  8
0
 10
136.01801176735671
 20
155.5
 30
0.0
 11
133.63681800056219
 21
151.0082327237111
 31
0.0
  0
LINE
  5
4BF7
  8
0
 10
132.13681800056219
 20
152.5082327237111
 30
0.0
 11
135.01801176735671
 21
157.00000000000011
 31
0.0
  0
LINE
  5
4BF8
  8
0
 10
120.7819882326432
 20
157.00000000000011
 30
0.0
 11
123.6631819994378
 21
152.5082327237111
 31
0.0
  0
LINE
  5
4BF9
  8
0
 10
122.1631819994378
 20
151.0082327237111
 30
0.0
 11
119.7819882326432
 21
155.5
 31
0.0
  0
LINE
  5
4C09
  8
0
 10
132.1368180005621
 20
144.9999999999998
 30
0.0
 11
135.01801176735671
 21
141.99999999999969
 31
0.0
  0
LINE
  5
4C0A
  8
0
 10
133.6368180005621
 20
146.4999999999998
 30
0.0
 11
136.01801176735671
 21
143.4999999999998
 31
0.0
  0
LINE
  5
4C0B
  8
0
 10
123.6631819994378
 20
144.9999999999998
 30
0.0
 11
120.7819882326432
 21
141.99999999999969
 31
0.0
  0
LINE
  5
4C0C
  8
0
 10
122.1631819994378
 20
146.4999999999998
 30
0.0
 11
119.7819882326432
 21
143.4999999999998
 31
0.0
  0
TEXT
  5
4CF2
  8
0
 62
     3
 10
0.0
 20
0.0
 30
0.0
 40
10.0
  1
BJ773-16070-SUS
  7
STANDARD1
  0
LINE
  5
4D4D
  8
0
 10
39.100000000000023
 20
142.0
 30
0.0
 11
39.100000000000001
 21
119.0
 31
0.0
  0
LINE
  5
4D4E
  8
0
 10
60.899999999999999
 20
142.0
 30
0.0
 11
60.899999999999999
 21
119.0
 31
0.0
  0
LINE
  5
4D58
  8
0
 10
87.000000000000014
 20
151.05594819884109
 30
0.0
 11
87.0
 21
146.5
 31
0.0
  0
ARC
  5
4D59
  8
0
 10
85.499999999999943
 20
146.5
 30
0.0
 40
1.5
 50
270.0
 51
360.0
  0
LINE
  5
4D5A
  8
0
 10
138.80000000000001
 20
119.0
 30
0.0
 11
117.0
 21
119.0
 31
0.0
  0
LINE
  5
4D5B
  8
0
 10
117.0
 20
120.651
 30
0.0
 11
138.80000000000001
 21
120.651
 31
0.0
  0
LINE
  5
4D5C
  8
0
 10
138.80000000000001
 20
155.50000000000011
 30
0.0
 11
138.80000000000001
 21
119.0
 31
0.0
  0
LINE
  5
4D5D
  8
0
 10
117.0
 20
155.50000000000011
 30
0.0
 11
117.0
 21
119.0
 31
0.0
  0
LINE
  5
4D5F
  8
0
 10
133.30000000000001
 20
162.0
 30
0.0
 11
122.5
 21
162.0
 31
0.0
  0
LINE
  5
4D60
  8
0
 10
122.0
 20
161.5
 30
0.0
 11
122.0
 21
157.0
 31
0.0
  0
ARC
  5
4D61
  8
0
 10
122.5
 20
161.5
 30
0.0
 40
0.5
 50
90.0
 51
179.9999999999996
  0
ARC
  5
4D62
  8
0
 10
133.30000000000001
 20
161.5
 30
0.0
 40
0.5
 50
0.0000000000003689
 51
90.0
  0
LINE
  5
4D63
  8
0
 10
133.80000000000001
 20
161.5
 30
0.0
 11
133.80000000000001
 21
157.0
 31
0.0
  0
LINE
  5
4D64
  8
0
 10
122.0
 20
161.5
 30
0.0
 11
133.80000000000001
 21
161.5
 31
0.0
  0
ARC
  5
4E27
  8
0
 10
50.0
 20
214.0
 30
0.0
 40
10.9
 50
48.294854514293462
 51
131.70514548570591
  0
ARC
  5
4E28
  8
0
 10
41.750312186533421
 20
204.7424273710468
 30
0.0
 40
1.5
 50
48.294854514293498
 51
85.783002278668775
  0
ARC
  5
4E29
  8
0
 10
41.750312186533442
 20
223.2575726289532
 30
0.0
 40
1.5
 50
274.21699772133098
 51
311.70514548570571
  0
ARC
  5
4E2A
  8
0
 10
58.249687813466657
 20
223.25757262895311
 30
0.0
 40
1.5
 50
228.29485451429309
 51
265.78300227866879
  0
ARC
  5
4E2B
  8
0
 10
58.249687813466657
 20
204.74242737104689
 30
0.0
 40
1.5
 50
94.216997721331225
 51
131.70514548570679
  0
ARC
  5
4E2C
  8
0
 10
50.0
 20
214.0
 30
0.0
 40
10.9
 50
228.294854514294
 51
311.70514548570662
  0
ARC
  5
4E89
  8
0
 10
44.064601078154219
 20
155.2083987069353
 30
0.0
 40
2.223194440739654
 50
126.3058322425188
 51
172.4631857486215
  0
ARC
  5
4E8A
  8
0
 10
37.535444057422112
 20
142.4965762996267
 30
0.0
 40
4.9974212391635957
 50
354.29730760670259
 51
30.062414803188201
  0
LINE
  5
4E8B
  8
0
 10
41.860613281632041
 20
155.5
 30
0.0
 11
41.860613281632077
 21
144.99999999999989
 31
0.0
  0
LINE
  5
4E8C
  8
0
 10
14.49999999999998
 20
145.00000000000091
 30
0.0
 11
41.860613281632077
 21
144.99999999999989
 31
0.0
  0
ENDSEC
  0
EOF
