  0
SECTION
  2
HEADER
  9
$ACADVER
  1
AC1009
  9
$INSBASE
 10
0.0
 20
0.0
 30
0.0
  9
$EXTMIN
 10
0.0
 20
-2.960436562073669
 30
0.0
  9
$EXTMAX
 10
119.90000000000011
 20
161.4000000000014
 30
0.0
  9
$LIMMIN
 10
0.0
 20
0.0
  9
$LIMMAX
 10
12.0
 20
9.0
  9
$ORTHOMODE
 70
     1
  9
$REGENMODE
 70
     1
  9
$FILLMODE
 70
     1
  9
$QTEXTMODE
 70
     0
  9
$MIRRTEXT
 70
     0
  9
$DRAGMODE
 70
     2
  9
$LTSCALE
 40
10.0
  9
$OSMODE
 70
    37
  9
$ATTMODE
 70
     1
  9
$TEXTSIZE
 40
0.2
  9
$TRACEWID
 40
0.05
  9
$TEXTSTYLE
  7
STANDARD
  9
$CLAYER
  8
0
  9
$CELTYPE
  6
BYLAYER
  9
$CECOLOR
 62
   256
  9
$DIMSCALE
 40
1.0
  9
$DIMASZ
 40
0.18
  9
$DIMEXO
 40
0.0625
  9
$DIMDLI
 40
0.38
  9
$DIMRND
 40
0.0
  9
$DIMDLE
 40
0.0
  9
$DIMEXE
 40
0.18
  9
$DIMTP
 40
0.0
  9
$DIMTM
 40
0.0
  9
$DIMTXT
 40
0.18
  9
$DIMCEN
 40
0.09
  9
$DIMTSZ
 40
0.0
  9
$DIMTOL
 70
     0
  9
$DIMLIM
 70
     0
  9
$DIMTIH
 70
     1
  9
$DIMTOH
 70
     1
  9
$DIMSE1
 70
     0
  9
$DIMSE2
 70
     0
  9
$DIMTAD
 70
     0
  9
$DIMZIN
 70
     0
  9
$DIMBLK
  1

  9
$DIMASO
 70
     1
  9
$DIMSHO
 70
     1
  9
$DIMPOST
  1

  9
$DIMAPOST
  1

  9
$DIMALT
 70
     0
  9
$DIMALTD
 70
     2
  9
$DIMALTF
 40
25.399999999999999
  9
$DIMLFAC
 40
1.0
  9
$DIMTOFL
 70
     0
  9
$DIMTVP
 40
0.0
  9
$DIMTIX
 70
     0
  9
$DIMSOXD
 70
     0
  9
$DIMSAH
 70
     0
  9
$DIMBLK1
  1

  9
$DIMBLK2
  1

  9
$DIMSTYLE
  2
STANDARD
  9
$DIMCLRD
 70
     0
  9
$DIMCLRE
 70
     0
  9
$DIMCLRT
 70
     0
  9
$DIMTFAC
 40
1.0
  9
$DIMGAP
 40
0.09
  9
$LUNITS
 70
     2
  9
$LUPREC
 70
     4
  9
$SKETCHINC
 40
0.1
  9
$FILLETRAD
 40
1.5
  9
$AUNITS
 70
     0
  9
$AUPREC
 70
     0
  9
$MENU
  1
.
  9
$ELEVATION
 40
0.0
  9
$PELEVATION
 40
0.0
  9
$THICKNESS
 40
0.0
  9
$LIMCHECK
 70
     0
  9
$BLIPMODE
 70
     0
  9
$CHAMFERA
 40
0.0
  9
$CHAMFERB
 40
0.0
  9
$SKPOLY
 70
     0
  9
$TDCREATE
 40
2453083.4120647679
  9
$TDUPDATE
 40
2457497.6472171298
  9
$TDINDWG
 40
0.6388760417
  9
$TDUSRTIMER
 40
0.6388759259
  9
$USRTIMER
 70
     1
  9
$ANGBASE
 50
0.0
  9
$ANGDIR
 70
     0
  9
$PDMODE
 70
     0
  9
$PDSIZE
 40
0.0
  9
$PLINEWID
 40
0.0
  9
$COORDS
 70
     1
  9
$SPLFRAME
 70
     0
  9
$SPLINETYPE
 70
     6
  9
$SPLINESEGS
 70
     8
  9
$ATTDIA
 70
     0
  9
$ATTREQ
 70
     1
  9
$HANDLING
 70
     1
  9
$HANDSEED
  5
48F8
  9
$SURFTAB1
 70
     6
  9
$SURFTAB2
 70
     6
  9
$SURFTYPE
 70
     6
  9
$SURFU
 70
     6
  9
$SURFV
 70
     6
  9
$UCSNAME
  2

  9
$UCSORG
 10
0.0
 20
0.0
 30
0.0
  9
$UCSXDIR
 10
1.0
 20
0.0
 30
0.0
  9
$UCSYDIR
 10
0.0
 20
1.0
 30
0.0
  9
$PUCSNAME
  2

  9
$PUCSORG
 10
0.0
 20
0.0
 30
0.0
  9
$PUCSXDIR
 10
1.0
 20
0.0
 30
0.0
  9
$PUCSYDIR
 10
0.0
 20
1.0
 30
0.0
  9
$USERI1
 70
     0
  9
$USERI2
 70
     1
  9
$USERI3
 70
     0
  9
$USERI4
 70
     0
  9
$USERI5
 70
     0
  9
$USERR1
 40
0.0
  9
$USERR2
 40
0.0
  9
$USERR3
 40
0.0
  9
$USERR4
 40
0.0
  9
$USERR5
 40
0.0
  9
$WORLDVIEW
 70
     1
  9
$SHADEDGE
 70
     3
  9
$SHADEDIF
 70
    70
  9
$TILEMODE
 70
     1
  9
$MAXACTVP
 70
    64
  9
$PLIMCHECK
 70
     0
  9
$PEXTMIN
 10
0.0
 20
0.0
 30
0.0
  9
$PEXTMAX
 10
0.0
 20
0.0
 30
0.0
  9
$PLIMMIN
 10
0.0
 20
0.0
  9
$PLIMMAX
 10
12.0
 20
9.0
  9
$UNITMODE
 70
     0
  9
$VISRETAIN
 70
     1
  9
$PLINEGEN
 70
     0
  9
$PSLTSCALE
 70
     1
  0
ENDSEC
  0
SECTION
  2
TABLES
  0
TABLE
  2
VPORT
 70
     1
  0
VPORT
  2
*ACTIVE
 70
     0
 10
0.0
 20
0.0
 11
1.0
 21
1.0
 12
143.7282967690814
 22
79.224874850508044
 13
0.0
 23
0.0
 14
0.5
 24
0.5
 15
0.5
 25
0.5
 16
0.0
 26
0.0
 36
1.0
 17
0.0
 27
0.0
 37
0.0
 40
165.81795017982071
 41
2.6019575856443709
 42
50.0
 43
0.0
 44
0.0
 50
0.0
 51
0.0
 71
     0
 72
  1000
 73
     1
 74
     2
 75
     0
 76
     0
 77
     0
 78
     0
  0
ENDTAB
  0
TABLE
  2
LTYPE
 70
     3
  0
LTYPE
  2
CONTINUOUS
 70
     0
  3
Solid Line
 72
    65
 73
     0
 40
0.0
  0
LTYPE
  2
CENTER
 70
     0
  3
____ _ ____ _ ____ _ ____ _ ____ _ ____ _ ____
 72
    65
 73
     4
 40
2.0
 49
1.25
 49
-0.25
 49
0.25
 49
-0.25
  0
LTYPE
  2
PHANTOM2
 70
     0
  3
___ _ _ ___ _ _ ___ _ _ ___ _ _
 72
    65
 73
     6
 40
1.25
 49
0.625
 49
-0.125
 49
0.125
 49
-0.125
 49
0.125
 49
-0.125
  0
ENDTAB
  0
TABLE
  2
LAYER
 70
     2
  0
LAYER
  2
0
 70
     0
 62
     7
  6
CONTINUOUS
  0
LAYER
  2
1
 70
     0
 62
     1
  6
CENTER
  0
ENDTAB
  0
TABLE
  2
STYLE
 70
     2
  0
STYLE
  2
STANDARD
 70
     0
 40
0.0
 41
1.0
 50
0.0
 71
     0
 42
0.2
  3
simplex.shx
  4
bigfont.shx
  0
STYLE
  2
STANDARD1
 70
     0
 40
0.0
 41
1.0
 50
0.0
 71
     0
 42
3.0
  3
txt
  4

  0
ENDTAB
  0
TABLE
  2
VIEW
 70
     0
  0
ENDTAB
  0
TABLE
  2
UCS
 70
     0
  0
ENDTAB
  0
TABLE
  2
APPID
 70
     5
  0
APPID
  2
ACAD
 70
     0
  0
APPID
  2
DCO15
 70
     0
  0
APPID
  2
ACAD_MLEADERVER
 70
     0
  0
APPID
  2
ACAD_NAV_VCDISPLAY
 70
     0
  0
APPID
  2
ACAD_EXEMPT_FROM_CAD_STANDARDS
 70
     0
  0
ENDTAB
  0
TABLE
  2
DIMSTYLE
 70
     1
  0
DIMSTYLE
  2
STANDARD
 70
     0
  3

  4

  5

  6

  7

 40
1.0
 41
0.18
 42
0.0625
 43
0.38
 44
0.18
 45
0.0
 46
0.0
 47
0.0
 48
0.0
140
0.18
141
0.09
142
0.0
143
25.399999999999999
144
1.0
145
0.0
146
1.0
147
0.09
 71
     0
 72
     0
 73
     1
 74
     1
 75
     0
 76
     0
 77
     0
 78
     0
170
     0
171
     2
172
     0
173
     0
174
     0
175
     0
176
     0
177
     0
178
     0
  0
ENDTAB
  0
ENDSEC
  0
SECTION
  2
BLOCKS
  0
BLOCK
  8
0
  2
$MODEL_SPACE
 70
     0
 10
0.0
 20
0.0
 30
0.0
  3
$MODEL_SPACE
  1

  0
ENDBLK
  5
21
  8
0
  0
BLOCK
 67
     1
  8
0
  2
$PAPER_SPACE
 70
     0
 10
0.0
 20
0.0
 30
0.0
  3
$PAPER_SPACE
  1

  0
ENDBLK
  5
5B
 67
     1
  8
0
  0
ENDSEC
  0
SECTION
  2
ENTITIES
  0
LINE
  5
3CE5
  8
0
 10
25.914795689330411
 20
153.84367574222949
 30
0.0
 11
45.866080833225787
 21
155.2991372327065
 31
0.0
  0
LINE
  5
3ED0
  8
1
 10
19.500000000000089
 20
149.20000000000141
 30
0.0
 11
80.500000000000114
 21
149.20000000000141
 31
0.0
  0
LINE
  5
3ED1
  8
1
 10
50.000000000000099
 20
137.00000000000139
 30
0.0
 11
50.000000000000099
 21
161.4000000000014
 31
0.0
  0
LINE
  5
3ED2
  8
0
 10
24.500000000000082
 20
146.05390237775339
 30
0.0
 11
24.50000000000011
 21
152.3460976222494
 31
0.0
  0
CIRCLE
  5
3ED5
  8
0
 10
50.000000000000099
 20
149.20000000000141
 30
0.0
 40
3.3500000000000081
  0
CIRCLE
  5
3ED6
  8
0
 10
50.000000000000099
 20
149.20000000000141
 30
0.0
 40
3.8499999999999508
  0
ARC
  5
3EDB
  8
0
 10
26.00000000000011
 20
152.3460976222494
 30
0.0
 40
1.5
 50
93.256317656215586
 51
180.0
  0
ARC
  5
3EDC
  8
0
 10
26.00000000000011
 20
146.05390237775339
 30
0.0
 40
1.5
 50
180.0
 51
266.74368234378443
  0
LINE
  5
3EDE
  8
0
 10
25.914795689330411
 20
144.55632425777321
 30
0.0
 11
45.866080833225659
 21
143.10086276729641
 31
0.0
  0
LINE
  5
3EDF
  8
0
 10
74.085204310669837
 20
144.55632425777321
 30
0.0
 11
54.133919166774469
 21
143.10086276729641
 31
0.0
  0
ARC
  5
3EE1
  8
0
 10
74.000000000000142
 20
146.05390237775339
 30
0.0
 40
1.5
 50
273.25631765621551
 51
0.0
  0
ARC
  5
3EE2
  8
0
 10
74.000000000000142
 20
152.3460976222494
 30
0.0
 40
1.5
 50
0.0
 51
86.743682343784386
  0
LINE
  5
3EE4
  8
0
 10
75.500000000000142
 20
146.05390237775339
 30
0.0
 11
75.500000000000114
 21
152.3460976222494
 31
0.0
  0
LINE
  5
3EE5
  8
0
 10
74.085204310669837
 20
153.84367574222949
 30
0.0
 11
54.133919166774398
 21
155.29913723270641
 31
0.0
  0
CIRCLE
  5
3EEB
  8
0
 10
71.549832391026399
 20
149.19997274587629
 30
0.0
 40
1.95
  0
CIRCLE
  5
3EED
  8
0
 10
71.549832391026399
 20
149.19997274587629
 30
0.0
 40
2.149999999999999
  0
LINE
  5
410E
  8
0
 10
118.7
 20
36.999999999999993
 30
0.0
 11
118.0000000000001
 21
34.999999999999993
 31
0.0
  0
LINE
  5
410F
  8
0
 10
118.7
 20
75.000000000001393
 30
0.0
 11
118.7
 21
36.999999999999993
 31
0.0
  0
LINE
  5
4116
  8
0
 10
106.7
 20
36.999999999999993
 30
0.0
 11
107.40000000000001
 21
34.999999999999993
 31
0.0
  0
LINE
  5
4117
  8
0
 10
106.7
 20
36.999999999999993
 30
0.0
 11
118.7000000000001
 21
36.999999999999993
 31
0.0
  0
LINE
  5
4118
  8
0
 10
106.7
 20
75.000000000001393
 30
0.0
 11
106.6999999999999
 21
36.999999999999993
 31
0.0
  0
LINE
  5
411D
  8
0
 10
107.40000000000001
 20
34.999999999999993
 30
0.0
 11
118.0000000000001
 21
34.999999999999993
 31
0.0
  0
LINE
  5
4120
  8
1
 10
112.7000000000001
 20
117.00000000000141
 30
0.0
 11
112.7
 21
29.999999999999989
 31
0.0
  0
CIRCLE
  5
4123
  8
0
 10
112.7
 20
43.145950378227411
 30
0.0
 40
1.854049621774144
  0
TEXT
  5
423E
  8
0
 62
     3
 10
0.0
 20
0.0
 30
0.0
 40
10.0
  1
BJ773-12030-SUS
  7
STANDARD1
  0
LINE
  5
42B2
  8
1
 10
50.000000000000099
 20
117.00000000000141
 30
0.0
 11
50.0
 21
30.0
 31
0.0
  0
LINE
  5
431A
  8
0
 10
44.70000000000001
 20
35.000000000000021
 30
0.0
 11
55.300000000000068
 21
35.000000000000021
 31
0.0
  0
LINE
  5
431B
  8
0
 10
57.200000000000053
 20
75.000000000001393
 30
0.0
 11
42.800000000000033
 21
75.000000000001421
 31
0.0
  0
LINE
  5
431C
  8
0
 10
57.200000000000053
 20
76.651000000001432
 30
0.0
 11
42.800000000000033
 21
76.651000000001432
 31
0.0
  0
LINE
  5
4320
  8
0
 10
44.000000000000028
 20
75.000000000001421
 30
0.0
 11
44.0
 21
45.000000000001421
 31
0.0
  0
LINE
  5
4321
  8
0
 10
44.0
 20
37.000000000000007
 30
0.0
 11
56.000000000000078
 21
37.000000000000007
 31
0.0
  0
LINE
  5
4322
  8
0
 10
44.0
 20
37.000000000000007
 30
0.0
 11
44.70000000000001
 21
35.000000000000021
 31
0.0
  0
ARC
  5
4323
  8
0
 10
44.75
 20
43.145950378227433
 30
0.0
 40
2.0
 50
112.02431283704129
 51
247.97568716295871
  0
LINE
  5
4324
  8
0
 10
44.0
 20
41.291900756453508
 30
0.0
 11
44.0
 21
37.000000000000007
 31
0.0
  0
ARC
  5
4325
  8
0
 10
38.98455257290513
 20
43.145950378227433
 30
0.0
 40
5.347168680147746
 50
339.7122677524714
 51
20.287732247528609
  0
ARC
  5
4326
  8
0
 10
61.015447427094919
 20
43.145950378227433
 30
0.0
 40
5.347168680147746
 50
159.7122677524714
 51
200.2877322475286
  0
LINE
  5
4327
  8
0
 10
56.00000000000005
 20
41.291900756453508
 30
0.0
 11
56.00000000000005
 21
37.000000000000007
 31
0.0
  0
ARC
  5
4328
  8
0
 10
55.25000000000005
 20
43.145950378227433
 30
0.0
 40
2.0
 50
292.02431283704129
 51
67.975687162958707
  0
LINE
  5
4329
  8
0
 10
56.000000000000028
 20
75.000000000001421
 30
0.0
 11
56.00000000000005
 21
45.000000000001421
 31
0.0
  0
LINE
  5
432A
  8
0
 10
56.00000000000005
 20
37.000000000000007
 30
0.0
 11
55.30000000000004
 21
35.000000000000021
 31
0.0
  0
LINE
  5
4332
  8
0
 10
60.500000000000199
 20
108.50000000000141
 30
0.0
 11
39.500000000000092
 21
108.50000000000141
 31
0.0
  0
ARC
  5
4337
  8
0
 10
51.592473116906739
 20
20.914218606081182
 30
0.0
 40
88.416610478273199
 50
97.860808423241508
 51
107.3196733157378
  0
LINE
  5
4338
  8
0
 10
24.500000000000071
 20
104.3485645774783
 30
0.0
 11
24.50000000000006
 21
100.50000000000141
 31
0.0
  0
ARC
  5
4339
  8
0
 10
25.500000000000089
 20
104.3485645774783
 30
0.0
 40
1.0
 50
103.26112654109031
 51
180.0
  0
ARC
  5
433A
  8
0
 10
26.00000000000006
 20
100.50000000000141
 30
0.0
 40
1.5
 50
180.0
 51
270.0
  0
ARC
  5
433B
  8
0
 10
74.000000000000114
 20
100.50000000000141
 30
0.0
 40
1.5
 50
270.0
 51
0.0
  0
ARC
  5
433C
  8
0
 10
74.500000000000085
 20
104.3485645774783
 30
0.0
 40
1.0
 50
0.0
 51
76.738873458909652
  0
LINE
  5
433D
  8
0
 10
75.500000000000099
 20
104.3485645774783
 30
0.0
 11
75.500000000000114
 21
100.50000000000141
 31
0.0
  0
ARC
  5
433E
  8
0
 10
48.407526883093567
 20
20.914218606081342
 30
0.0
 40
88.416610478273043
 50
72.680326684262226
 51
82.139191576758506
  0
LINE
  5
4344
  8
0
 10
74.000000000000114
 20
99.000000000001407
 30
0.0
 11
54.133919166774362
 21
99.000000000001492
 31
0.0
  0
LINE
  5
434A
  8
0
 10
42.800000000000047
 20
96.000000000001435
 30
0.0
 11
42.800000000000033
 21
75.000000000001421
 31
0.0
  0
LINE
  5
434B
  8
0
 10
57.200000000000053
 20
96.000000000001435
 30
0.0
 11
57.200000000000053
 21
75.000000000001364
 31
0.0
  0
LINE
  5
4350
  8
0
 10
53.350000000000051
 20
112.00000000000141
 30
0.0
 11
46.650000000000112
 21
112.00000000000141
 31
0.0
  0
LINE
  5
4351
  8
0
 10
46.150000000000098
 20
111.50000000000141
 30
0.0
 11
46.150000000000077
 21
108.50000000000141
 31
0.0
  0
ARC
  5
4352
  8
0
 10
46.650000000000112
 20
111.50000000000141
 30
0.0
 40
0.5
 50
90.0
 51
179.99999999999989
  0
ARC
  5
4353
  8
0
 10
53.350000000000051
 20
111.50000000000141
 30
0.0
 40
0.5
 50
0.0000000000000509
 51
90.0
  0
LINE
  5
4354
  8
0
 10
53.850000000000058
 20
111.50000000000141
 30
0.0
 11
53.85000000000008
 21
108.50000000000141
 31
0.0
  0
LINE
  5
4355
  8
0
 10
46.150000000000112
 20
111.50000000000141
 30
0.0
 11
53.850000000000051
 21
111.50000000000141
 31
0.0
  0
LINE
  5
4356
  8
0
 10
24.500000000000071
 20
104.3485645774783
 30
0.0
 11
24.50000000000006
 21
100.50000000000141
 31
0.0
  0
LINE
  5
4357
  8
0
 10
75.500000000000085
 20
104.3485645774783
 30
0.0
 11
75.500000000000114
 21
100.50000000000141
 31
0.0
  0
ARC
  5
4358
  8
0
 10
39.800000000000061
 20
96.00000000000145
 30
0.0
 40
3.0
 50
359.99999999999989
 51
90.0
  0
LINE
  5
435A
  8
0
 10
42.800000000000047
 20
96.000000000001435
 30
0.0
 11
44.300000000000047
 21
96.000000000001435
 31
0.0
  0
ARC
  5
435E
  8
0
 10
59.8870621458504
 20
100.0945274540812
 30
0.0
 40
5.8563337068020713
 50
190.77171445440581
 51
224.35982982399821
  0
ARC
  5
435F
  8
0
 10
59.22749260426356
 20
95.426258628360657
 30
0.0
 40
3.5738471196549662
 50
90.440764721062706
 51
170.76182456894551
  0
LINE
  5
4360
  8
0
 10
57.200000000000053
 20
96.000000000001435
 30
0.0
 11
55.70000000000006
 21
96.000000000001435
 31
0.0
  0
LINE
  5
4361
  8
0
 10
54.133919166774398
 20
107.31036146143821
 30
0.0
 11
54.133919166774369
 21
99.000000000001606
 31
0.0
  0
ARC
  5
4362
  8
0
 10
60.20000000000006
 20
96.00000000000145
 30
0.0
 40
3.0
 50
90.0
 51
180.0
  0
ARC
  5
4363
  8
0
 10
52.227739368075092
 20
107.0706855011755
 30
0.0
 40
1.921188692163537
 50
7.1665494026720902
 51
48.071051635339892
  0
LINE
  5
4453
  8
0
 10
118.40000000000011
 20
108.50000000000129
 30
0.0
 11
107.0000000000001
 21
108.50000000000129
 31
0.0
  0
LINE
  5
4454
  8
0
 10
119.90000000000011
 20
76.651000000001389
 30
0.0
 11
105.5000000000001
 21
76.651000000001389
 31
0.0
  0
LINE
  5
4455
  8
0
 10
119.90000000000011
 20
75.000000000001378
 30
0.0
 11
105.5000000000001
 21
75.000000000001393
 31
0.0
  0
ARC
  5
4456
  8
0
 10
107.0000000000001
 20
107.00000000000129
 30
0.0
 40
1.5
 50
90.0
 51
180.0
  0
LINE
  5
4457
  8
0
 10
119.0084426601598
 20
107.00000000000141
 30
0.0
 11
119.0084426601598
 21
97.50000000000135
 31
0.0
  0
POLYLINE
  5
4458
  8
0
 10
119.0084426601598
 20
107.00000000000125
 30
0.0
 66
     1
 70
     8
  0
VERTEX
  8
0
  5
46F0
 10
119.008
 20
107.000
 30
0.000000
  70
    32
  0
VERTEX
  8
0
  5
46F1
 10
119.008
 20
107.018
 30
0.000000
  70
    32
  0
VERTEX
  8
0
  5
46F2
 10
119.008
 20
107.037
 30
0.000000
  70
    32
  0
VERTEX
  8
0
  5
46F3
 10
119.008
 20
107.055
 30
0.000000
  70
    32
  0
VERTEX
  8
0
  5
46F4
 10
119.007
 20
107.074
 30
0.000000
  70
    32
  0
VERTEX
  8
0
  5
46F5
 10
119.007
 20
107.092
 30
0.000000
  70
    32
  0
VERTEX
  8
0
  5
46F6
 10
119.006
 20
107.110
 30
0.000000
  70
    32
  0
VERTEX
  8
0
  5
46F7
 10
119.005
 20
107.129
 30
0.000000
  70
    32
  0
VERTEX
  8
0
  5
46F8
 10
119.004
 20
107.147
 30
0.000000
  70
    32
  0
VERTEX
  8
0
  5
46F9
 10
119.002
 20
107.165
 30
0.000000
  70
    32
  0
VERTEX
  8
0
  5
46FA
 10
119.001
 20
107.184
 30
0.000000
  70
    32
  0
VERTEX
  8
0
  5
46FB
 10
118.999
 20
107.202
 30
0.000000
  70
    32
  0
VERTEX
  8
0
  5
46FC
 10
118.998
 20
107.220
 30
0.000000
  70
    32
  0
VERTEX
  8
0
  5
46FD
 10
118.996
 20
107.238
 30
0.000000
  70
    32
  0
VERTEX
  8
0
  5
46FE
 10
118.994
 20
107.256
 30
0.000000
  70
    32
  0
VERTEX
  8
0
  5
46FF
 10
118.992
 20
107.275
 30
0.000000
  70
    32
  0
VERTEX
  8
0
  5
4700
 10
118.989
 20
107.293
 30
0.000000
  70
    32
  0
VERTEX
  8
0
  5
4701
 10
118.987
 20
107.311
 30
0.000000
  70
    32
  0
VERTEX
  8
0
  5
4702
 10
118.984
 20
107.329
 30
0.000000
  70
    32
  0
VERTEX
  8
0
  5
4703
 10
118.981
 20
107.347
 30
0.000000
  70
    32
  0
VERTEX
  8
0
  5
4704
 10
118.978
 20
107.364
 30
0.000000
  70
    32
  0
VERTEX
  8
0
  5
4705
 10
118.975
 20
107.382
 30
0.000000
  70
    32
  0
VERTEX
  8
0
  5
4706
 10
118.972
 20
107.400
 30
0.000000
  70
    32
  0
VERTEX
  8
0
  5
4707
 10
118.969
 20
107.418
 30
0.000000
  70
    32
  0
VERTEX
  8
0
  5
4708
 10
118.965
 20
107.435
 30
0.000000
  70
    32
  0
VERTEX
  8
0
  5
4709
 10
118.962
 20
107.453
 30
0.000000
  70
    32
  0
VERTEX
  8
0
  5
470A
 10
118.958
 20
107.471
 30
0.000000
  70
    32
  0
VERTEX
  8
0
  5
470B
 10
118.954
 20
107.488
 30
0.000000
  70
    32
  0
VERTEX
  8
0
  5
470C
 10
118.950
 20
107.505
 30
0.000000
  70
    32
  0
VERTEX
  8
0
  5
470D
 10
118.946
 20
107.523
 30
0.000000
  70
    32
  0
VERTEX
  8
0
  5
470E
 10
118.941
 20
107.540
 30
0.000000
  70
    32
  0
VERTEX
  8
0
  5
470F
 10
118.937
 20
107.557
 30
0.000000
  70
    32
  0
VERTEX
  8
0
  5
4710
 10
118.932
 20
107.574
 30
0.000000
  70
    32
  0
VERTEX
  8
0
  5
4711
 10
118.928
 20
107.591
 30
0.000000
  70
    32
  0
VERTEX
  8
0
  5
4712
 10
118.923
 20
107.608
 30
0.000000
  70
    32
  0
VERTEX
  8
0
  5
4713
 10
118.918
 20
107.625
 30
0.000000
  70
    32
  0
VERTEX
  8
0
  5
4714
 10
118.912
 20
107.641
 30
0.000000
  70
    32
  0
VERTEX
  8
0
  5
4715
 10
118.907
 20
107.658
 30
0.000000
  70
    32
  0
VERTEX
  8
0
  5
4716
 10
118.902
 20
107.674
 30
0.000000
  70
    32
  0
VERTEX
  8
0
  5
4717
 10
118.896
 20
107.691
 30
0.000000
  70
    32
  0
VERTEX
  8
0
  5
4718
 10
118.890
 20
107.707
 30
0.000000
  70
    32
  0
VERTEX
  8
0
  5
4719
 10
118.885
 20
107.723
 30
0.000000
  70
    32
  0
VERTEX
  8
0
  5
471A
 10
118.879
 20
107.739
 30
0.000000
  70
    32
  0
VERTEX
  8
0
  5
471B
 10
118.872
 20
107.755
 30
0.000000
  70
    32
  0
VERTEX
  8
0
  5
471C
 10
118.866
 20
107.771
 30
0.000000
  70
    32
  0
VERTEX
  8
0
  5
471D
 10
118.860
 20
107.787
 30
0.000000
  70
    32
  0
VERTEX
  8
0
  5
471E
 10
118.853
 20
107.802
 30
0.000000
  70
    32
  0
VERTEX
  8
0
  5
471F
 10
118.847
 20
107.818
 30
0.000000
  70
    32
  0
VERTEX
  8
0
  5
4720
 10
118.840
 20
107.833
 30
0.000000
  70
    32
  0
VERTEX
  8
0
  5
4721
 10
118.833
 20
107.849
 30
0.000000
  70
    32
  0
VERTEX
  8
0
  5
4722
 10
118.826
 20
107.864
 30
0.000000
  70
    32
  0
VERTEX
  8
0
  5
4723
 10
118.819
 20
107.879
 30
0.000000
  70
    32
  0
VERTEX
  8
0
  5
4724
 10
118.812
 20
107.894
 30
0.000000
  70
    32
  0
VERTEX
  8
0
  5
4725
 10
118.804
 20
107.908
 30
0.000000
  70
    32
  0
VERTEX
  8
0
  5
4726
 10
118.797
 20
107.923
 30
0.000000
  70
    32
  0
VERTEX
  8
0
  5
4727
 10
118.789
 20
107.937
 30
0.000000
  70
    32
  0
VERTEX
  8
0
  5
4728
 10
118.781
 20
107.952
 30
0.000000
  70
    32
  0
VERTEX
  8
0
  5
4729
 10
118.774
 20
107.966
 30
0.000000
  70
    32
  0
VERTEX
  8
0
  5
472A
 10
118.766
 20
107.980
 30
0.000000
  70
    32
  0
VERTEX
  8
0
  5
472B
 10
118.758
 20
107.994
 30
0.000000
  70
    32
  0
VERTEX
  8
0
  5
472C
 10
118.749
 20
108.007
 30
0.000000
  70
    32
  0
VERTEX
  8
0
  5
472D
 10
118.741
 20
108.021
 30
0.000000
  70
    32
  0
VERTEX
  8
0
  5
472E
 10
118.733
 20
108.034
 30
0.000000
  70
    32
  0
VERTEX
  8
0
  5
472F
 10
118.724
 20
108.048
 30
0.000000
  70
    32
  0
VERTEX
  8
0
  5
4730
 10
118.716
 20
108.061
 30
0.000000
  70
    32
  0
VERTEX
  8
0
  5
4731
 10
118.707
 20
108.074
 30
0.000000
  70
    32
  0
VERTEX
  8
0
  5
4732
 10
118.698
 20
108.086
 30
0.000000
  70
    32
  0
VERTEX
  8
0
  5
4733
 10
118.689
 20
108.099
 30
0.000000
  70
    32
  0
VERTEX
  8
0
  5
4734
 10
118.680
 20
108.111
 30
0.000000
  70
    32
  0
VERTEX
  8
0
  5
4735
 10
118.671
 20
108.124
 30
0.000000
  70
    32
  0
VERTEX
  8
0
  5
4736
 10
118.662
 20
108.136
 30
0.000000
  70
    32
  0
VERTEX
  8
0
  5
4737
 10
118.652
 20
108.148
 30
0.000000
  70
    32
  0
VERTEX
  8
0
  5
4738
 10
118.643
 20
108.160
 30
0.000000
  70
    32
  0
VERTEX
  8
0
  5
4739
 10
118.633
 20
108.171
 30
0.000000
  70
    32
  0
VERTEX
  8
0
  5
473A
 10
118.624
 20
108.183
 30
0.000000
  70
    32
  0
VERTEX
  8
0
  5
473B
 10
118.614
 20
108.194
 30
0.000000
  70
    32
  0
VERTEX
  8
0
  5
473C
 10
118.604
 20
108.205
 30
0.000000
  70
    32
  0
VERTEX
  8
0
  5
473D
 10
118.594
 20
108.216
 30
0.000000
  70
    32
  0
VERTEX
  8
0
  5
473E
 10
118.584
 20
108.226
 30
0.000000
  70
    32
  0
VERTEX
  8
0
  5
473F
 10
118.574
 20
108.237
 30
0.000000
  70
    32
  0
VERTEX
  8
0
  5
4740
 10
118.564
 20
108.247
 30
0.000000
  70
    32
  0
VERTEX
  8
0
  5
4741
 10
118.554
 20
108.257
 30
0.000000
  70
    32
  0
VERTEX
  8
0
  5
4742
 10
118.543
 20
108.267
 30
0.000000
  70
    32
  0
VERTEX
  8
0
  5
4743
 10
118.533
 20
108.277
 30
0.000000
  70
    32
  0
VERTEX
  8
0
  5
4744
 10
118.523
 20
108.287
 30
0.000000
  70
    32
  0
VERTEX
  8
0
  5
4745
 10
118.512
 20
108.296
 30
0.000000
  70
    32
  0
VERTEX
  8
0
  5
4746
 10
118.501
 20
108.305
 30
0.000000
  70
    32
  0
VERTEX
  8
0
  5
4747
 10
118.491
 20
108.314
 30
0.000000
  70
    32
  0
VERTEX
  8
0
  5
4748
 10
118.480
 20
108.323
 30
0.000000
  70
    32
  0
VERTEX
  8
0
  5
4749
 10
118.469
 20
108.331
 30
0.000000
  70
    32
  0
VERTEX
  8
0
  5
474A
 10
118.458
 20
108.340
 30
0.000000
  70
    32
  0
VERTEX
  8
0
  5
474B
 10
118.447
 20
108.348
 30
0.000000
  70
    32
  0
VERTEX
  8
0
  5
474C
 10
118.436
 20
108.356
 30
0.000000
  70
    32
  0
VERTEX
  8
0
  5
474D
 10
118.425
 20
108.364
 30
0.000000
  70
    32
  0
VERTEX
  8
0
  5
474E
 10
118.414
 20
108.371
 30
0.000000
  70
    32
  0
VERTEX
  8
0
  5
474F
 10
118.402
 20
108.379
 30
0.000000
  70
    32
  0
VERTEX
  8
0
  5
4750
 10
118.391
 20
108.386
 30
0.000000
  70
    32
  0
VERTEX
  8
0
  5
4751
 10
118.380
 20
108.393
 30
0.000000
  70
    32
  0
VERTEX
  8
0
  5
4752
 10
118.368
 20
108.399
 30
0.000000
  70
    32
  0
VERTEX
  8
0
  5
4753
 10
118.357
 20
108.406
 30
0.000000
  70
    32
  0
VERTEX
  8
0
  5
4754
 10
118.345
 20
108.412
 30
0.000000
  70
    32
  0
VERTEX
  8
0
  5
4755
 10
118.334
 20
108.418
 30
0.000000
  70
    32
  0
VERTEX
  8
0
  5
4756
 10
118.322
 20
108.424
 30
0.000000
  70
    32
  0
VERTEX
  8
0
  5
4757
 10
118.310
 20
108.430
 30
0.000000
  70
    32
  0
VERTEX
  8
0
  5
4758
 10
118.299
 20
108.435
 30
0.000000
  70
    32
  0
VERTEX
  8
0
  5
4759
 10
118.287
 20
108.441
 30
0.000000
  70
    32
  0
VERTEX
  8
0
  5
475A
 10
118.275
 20
108.446
 30
0.000000
  70
    32
  0
VERTEX
  8
0
  5
475B
 10
118.263
 20
108.450
 30
0.000000
  70
    32
  0
VERTEX
  8
0
  5
475C
 10
118.251
 20
108.455
 30
0.000000
  70
    32
  0
VERTEX
  8
0
  5
475D
 10
118.240
 20
108.459
 30
0.000000
  70
    32
  0
VERTEX
  8
0
  5
475E
 10
118.228
 20
108.464
 30
0.000000
  70
    32
  0
VERTEX
  8
0
  5
475F
 10
118.216
 20
108.467
 30
0.000000
  70
    32
  0
VERTEX
  8
0
  5
4760
 10
118.204
 20
108.471
 30
0.000000
  70
    32
  0
VERTEX
  8
0
  5
4761
 10
118.191
 20
108.475
 30
0.000000
  70
    32
  0
VERTEX
  8
0
  5
4762
 10
118.179
 20
108.478
 30
0.000000
  70
    32
  0
VERTEX
  8
0
  5
4763
 10
118.167
 20
108.481
 30
0.000000
  70
    32
  0
VERTEX
  8
0
  5
4764
 10
118.155
 20
108.484
 30
0.000000
  70
    32
  0
VERTEX
  8
0
  5
4765
 10
118.143
 20
108.486
 30
0.000000
  70
    32
  0
VERTEX
  8
0
  5
4766
 10
118.131
 20
108.489
 30
0.000000
  70
    32
  0
VERTEX
  8
0
  5
4767
 10
118.119
 20
108.491
 30
0.000000
  70
    32
  0
VERTEX
  8
0
  5
4768
 10
118.106
 20
108.493
 30
0.000000
  70
    32
  0
VERTEX
  8
0
  5
4769
 10
118.094
 20
108.494
 30
0.000000
  70
    32
  0
VERTEX
  8
0
  5
476A
 10
118.082
 20
108.496
 30
0.000000
  70
    32
  0
VERTEX
  8
0
  5
476B
 10
118.070
 20
108.497
 30
0.000000
  70
    32
  0
VERTEX
  8
0
  5
476C
 10
118.058
 20
108.498
 30
0.000000
  70
    32
  0
VERTEX
  8
0
  5
476D
 10
118.045
 20
108.499
 30
0.000000
  70
    32
  0
VERTEX
  8
0
  5
476E
 10
118.033
 20
108.500
 30
0.000000
  70
    32
  0
VERTEX
  8
0
  5
476F
 10
118.021
 20
108.500
 30
0.000000
  70
    32
  0
VERTEX
  8
0
  5
4770
 10
118.008
 20
108.500
 30
0.000000
  70
    32
  0
SEQEND
  8
0
  5
4771
  0
POLYLINE
  5
4459
  8
0
 10
119.0084426601598
 20
97.500000000001435
 30
0.0
 66
     1
 70
     8
  0
VERTEX
  8
0
  5
4772
 10
119.008
 20
97.5000
 30
0.000000
  70
    32
  0
VERTEX
  8
0
  5
4773
 10
119.008
 20
97.4816
 30
0.000000
  70
    32
  0
VERTEX
  8
0
  5
4774
 10
119.008
 20
97.4632
 30
0.000000
  70
    32
  0
VERTEX
  8
0
  5
4775
 10
119.008
 20
97.4448
 30
0.000000
  70
    32
  0
VERTEX
  8
0
  5
4776
 10
119.007
 20
97.4264
 30
0.000000
  70
    32
  0
VERTEX
  8
0
  5
4777
 10
119.007
 20
97.4080
 30
0.000000
  70
    32
  0
VERTEX
  8
0
  5
4778
 10
119.006
 20
97.3897
 30
0.000000
  70
    32
  0
VERTEX
  8
0
  5
4779
 10
119.005
 20
97.3713
 30
0.000000
  70
    32
  0
VERTEX
  8
0
  5
477A
 10
119.004
 20
97.3530
 30
0.000000
  70
    32
  0
VERTEX
  8
0
  5
477B
 10
119.002
 20
97.3347
 30
0.000000
  70
    32
  0
VERTEX
  8
0
  5
477C
 10
119.001
 20
97.3164
 30
0.000000
  70
    32
  0
VERTEX
  8
0
  5
477D
 10
118.999
 20
97.2981
 30
0.000000
  70
    32
  0
VERTEX
  8
0
  5
477E
 10
118.998
 20
97.2799
 30
0.000000
  70
    32
  0
VERTEX
  8
0
  5
477F
 10
118.996
 20
97.2617
 30
0.000000
  70
    32
  0
VERTEX
  8
0
  5
4780
 10
118.994
 20
97.2436
 30
0.000000
  70
    32
  0
VERTEX
  8
0
  5
4781
 10
118.992
 20
97.2254
 30
0.000000
  70
    32
  0
VERTEX
  8
0
  5
4782
 10
118.989
 20
97.2074
 30
0.000000
  70
    32
  0
VERTEX
  8
0
  5
4783
 10
118.987
 20
97.1893
 30
0.000000
  70
    32
  0
VERTEX
  8
0
  5
4784
 10
118.984
 20
97.1713
 30
0.000000
  70
    32
  0
VERTEX
  8
0
  5
4785
 10
118.981
 20
97.1534
 30
0.000000
  70
    32
  0
VERTEX
  8
0
  5
4786
 10
118.978
 20
97.1355
 30
0.000000
  70
    32
  0
VERTEX
  8
0
  5
4787
 10
118.975
 20
97.1177
 30
0.000000
  70
    32
  0
VERTEX
  8
0
  5
4788
 10
118.972
 20
97.0999
 30
0.000000
  70
    32
  0
VERTEX
  8
0
  5
4789
 10
118.969
 20
97.0822
 30
0.000000
  70
    32
  0
VERTEX
  8
0
  5
478A
 10
118.965
 20
97.0646
 30
0.000000
  70
    32
  0
VERTEX
  8
0
  5
478B
 10
118.962
 20
97.0470
 30
0.000000
  70
    32
  0
VERTEX
  8
0
  5
478C
 10
118.958
 20
97.0295
 30
0.000000
  70
    32
  0
VERTEX
  8
0
  5
478D
 10
118.954
 20
97.0120
 30
0.000000
  70
    32
  0
VERTEX
  8
0
  5
478E
 10
118.950
 20
96.9947
 30
0.000000
  70
    32
  0
VERTEX
  8
0
  5
478F
 10
118.946
 20
96.9774
 30
0.000000
  70
    32
  0
VERTEX
  8
0
  5
4790
 10
118.941
 20
96.9602
 30
0.000000
  70
    32
  0
VERTEX
  8
0
  5
4791
 10
118.937
 20
96.9430
 30
0.000000
  70
    32
  0
VERTEX
  8
0
  5
4792
 10
118.932
 20
96.9260
 30
0.000000
  70
    32
  0
VERTEX
  8
0
  5
4793
 10
118.928
 20
96.9090
 30
0.000000
  70
    32
  0
VERTEX
  8
0
  5
4794
 10
118.923
 20
96.8921
 30
0.000000
  70
    32
  0
VERTEX
  8
0
  5
4795
 10
118.918
 20
96.8754
 30
0.000000
  70
    32
  0
VERTEX
  8
0
  5
4796
 10
118.912
 20
96.8587
 30
0.000000
  70
    32
  0
VERTEX
  8
0
  5
4797
 10
118.907
 20
96.8421
 30
0.000000
  70
    32
  0
VERTEX
  8
0
  5
4798
 10
118.902
 20
96.8256
 30
0.000000
  70
    32
  0
VERTEX
  8
0
  5
4799
 10
118.896
 20
96.8092
 30
0.000000
  70
    32
  0
VERTEX
  8
0
  5
479A
 10
118.890
 20
96.7929
 30
0.000000
  70
    32
  0
VERTEX
  8
0
  5
479B
 10
118.885
 20
96.7767
 30
0.000000
  70
    32
  0
VERTEX
  8
0
  5
479C
 10
118.879
 20
96.7607
 30
0.000000
  70
    32
  0
VERTEX
  8
0
  5
479D
 10
118.872
 20
96.7447
 30
0.000000
  70
    32
  0
VERTEX
  8
0
  5
479E
 10
118.866
 20
96.7288
 30
0.000000
  70
    32
  0
VERTEX
  8
0
  5
479F
 10
118.860
 20
96.7131
 30
0.000000
  70
    32
  0
VERTEX
  8
0
  5
47A0
 10
118.853
 20
96.6975
 30
0.000000
  70
    32
  0
VERTEX
  8
0
  5
47A1
 10
118.847
 20
96.6820
 30
0.000000
  70
    32
  0
VERTEX
  8
0
  5
47A2
 10
118.840
 20
96.6666
 30
0.000000
  70
    32
  0
VERTEX
  8
0
  5
47A3
 10
118.833
 20
96.6514
 30
0.000000
  70
    32
  0
VERTEX
  8
0
  5
47A4
 10
118.826
 20
96.6363
 30
0.000000
  70
    32
  0
VERTEX
  8
0
  5
47A5
 10
118.819
 20
96.6213
 30
0.000000
  70
    32
  0
VERTEX
  8
0
  5
47A6
 10
118.812
 20
96.6065
 30
0.000000
  70
    32
  0
VERTEX
  8
0
  5
47A7
 10
118.804
 20
96.5917
 30
0.000000
  70
    32
  0
VERTEX
  8
0
  5
47A8
 10
118.797
 20
96.5772
 30
0.000000
  70
    32
  0
VERTEX
  8
0
  5
47A9
 10
118.789
 20
96.5627
 30
0.000000
  70
    32
  0
VERTEX
  8
0
  5
47AA
 10
118.781
 20
96.5484
 30
0.000000
  70
    32
  0
VERTEX
  8
0
  5
47AB
 10
118.774
 20
96.5343
 30
0.000000
  70
    32
  0
VERTEX
  8
0
  5
47AC
 10
118.766
 20
96.5202
 30
0.000000
  70
    32
  0
VERTEX
  8
0
  5
47AD
 10
118.758
 20
96.5064
 30
0.000000
  70
    32
  0
VERTEX
  8
0
  5
47AE
 10
118.749
 20
96.4927
 30
0.000000
  70
    32
  0
VERTEX
  8
0
  5
47AF
 10
118.741
 20
96.4791
 30
0.000000
  70
    32
  0
VERTEX
  8
0
  5
47B0
 10
118.733
 20
96.4657
 30
0.000000
  70
    32
  0
VERTEX
  8
0
  5
47B1
 10
118.724
 20
96.4524
 30
0.000000
  70
    32
  0
VERTEX
  8
0
  5
47B2
 10
118.716
 20
96.4393
 30
0.000000
  70
    32
  0
VERTEX
  8
0
  5
47B3
 10
118.707
 20
96.4264
 30
0.000000
  70
    32
  0
VERTEX
  8
0
  5
47B4
 10
118.698
 20
96.4136
 30
0.000000
  70
    32
  0
VERTEX
  8
0
  5
47B5
 10
118.689
 20
96.4010
 30
0.000000
  70
    32
  0
VERTEX
  8
0
  5
47B6
 10
118.680
 20
96.3886
 30
0.000000
  70
    32
  0
VERTEX
  8
0
  5
47B7
 10
118.671
 20
96.3763
 30
0.000000
  70
    32
  0
VERTEX
  8
0
  5
47B8
 10
118.662
 20
96.3642
 30
0.000000
  70
    32
  0
VERTEX
  8
0
  5
47B9
 10
118.652
 20
96.3522
 30
0.000000
  70
    32
  0
VERTEX
  8
0
  5
47BA
 10
118.643
 20
96.3405
 30
0.000000
  70
    32
  0
VERTEX
  8
0
  5
47BB
 10
118.633
 20
96.3289
 30
0.000000
  70
    32
  0
VERTEX
  8
0
  5
47BC
 10
118.624
 20
96.3175
 30
0.000000
  70
    32
  0
VERTEX
  8
0
  5
47BD
 10
118.614
 20
96.3062
 30
0.000000
  70
    32
  0
VERTEX
  8
0
  5
47BE
 10
118.604
 20
96.2952
 30
0.000000
  70
    32
  0
VERTEX
  8
0
  5
47BF
 10
118.594
 20
96.2843
 30
0.000000
  70
    32
  0
VERTEX
  8
0
  5
47C0
 10
118.584
 20
96.2736
 30
0.000000
  70
    32
  0
VERTEX
  8
0
  5
47C1
 10
118.574
 20
96.2631
 30
0.000000
  70
    32
  0
VERTEX
  8
0
  5
47C2
 10
118.564
 20
96.2528
 30
0.000000
  70
    32
  0
VERTEX
  8
0
  5
47C3
 10
118.554
 20
96.2427
 30
0.000000
  70
    32
  0
VERTEX
  8
0
  5
47C4
 10
118.543
 20
96.2327
 30
0.000000
  70
    32
  0
VERTEX
  8
0
  5
47C5
 10
118.533
 20
96.2230
 30
0.000000
  70
    32
  0
VERTEX
  8
0
  5
47C6
 10
118.523
 20
96.2134
 30
0.000000
  70
    32
  0
VERTEX
  8
0
  5
47C7
 10
118.512
 20
96.2040
 30
0.000000
  70
    32
  0
VERTEX
  8
0
  5
47C8
 10
118.501
 20
96.1949
 30
0.000000
  70
    32
  0
VERTEX
  8
0
  5
47C9
 10
118.491
 20
96.1859
 30
0.000000
  70
    32
  0
VERTEX
  8
0
  5
47CA
 10
118.480
 20
96.1771
 30
0.000000
  70
    32
  0
VERTEX
  8
0
  5
47CB
 10
118.469
 20
96.1685
 30
0.000000
  70
    32
  0
VERTEX
  8
0
  5
47CC
 10
118.458
 20
96.1602
 30
0.000000
  70
    32
  0
VERTEX
  8
0
  5
47CD
 10
118.447
 20
96.1520
 30
0.000000
  70
    32
  0
VERTEX
  8
0
  5
47CE
 10
118.436
 20
96.1440
 30
0.000000
  70
    32
  0
VERTEX
  8
0
  5
47CF
 10
118.425
 20
96.1362
 30
0.000000
  70
    32
  0
VERTEX
  8
0
  5
47D0
 10
118.414
 20
96.1287
 30
0.000000
  70
    32
  0
VERTEX
  8
0
  5
47D1
 10
118.402
 20
96.1213
 30
0.000000
  70
    32
  0
VERTEX
  8
0
  5
47D2
 10
118.391
 20
96.1142
 30
0.000000
  70
    32
  0
VERTEX
  8
0
  5
47D3
 10
118.380
 20
96.1072
 30
0.000000
  70
    32
  0
VERTEX
  8
0
  5
47D4
 10
118.368
 20
96.1005
 30
0.000000
  70
    32
  0
VERTEX
  8
0
  5
47D5
 10
118.357
 20
96.0940
 30
0.000000
  70
    32
  0
VERTEX
  8
0
  5
47D6
 10
118.345
 20
96.0877
 30
0.000000
  70
    32
  0
VERTEX
  8
0
  5
47D7
 10
118.334
 20
96.0816
 30
0.000000
  70
    32
  0
VERTEX
  8
0
  5
47D8
 10
118.322
 20
96.0757
 30
0.000000
  70
    32
  0
VERTEX
  8
0
  5
47D9
 10
118.310
 20
96.0700
 30
0.000000
  70
    32
  0
VERTEX
  8
0
  5
47DA
 10
118.299
 20
96.0646
 30
0.000000
  70
    32
  0
VERTEX
  8
0
  5
47DB
 10
118.287
 20
96.0594
 30
0.000000
  70
    32
  0
VERTEX
  8
0
  5
47DC
 10
118.275
 20
96.0543
 30
0.000000
  70
    32
  0
VERTEX
  8
0
  5
47DD
 10
118.263
 20
96.0495
 30
0.000000
  70
    32
  0
VERTEX
  8
0
  5
47DE
 10
118.251
 20
96.0450
 30
0.000000
  70
    32
  0
VERTEX
  8
0
  5
47DF
 10
118.240
 20
96.0406
 30
0.000000
  70
    32
  0
VERTEX
  8
0
  5
47E0
 10
118.228
 20
96.0364
 30
0.000000
  70
    32
  0
VERTEX
  8
0
  5
47E1
 10
118.216
 20
96.0325
 30
0.000000
  70
    32
  0
VERTEX
  8
0
  5
47E2
 10
118.204
 20
96.0288
 30
0.000000
  70
    32
  0
VERTEX
  8
0
  5
47E3
 10
118.191
 20
96.0253
 30
0.000000
  70
    32
  0
VERTEX
  8
0
  5
47E4
 10
118.179
 20
96.0221
 30
0.000000
  70
    32
  0
VERTEX
  8
0
  5
47E5
 10
118.167
 20
96.0190
 30
0.000000
  70
    32
  0
VERTEX
  8
0
  5
47E6
 10
118.155
 20
96.0162
 30
0.000000
  70
    32
  0
VERTEX
  8
0
  5
47E7
 10
118.143
 20
96.0136
 30
0.000000
  70
    32
  0
VERTEX
  8
0
  5
47E8
 10
118.131
 20
96.0113
 30
0.000000
  70
    32
  0
VERTEX
  8
0
  5
47E9
 10
118.119
 20
96.0091
 30
0.000000
  70
    32
  0
VERTEX
  8
0
  5
47EA
 10
118.106
 20
96.0072
 30
0.000000
  70
    32
  0
VERTEX
  8
0
  5
47EB
 10
118.094
 20
96.0055
 30
0.000000
  70
    32
  0
VERTEX
  8
0
  5
47EC
 10
118.082
 20
96.0041
 30
0.000000
  70
    32
  0
VERTEX
  8
0
  5
47ED
 10
118.070
 20
96.0028
 30
0.000000
  70
    32
  0
VERTEX
  8
0
  5
47EE
 10
118.058
 20
96.0018
 30
0.000000
  70
    32
  0
VERTEX
  8
0
  5
47EF
 10
118.045
 20
96.0010
 30
0.000000
  70
    32
  0
VERTEX
  8
0
  5
47F0
 10
118.033
 20
96.0005
 30
0.000000
  70
    32
  0
VERTEX
  8
0
  5
47F1
 10
118.021
 20
96.0001
 30
0.000000
  70
    32
  0
VERTEX
  8
0
  5
47F2
 10
118.008
 20
96.0000
 30
0.000000
  70
    32
  0
SEQEND
  8
0
  5
47F3
  0
LINE
  5
445A
  8
0
 10
117.3436757422283
 20
103.9915033651334
 30
0.0
 11
117.3436757422284
 21
100.50000000000141
 31
0.0
  0
ARC
  5
445B
  8
0
 10
115.8436757422282
 20
103.9915033651334
 30
0.0
 40
1.5
 50
0.0
 51
90.0
  0
ARC
  5
445C
  8
0
 10
115.8436757422283
 20
100.50000000000141
 30
0.0
 40
1.5
 50
270.0
 51
0.0
  0
LINE
  5
445D
  8
0
 10
109.5563242577722
 20
105.4915033651334
 30
0.0
 11
115.8436757422282
 21
105.4915033651334
 31
0.0
  0
LINE
  5
445E
  8
0
 10
109.5563242577721
 20
99.000000000001407
 30
0.0
 11
115.8436757422283
 21
99.000000000001407
 31
0.0
  0
LINE
  5
445F
  8
0
 10
107.3915573398406
 20
96.000000000001393
 30
0.0
 11
118.0084426601599
 21
96.000000000001393
 31
0.0
  0
ARC
  5
4460
  8
0
 10
118.40000000000011
 20
107.00000000000129
 30
0.0
 40
1.5
 50
0.0
 51
90.0
  0
ARC
  5
4461
  8
0
 10
109.5563242577721
 20
100.50000000000141
 30
0.0
 40
1.5
 50
180.0
 51
270.0
  0
ARC
  5
4462
  8
0
 10
109.5563242577722
 20
103.9915033651334
 30
0.0
 40
1.5
 50
90.0
 51
180.0
  0
LINE
  5
4463
  8
0
 10
108.0563242577721
 20
103.9915033651334
 30
0.0
 11
108.056324257772
 21
100.50000000000141
 31
0.0
  0
POLYLINE
  5
4464
  8
0
 10
106.3915573398406
 20
97.500000000001435
 30
0.0
 66
     1
 70
     8
  0
VERTEX
  8
0
  5
47F4
 10
106.392
 20
97.5000
 30
0.000000
  70
    32
  0
VERTEX
  8
0
  5
47F5
 10
106.392
 20
97.4816
 30
0.000000
  70
    32
  0
VERTEX
  8
0
  5
47F6
 10
106.392
 20
97.4632
 30
0.000000
  70
    32
  0
VERTEX
  8
0
  5
47F7
 10
106.392
 20
97.4448
 30
0.000000
  70
    32
  0
VERTEX
  8
0
  5
47F8
 10
106.393
 20
97.4264
 30
0.000000
  70
    32
  0
VERTEX
  8
0
  5
47F9
 10
106.393
 20
97.4080
 30
0.000000
  70
    32
  0
VERTEX
  8
0
  5
47FA
 10
106.394
 20
97.3897
 30
0.000000
  70
    32
  0
VERTEX
  8
0
  5
47FB
 10
106.395
 20
97.3713
 30
0.000000
  70
    32
  0
VERTEX
  8
0
  5
47FC
 10
106.396
 20
97.3530
 30
0.000000
  70
    32
  0
VERTEX
  8
0
  5
47FD
 10
106.398
 20
97.3347
 30
0.000000
  70
    32
  0
VERTEX
  8
0
  5
47FE
 10
106.399
 20
97.3164
 30
0.000000
  70
    32
  0
VERTEX
  8
0
  5
47FF
 10
106.401
 20
97.2981
 30
0.000000
  70
    32
  0
VERTEX
  8
0
  5
4800
 10
106.402
 20
97.2799
 30
0.000000
  70
    32
  0
VERTEX
  8
0
  5
4801
 10
106.404
 20
97.2617
 30
0.000000
  70
    32
  0
VERTEX
  8
0
  5
4802
 10
106.406
 20
97.2436
 30
0.000000
  70
    32
  0
VERTEX
  8
0
  5
4803
 10
106.408
 20
97.2254
 30
0.000000
  70
    32
  0
VERTEX
  8
0
  5
4804
 10
106.411
 20
97.2074
 30
0.000000
  70
    32
  0
VERTEX
  8
0
  5
4805
 10
106.413
 20
97.1893
 30
0.000000
  70
    32
  0
VERTEX
  8
0
  5
4806
 10
106.416
 20
97.1713
 30
0.000000
  70
    32
  0
VERTEX
  8
0
  5
4807
 10
106.419
 20
97.1534
 30
0.000000
  70
    32
  0
VERTEX
  8
0
  5
4808
 10
106.422
 20
97.1355
 30
0.000000
  70
    32
  0
VERTEX
  8
0
  5
4809
 10
106.425
 20
97.1177
 30
0.000000
  70
    32
  0
VERTEX
  8
0
  5
480A
 10
106.428
 20
97.0999
 30
0.000000
  70
    32
  0
VERTEX
  8
0
  5
480B
 10
106.431
 20
97.0822
 30
0.000000
  70
    32
  0
VERTEX
  8
0
  5
480C
 10
106.435
 20
97.0646
 30
0.000000
  70
    32
  0
VERTEX
  8
0
  5
480D
 10
106.438
 20
97.0470
 30
0.000000
  70
    32
  0
VERTEX
  8
0
  5
480E
 10
106.442
 20
97.0295
 30
0.000000
  70
    32
  0
VERTEX
  8
0
  5
480F
 10
106.446
 20
97.0120
 30
0.000000
  70
    32
  0
VERTEX
  8
0
  5
4810
 10
106.450
 20
96.9947
 30
0.000000
  70
    32
  0
VERTEX
  8
0
  5
4811
 10
106.454
 20
96.9774
 30
0.000000
  70
    32
  0
VERTEX
  8
0
  5
4812
 10
106.459
 20
96.9602
 30
0.000000
  70
    32
  0
VERTEX
  8
0
  5
4813
 10
106.463
 20
96.9430
 30
0.000000
  70
    32
  0
VERTEX
  8
0
  5
4814
 10
106.468
 20
96.9260
 30
0.000000
  70
    32
  0
VERTEX
  8
0
  5
4815
 10
106.472
 20
96.9090
 30
0.000000
  70
    32
  0
VERTEX
  8
0
  5
4816
 10
106.477
 20
96.8921
 30
0.000000
  70
    32
  0
VERTEX
  8
0
  5
4817
 10
106.482
 20
96.8754
 30
0.000000
  70
    32
  0
VERTEX
  8
0
  5
4818
 10
106.488
 20
96.8587
 30
0.000000
  70
    32
  0
VERTEX
  8
0
  5
4819
 10
106.493
 20
96.8421
 30
0.000000
  70
    32
  0
VERTEX
  8
0
  5
481A
 10
106.498
 20
96.8256
 30
0.000000
  70
    32
  0
VERTEX
  8
0
  5
481B
 10
106.504
 20
96.8092
 30
0.000000
  70
    32
  0
VERTEX
  8
0
  5
481C
 10
106.510
 20
96.7929
 30
0.000000
  70
    32
  0
VERTEX
  8
0
  5
481D
 10
106.515
 20
96.7767
 30
0.000000
  70
    32
  0
VERTEX
  8
0
  5
481E
 10
106.521
 20
96.7607
 30
0.000000
  70
    32
  0
VERTEX
  8
0
  5
481F
 10
106.528
 20
96.7447
 30
0.000000
  70
    32
  0
VERTEX
  8
0
  5
4820
 10
106.534
 20
96.7288
 30
0.000000
  70
    32
  0
VERTEX
  8
0
  5
4821
 10
106.540
 20
96.7131
 30
0.000000
  70
    32
  0
VERTEX
  8
0
  5
4822
 10
106.547
 20
96.6975
 30
0.000000
  70
    32
  0
VERTEX
  8
0
  5
4823
 10
106.553
 20
96.6820
 30
0.000000
  70
    32
  0
VERTEX
  8
0
  5
4824
 10
106.560
 20
96.6666
 30
0.000000
  70
    32
  0
VERTEX
  8
0
  5
4825
 10
106.567
 20
96.6514
 30
0.000000
  70
    32
  0
VERTEX
  8
0
  5
4826
 10
106.574
 20
96.6363
 30
0.000000
  70
    32
  0
VERTEX
  8
0
  5
4827
 10
106.581
 20
96.6213
 30
0.000000
  70
    32
  0
VERTEX
  8
0
  5
4828
 10
106.588
 20
96.6065
 30
0.000000
  70
    32
  0
VERTEX
  8
0
  5
4829
 10
106.596
 20
96.5917
 30
0.000000
  70
    32
  0
VERTEX
  8
0
  5
482A
 10
106.603
 20
96.5772
 30
0.000000
  70
    32
  0
VERTEX
  8
0
  5
482B
 10
106.611
 20
96.5627
 30
0.000000
  70
    32
  0
VERTEX
  8
0
  5
482C
 10
106.619
 20
96.5484
 30
0.000000
  70
    32
  0
VERTEX
  8
0
  5
482D
 10
106.626
 20
96.5343
 30
0.000000
  70
    32
  0
VERTEX
  8
0
  5
482E
 10
106.634
 20
96.5202
 30
0.000000
  70
    32
  0
VERTEX
  8
0
  5
482F
 10
106.642
 20
96.5064
 30
0.000000
  70
    32
  0
VERTEX
  8
0
  5
4830
 10
106.651
 20
96.4927
 30
0.000000
  70
    32
  0
VERTEX
  8
0
  5
4831
 10
106.659
 20
96.4791
 30
0.000000
  70
    32
  0
VERTEX
  8
0
  5
4832
 10
106.667
 20
96.4657
 30
0.000000
  70
    32
  0
VERTEX
  8
0
  5
4833
 10
106.676
 20
96.4524
 30
0.000000
  70
    32
  0
VERTEX
  8
0
  5
4834
 10
106.684
 20
96.4393
 30
0.000000
  70
    32
  0
VERTEX
  8
0
  5
4835
 10
106.693
 20
96.4264
 30
0.000000
  70
    32
  0
VERTEX
  8
0
  5
4836
 10
106.702
 20
96.4136
 30
0.000000
  70
    32
  0
VERTEX
  8
0
  5
4837
 10
106.711
 20
96.4010
 30
0.000000
  70
    32
  0
VERTEX
  8
0
  5
4838
 10
106.720
 20
96.3886
 30
0.000000
  70
    32
  0
VERTEX
  8
0
  5
4839
 10
106.729
 20
96.3763
 30
0.000000
  70
    32
  0
VERTEX
  8
0
  5
483A
 10
106.738
 20
96.3642
 30
0.000000
  70
    32
  0
VERTEX
  8
0
  5
483B
 10
106.748
 20
96.3522
 30
0.000000
  70
    32
  0
VERTEX
  8
0
  5
483C
 10
106.757
 20
96.3405
 30
0.000000
  70
    32
  0
VERTEX
  8
0
  5
483D
 10
106.767
 20
96.3289
 30
0.000000
  70
    32
  0
VERTEX
  8
0
  5
483E
 10
106.776
 20
96.3175
 30
0.000000
  70
    32
  0
VERTEX
  8
0
  5
483F
 10
106.786
 20
96.3062
 30
0.000000
  70
    32
  0
VERTEX
  8
0
  5
4840
 10
106.796
 20
96.2952
 30
0.000000
  70
    32
  0
VERTEX
  8
0
  5
4841
 10
106.806
 20
96.2843
 30
0.000000
  70
    32
  0
VERTEX
  8
0
  5
4842
 10
106.816
 20
96.2736
 30
0.000000
  70
    32
  0
VERTEX
  8
0
  5
4843
 10
106.826
 20
96.2631
 30
0.000000
  70
    32
  0
VERTEX
  8
0
  5
4844
 10
106.836
 20
96.2528
 30
0.000000
  70
    32
  0
VERTEX
  8
0
  5
4845
 10
106.846
 20
96.2427
 30
0.000000
  70
    32
  0
VERTEX
  8
0
  5
4846
 10
106.857
 20
96.2327
 30
0.000000
  70
    32
  0
VERTEX
  8
0
  5
4847
 10
106.867
 20
96.2230
 30
0.000000
  70
    32
  0
VERTEX
  8
0
  5
4848
 10
106.877
 20
96.2134
 30
0.000000
  70
    32
  0
VERTEX
  8
0
  5
4849
 10
106.888
 20
96.2040
 30
0.000000
  70
    32
  0
VERTEX
  8
0
  5
484A
 10
106.899
 20
96.1949
 30
0.000000
  70
    32
  0
VERTEX
  8
0
  5
484B
 10
106.909
 20
96.1859
 30
0.000000
  70
    32
  0
VERTEX
  8
0
  5
484C
 10
106.920
 20
96.1771
 30
0.000000
  70
    32
  0
VERTEX
  8
0
  5
484D
 10
106.931
 20
96.1685
 30
0.000000
  70
    32
  0
VERTEX
  8
0
  5
484E
 10
106.942
 20
96.1602
 30
0.000000
  70
    32
  0
VERTEX
  8
0
  5
484F
 10
106.953
 20
96.1520
 30
0.000000
  70
    32
  0
VERTEX
  8
0
  5
4850
 10
106.964
 20
96.1440
 30
0.000000
  70
    32
  0
VERTEX
  8
0
  5
4851
 10
106.975
 20
96.1362
 30
0.000000
  70
    32
  0
VERTEX
  8
0
  5
4852
 10
106.986
 20
96.1287
 30
0.000000
  70
    32
  0
VERTEX
  8
0
  5
4853
 10
106.998
 20
96.1213
 30
0.000000
  70
    32
  0
VERTEX
  8
0
  5
4854
 10
107.009
 20
96.1142
 30
0.000000
  70
    32
  0
VERTEX
  8
0
  5
4855
 10
107.020
 20
96.1072
 30
0.000000
  70
    32
  0
VERTEX
  8
0
  5
4856
 10
107.032
 20
96.1005
 30
0.000000
  70
    32
  0
VERTEX
  8
0
  5
4857
 10
107.043
 20
96.0940
 30
0.000000
  70
    32
  0
VERTEX
  8
0
  5
4858
 10
107.055
 20
96.0877
 30
0.000000
  70
    32
  0
VERTEX
  8
0
  5
4859
 10
107.066
 20
96.0816
 30
0.000000
  70
    32
  0
VERTEX
  8
0
  5
485A
 10
107.078
 20
96.0757
 30
0.000000
  70
    32
  0
VERTEX
  8
0
  5
485B
 10
107.090
 20
96.0700
 30
0.000000
  70
    32
  0
VERTEX
  8
0
  5
485C
 10
107.101
 20
96.0646
 30
0.000000
  70
    32
  0
VERTEX
  8
0
  5
485D
 10
107.113
 20
96.0594
 30
0.000000
  70
    32
  0
VERTEX
  8
0
  5
485E
 10
107.125
 20
96.0543
 30
0.000000
  70
    32
  0
VERTEX
  8
0
  5
485F
 10
107.137
 20
96.0495
 30
0.000000
  70
    32
  0
VERTEX
  8
0
  5
4860
 10
107.149
 20
96.0450
 30
0.000000
  70
    32
  0
VERTEX
  8
0
  5
4861
 10
107.160
 20
96.0406
 30
0.000000
  70
    32
  0
VERTEX
  8
0
  5
4862
 10
107.172
 20
96.0364
 30
0.000000
  70
    32
  0
VERTEX
  8
0
  5
4863
 10
107.184
 20
96.0325
 30
0.000000
  70
    32
  0
VERTEX
  8
0
  5
4864
 10
107.196
 20
96.0288
 30
0.000000
  70
    32
  0
VERTEX
  8
0
  5
4865
 10
107.209
 20
96.0253
 30
0.000000
  70
    32
  0
VERTEX
  8
0
  5
4866
 10
107.221
 20
96.0221
 30
0.000000
  70
    32
  0
VERTEX
  8
0
  5
4867
 10
107.233
 20
96.0190
 30
0.000000
  70
    32
  0
VERTEX
  8
0
  5
4868
 10
107.245
 20
96.0162
 30
0.000000
  70
    32
  0
VERTEX
  8
0
  5
4869
 10
107.257
 20
96.0136
 30
0.000000
  70
    32
  0
VERTEX
  8
0
  5
486A
 10
107.269
 20
96.0113
 30
0.000000
  70
    32
  0
VERTEX
  8
0
  5
486B
 10
107.281
 20
96.0091
 30
0.000000
  70
    32
  0
VERTEX
  8
0
  5
486C
 10
107.294
 20
96.0072
 30
0.000000
  70
    32
  0
VERTEX
  8
0
  5
486D
 10
107.306
 20
96.0055
 30
0.000000
  70
    32
  0
VERTEX
  8
0
  5
486E
 10
107.318
 20
96.0041
 30
0.000000
  70
    32
  0
VERTEX
  8
0
  5
486F
 10
107.330
 20
96.0028
 30
0.000000
  70
    32
  0
VERTEX
  8
0
  5
4870
 10
107.342
 20
96.0018
 30
0.000000
  70
    32
  0
VERTEX
  8
0
  5
4871
 10
107.355
 20
96.0010
 30
0.000000
  70
    32
  0
VERTEX
  8
0
  5
4872
 10
107.367
 20
96.0005
 30
0.000000
  70
    32
  0
VERTEX
  8
0
  5
4873
 10
107.379
 20
96.0001
 30
0.000000
  70
    32
  0
VERTEX
  8
0
  5
4874
 10
107.392
 20
96.0000
 30
0.000000
  70
    32
  0
SEQEND
  8
0
  5
4875
  0
POLYLINE
  5
4465
  8
0
 10
106.3915573398406
 20
107.00000000000125
 30
0.0
 66
     1
 70
     8
  0
VERTEX
  8
0
  5
4876
 10
106.392
 20
107.000
 30
0.000000
  70
    32
  0
VERTEX
  8
0
  5
4877
 10
106.392
 20
107.018
 30
0.000000
  70
    32
  0
VERTEX
  8
0
  5
4878
 10
106.392
 20
107.037
 30
0.000000
  70
    32
  0
VERTEX
  8
0
  5
4879
 10
106.392
 20
107.055
 30
0.000000
  70
    32
  0
VERTEX
  8
0
  5
487A
 10
106.393
 20
107.074
 30
0.000000
  70
    32
  0
VERTEX
  8
0
  5
487B
 10
106.393
 20
107.092
 30
0.000000
  70
    32
  0
VERTEX
  8
0
  5
487C
 10
106.394
 20
107.110
 30
0.000000
  70
    32
  0
VERTEX
  8
0
  5
487D
 10
106.395
 20
107.129
 30
0.000000
  70
    32
  0
VERTEX
  8
0
  5
487E
 10
106.396
 20
107.147
 30
0.000000
  70
    32
  0
VERTEX
  8
0
  5
487F
 10
106.398
 20
107.165
 30
0.000000
  70
    32
  0
VERTEX
  8
0
  5
4880
 10
106.399
 20
107.184
 30
0.000000
  70
    32
  0
VERTEX
  8
0
  5
4881
 10
106.401
 20
107.202
 30
0.000000
  70
    32
  0
VERTEX
  8
0
  5
4882
 10
106.402
 20
107.220
 30
0.000000
  70
    32
  0
VERTEX
  8
0
  5
4883
 10
106.404
 20
107.238
 30
0.000000
  70
    32
  0
VERTEX
  8
0
  5
4884
 10
106.406
 20
107.256
 30
0.000000
  70
    32
  0
VERTEX
  8
0
  5
4885
 10
106.408
 20
107.275
 30
0.000000
  70
    32
  0
VERTEX
  8
0
  5
4886
 10
106.411
 20
107.293
 30
0.000000
  70
    32
  0
VERTEX
  8
0
  5
4887
 10
106.413
 20
107.311
 30
0.000000
  70
    32
  0
VERTEX
  8
0
  5
4888
 10
106.416
 20
107.329
 30
0.000000
  70
    32
  0
VERTEX
  8
0
  5
4889
 10
106.419
 20
107.347
 30
0.000000
  70
    32
  0
VERTEX
  8
0
  5
488A
 10
106.422
 20
107.364
 30
0.000000
  70
    32
  0
VERTEX
  8
0
  5
488B
 10
106.425
 20
107.382
 30
0.000000
  70
    32
  0
VERTEX
  8
0
  5
488C
 10
106.428
 20
107.400
 30
0.000000
  70
    32
  0
VERTEX
  8
0
  5
488D
 10
106.431
 20
107.418
 30
0.000000
  70
    32
  0
VERTEX
  8
0
  5
488E
 10
106.435
 20
107.435
 30
0.000000
  70
    32
  0
VERTEX
  8
0
  5
488F
 10
106.438
 20
107.453
 30
0.000000
  70
    32
  0
VERTEX
  8
0
  5
4890
 10
106.442
 20
107.471
 30
0.000000
  70
    32
  0
VERTEX
  8
0
  5
4891
 10
106.446
 20
107.488
 30
0.000000
  70
    32
  0
VERTEX
  8
0
  5
4892
 10
106.450
 20
107.505
 30
0.000000
  70
    32
  0
VERTEX
  8
0
  5
4893
 10
106.454
 20
107.523
 30
0.000000
  70
    32
  0
VERTEX
  8
0
  5
4894
 10
106.459
 20
107.540
 30
0.000000
  70
    32
  0
VERTEX
  8
0
  5
4895
 10
106.463
 20
107.557
 30
0.000000
  70
    32
  0
VERTEX
  8
0
  5
4896
 10
106.468
 20
107.574
 30
0.000000
  70
    32
  0
VERTEX
  8
0
  5
4897
 10
106.472
 20
107.591
 30
0.000000
  70
    32
  0
VERTEX
  8
0
  5
4898
 10
106.477
 20
107.608
 30
0.000000
  70
    32
  0
VERTEX
  8
0
  5
4899
 10
106.482
 20
107.625
 30
0.000000
  70
    32
  0
VERTEX
  8
0
  5
489A
 10
106.488
 20
107.641
 30
0.000000
  70
    32
  0
VERTEX
  8
0
  5
489B
 10
106.493
 20
107.658
 30
0.000000
  70
    32
  0
VERTEX
  8
0
  5
489C
 10
106.498
 20
107.674
 30
0.000000
  70
    32
  0
VERTEX
  8
0
  5
489D
 10
106.504
 20
107.691
 30
0.000000
  70
    32
  0
VERTEX
  8
0
  5
489E
 10
106.510
 20
107.707
 30
0.000000
  70
    32
  0
VERTEX
  8
0
  5
489F
 10
106.515
 20
107.723
 30
0.000000
  70
    32
  0
VERTEX
  8
0
  5
48A0
 10
106.521
 20
107.739
 30
0.000000
  70
    32
  0
VERTEX
  8
0
  5
48A1
 10
106.528
 20
107.755
 30
0.000000
  70
    32
  0
VERTEX
  8
0
  5
48A2
 10
106.534
 20
107.771
 30
0.000000
  70
    32
  0
VERTEX
  8
0
  5
48A3
 10
106.540
 20
107.787
 30
0.000000
  70
    32
  0
VERTEX
  8
0
  5
48A4
 10
106.547
 20
107.802
 30
0.000000
  70
    32
  0
VERTEX
  8
0
  5
48A5
 10
106.553
 20
107.818
 30
0.000000
  70
    32
  0
VERTEX
  8
0
  5
48A6
 10
106.560
 20
107.833
 30
0.000000
  70
    32
  0
VERTEX
  8
0
  5
48A7
 10
106.567
 20
107.849
 30
0.000000
  70
    32
  0
VERTEX
  8
0
  5
48A8
 10
106.574
 20
107.864
 30
0.000000
  70
    32
  0
VERTEX
  8
0
  5
48A9
 10
106.581
 20
107.879
 30
0.000000
  70
    32
  0
VERTEX
  8
0
  5
48AA
 10
106.588
 20
107.894
 30
0.000000
  70
    32
  0
VERTEX
  8
0
  5
48AB
 10
106.596
 20
107.908
 30
0.000000
  70
    32
  0
VERTEX
  8
0
  5
48AC
 10
106.603
 20
107.923
 30
0.000000
  70
    32
  0
VERTEX
  8
0
  5
48AD
 10
106.611
 20
107.937
 30
0.000000
  70
    32
  0
VERTEX
  8
0
  5
48AE
 10
106.619
 20
107.952
 30
0.000000
  70
    32
  0
VERTEX
  8
0
  5
48AF
 10
106.626
 20
107.966
 30
0.000000
  70
    32
  0
VERTEX
  8
0
  5
48B0
 10
106.634
 20
107.980
 30
0.000000
  70
    32
  0
VERTEX
  8
0
  5
48B1
 10
106.642
 20
107.994
 30
0.000000
  70
    32
  0
VERTEX
  8
0
  5
48B2
 10
106.651
 20
108.007
 30
0.000000
  70
    32
  0
VERTEX
  8
0
  5
48B3
 10
106.659
 20
108.021
 30
0.000000
  70
    32
  0
VERTEX
  8
0
  5
48B4
 10
106.667
 20
108.034
 30
0.000000
  70
    32
  0
VERTEX
  8
0
  5
48B5
 10
106.676
 20
108.048
 30
0.000000
  70
    32
  0
VERTEX
  8
0
  5
48B6
 10
106.684
 20
108.061
 30
0.000000
  70
    32
  0
VERTEX
  8
0
  5
48B7
 10
106.693
 20
108.074
 30
0.000000
  70
    32
  0
VERTEX
  8
0
  5
48B8
 10
106.702
 20
108.086
 30
0.000000
  70
    32
  0
VERTEX
  8
0
  5
48B9
 10
106.711
 20
108.099
 30
0.000000
  70
    32
  0
VERTEX
  8
0
  5
48BA
 10
106.720
 20
108.111
 30
0.000000
  70
    32
  0
VERTEX
  8
0
  5
48BB
 10
106.729
 20
108.124
 30
0.000000
  70
    32
  0
VERTEX
  8
0
  5
48BC
 10
106.738
 20
108.136
 30
0.000000
  70
    32
  0
VERTEX
  8
0
  5
48BD
 10
106.748
 20
108.148
 30
0.000000
  70
    32
  0
VERTEX
  8
0
  5
48BE
 10
106.757
 20
108.160
 30
0.000000
  70
    32
  0
VERTEX
  8
0
  5
48BF
 10
106.767
 20
108.171
 30
0.000000
  70
    32
  0
VERTEX
  8
0
  5
48C0
 10
106.776
 20
108.183
 30
0.000000
  70
    32
  0
VERTEX
  8
0
  5
48C1
 10
106.786
 20
108.194
 30
0.000000
  70
    32
  0
VERTEX
  8
0
  5
48C2
 10
106.796
 20
108.205
 30
0.000000
  70
    32
  0
VERTEX
  8
0
  5
48C3
 10
106.806
 20
108.216
 30
0.000000
  70
    32
  0
VERTEX
  8
0
  5
48C4
 10
106.816
 20
108.226
 30
0.000000
  70
    32
  0
VERTEX
  8
0
  5
48C5
 10
106.826
 20
108.237
 30
0.000000
  70
    32
  0
VERTEX
  8
0
  5
48C6
 10
106.836
 20
108.247
 30
0.000000
  70
    32
  0
VERTEX
  8
0
  5
48C7
 10
106.846
 20
108.257
 30
0.000000
  70
    32
  0
VERTEX
  8
0
  5
48C8
 10
106.857
 20
108.267
 30
0.000000
  70
    32
  0
VERTEX
  8
0
  5
48C9
 10
106.867
 20
108.277
 30
0.000000
  70
    32
  0
VERTEX
  8
0
  5
48CA
 10
106.877
 20
108.287
 30
0.000000
  70
    32
  0
VERTEX
  8
0
  5
48CB
 10
106.888
 20
108.296
 30
0.000000
  70
    32
  0
VERTEX
  8
0
  5
48CC
 10
106.899
 20
108.305
 30
0.000000
  70
    32
  0
VERTEX
  8
0
  5
48CD
 10
106.909
 20
108.314
 30
0.000000
  70
    32
  0
VERTEX
  8
0
  5
48CE
 10
106.920
 20
108.323
 30
0.000000
  70
    32
  0
VERTEX
  8
0
  5
48CF
 10
106.931
 20
108.331
 30
0.000000
  70
    32
  0
VERTEX
  8
0
  5
48D0
 10
106.942
 20
108.340
 30
0.000000
  70
    32
  0
VERTEX
  8
0
  5
48D1
 10
106.953
 20
108.348
 30
0.000000
  70
    32
  0
VERTEX
  8
0
  5
48D2
 10
106.964
 20
108.356
 30
0.000000
  70
    32
  0
VERTEX
  8
0
  5
48D3
 10
106.975
 20
108.364
 30
0.000000
  70
    32
  0
VERTEX
  8
0
  5
48D4
 10
106.986
 20
108.371
 30
0.000000
  70
    32
  0
VERTEX
  8
0
  5
48D5
 10
106.998
 20
108.379
 30
0.000000
  70
    32
  0
VERTEX
  8
0
  5
48D6
 10
107.009
 20
108.386
 30
0.000000
  70
    32
  0
VERTEX
  8
0
  5
48D7
 10
107.020
 20
108.393
 30
0.000000
  70
    32
  0
VERTEX
  8
0
  5
48D8
 10
107.032
 20
108.399
 30
0.000000
  70
    32
  0
VERTEX
  8
0
  5
48D9
 10
107.043
 20
108.406
 30
0.000000
  70
    32
  0
VERTEX
  8
0
  5
48DA
 10
107.055
 20
108.412
 30
0.000000
  70
    32
  0
VERTEX
  8
0
  5
48DB
 10
107.066
 20
108.418
 30
0.000000
  70
    32
  0
VERTEX
  8
0
  5
48DC
 10
107.078
 20
108.424
 30
0.000000
  70
    32
  0
VERTEX
  8
0
  5
48DD
 10
107.090
 20
108.430
 30
0.000000
  70
    32
  0
VERTEX
  8
0
  5
48DE
 10
107.101
 20
108.435
 30
0.000000
  70
    32
  0
VERTEX
  8
0
  5
48DF
 10
107.113
 20
108.441
 30
0.000000
  70
    32
  0
VERTEX
  8
0
  5
48E0
 10
107.125
 20
108.446
 30
0.000000
  70
    32
  0
VERTEX
  8
0
  5
48E1
 10
107.137
 20
108.450
 30
0.000000
  70
    32
  0
VERTEX
  8
0
  5
48E2
 10
107.149
 20
108.455
 30
0.000000
  70
    32
  0
VERTEX
  8
0
  5
48E3
 10
107.160
 20
108.459
 30
0.000000
  70
    32
  0
VERTEX
  8
0
  5
48E4
 10
107.172
 20
108.464
 30
0.000000
  70
    32
  0
VERTEX
  8
0
  5
48E5
 10
107.184
 20
108.467
 30
0.000000
  70
    32
  0
VERTEX
  8
0
  5
48E6
 10
107.196
 20
108.471
 30
0.000000
  70
    32
  0
VERTEX
  8
0
  5
48E7
 10
107.209
 20
108.475
 30
0.000000
  70
    32
  0
VERTEX
  8
0
  5
48E8
 10
107.221
 20
108.478
 30
0.000000
  70
    32
  0
VERTEX
  8
0
  5
48E9
 10
107.233
 20
108.481
 30
0.000000
  70
    32
  0
VERTEX
  8
0
  5
48EA
 10
107.245
 20
108.484
 30
0.000000
  70
    32
  0
VERTEX
  8
0
  5
48EB
 10
107.257
 20
108.486
 30
0.000000
  70
    32
  0
VERTEX
  8
0
  5
48EC
 10
107.269
 20
108.489
 30
0.000000
  70
    32
  0
VERTEX
  8
0
  5
48ED
 10
107.281
 20
108.491
 30
0.000000
  70
    32
  0
VERTEX
  8
0
  5
48EE
 10
107.294
 20
108.493
 30
0.000000
  70
    32
  0
VERTEX
  8
0
  5
48EF
 10
107.306
 20
108.494
 30
0.000000
  70
    32
  0
VERTEX
  8
0
  5
48F0
 10
107.318
 20
108.496
 30
0.000000
  70
    32
  0
VERTEX
  8
0
  5
48F1
 10
107.330
 20
108.497
 30
0.000000
  70
    32
  0
VERTEX
  8
0
  5
48F2
 10
107.342
 20
108.498
 30
0.000000
  70
    32
  0
VERTEX
  8
0
  5
48F3
 10
107.355
 20
108.499
 30
0.000000
  70
    32
  0
VERTEX
  8
0
  5
48F4
 10
107.367
 20
108.500
 30
0.000000
  70
    32
  0
VERTEX
  8
0
  5
48F5
 10
107.379
 20
108.500
 30
0.000000
  70
    32
  0
VERTEX
  8
0
  5
48F6
 10
107.392
 20
108.500
 30
0.000000
  70
    32
  0
SEQEND
  8
0
  5
48F7
  0
LINE
  5
4466
  8
0
 10
106.3915573398406
 20
107.00000000000141
 30
0.0
 11
106.3915573398406
 21
97.50000000000135
 31
0.0
  0
LINE
  5
4467
  8
0
 10
106.3915573398406
 20
107.00000000000129
 30
0.0
 11
108.0563242577722
 21
103.9915033651334
 31
0.0
  0
LINE
  5
4468
  8
0
 10
109.5563242577722
 20
105.4915033651334
 30
0.0
 11
107.3915573398406
 21
108.50000000000129
 31
0.0
  0
LINE
  5
4469
  8
0
 10
117.3436757422282
 20
103.9915033651334
 30
0.0
 11
119.0084426601598
 21
107.00000000000129
 31
0.0
  0
LINE
  5
446A
  8
0
 10
115.8436757422283
 20
99.000000000001407
 30
0.0
 11
118.0084426601599
 21
96.000000000001378
 31
0.0
  0
LINE
  5
446B
  8
0
 10
117.3436757422283
 20
100.50000000000141
 30
0.0
 11
119.0084426601598
 21
97.500000000001421
 31
0.0
  0
LINE
  5
446C
  8
0
 10
109.5563242577721
 20
99.000000000001407
 30
0.0
 11
107.3915573398406
 21
96.000000000001393
 31
0.0
  0
LINE
  5
446D
  8
0
 10
108.0563242577721
 20
100.50000000000141
 30
0.0
 11
106.3915573398406
 21
97.50000000000135
 31
0.0
  0
LINE
  5
446E
  8
0
 10
115.8436757422282
 20
105.4915033651334
 30
0.0
 11
118.0084426601598
 21
108.50000000000129
 31
0.0
  0
LINE
  5
446F
  8
0
 10
119.90000000000011
 20
107.00000000000129
 30
0.0
 11
119.90000000000011
 21
75.000000000001364
 31
0.0
  0
LINE
  5
4470
  8
0
 10
105.5000000000001
 20
107.00000000000129
 30
0.0
 11
105.5000000000001
 21
75.000000000001393
 31
0.0
  0
LINE
  5
4471
  8
0
 10
116.05
 20
112.00000000000141
 30
0.0
 11
109.35000000000009
 21
112.00000000000141
 31
0.0
  0
LINE
  5
4472
  8
0
 10
108.85000000000009
 20
111.50000000000141
 30
0.0
 11
108.85000000000009
 21
108.50000000000141
 31
0.0
  0
ARC
  5
4473
  8
0
 10
109.35000000000009
 20
111.50000000000141
 30
0.0
 40
0.5
 50
90.0
 51
180.0
  0
ARC
  5
4474
  8
0
 10
116.05
 20
111.50000000000141
 30
0.0
 40
0.5
 50
0.0
 51
90.0
  0
LINE
  5
4475
  8
0
 10
116.5500000000001
 20
111.50000000000141
 30
0.0
 11
116.5500000000001
 21
108.50000000000141
 31
0.0
  0
LINE
  5
4476
  8
0
 10
108.85000000000009
 20
111.50000000000141
 30
0.0
 11
116.5500000000001
 21
111.50000000000141
 31
0.0
  0
ARC
  5
459A
  8
0
 10
50.000000000000099
 20
149.20000000000141
 30
0.0
 40
7.2000000000000002
 50
60.809986394221191
 51
119.1900136057788
  0
ARC
  5
459B
  8
0
 10
45.756944703241473
 20
156.7951617328842
 30
0.0
 40
1.5
 50
274.17237981095991
 51
299.1900136057788
  0
ARC
  5
459C
  8
0
 10
54.243055296758747
 20
156.7951617328842
 30
0.0
 40
1.5
 50
240.80998639422111
 51
265.82762018903958
  0
ARC
  5
459D
  8
0
 10
54.243055296758797
 20
141.60483826711859
 30
0.0
 40
1.5
 50
94.172379810959796
 51
119.1900136057792
  0
ARC
  5
459E
  8
0
 10
45.756944703241317
 20
141.60483826711871
 30
0.0
 40
1.5
 50
60.809986394220253
 51
85.827620189040289
  0
ARC
  5
459F
  8
0
 10
50.000000000000099
 20
149.20000000000141
 30
0.0
 40
7.2000000000000002
 50
240.80998639422029
 51
299.19001360577909
  0
ARC
  5
45AA
  8
0
 10
40.772507395736653
 20
95.426258628360657
 30
0.0
 40
3.5738471196549662
 50
9.2381754310544135
 51
89.559235278937621
  0
LINE
  5
4601
  8
0
 10
26.00000000000006
 20
99.000000000001464
 30
0.0
 11
45.866080833225801
 21
99.000000000001506
 31
0.0
  0
ARC
  5
4602
  8
0
 10
40.11293785414977
 20
100.0945274540812
 30
0.0
 40
5.8563337068020713
 50
315.64017017600162
 51
349.22828554559402
  0
LINE
  5
4603
  8
0
 10
45.86608083322578
 20
107.31036146143821
 30
0.0
 11
45.866080833225787
 21
99.00000000000162
 31
0.0
  0
ARC
  5
4604
  8
0
 10
47.772260631925093
 20
107.0706855011755
 30
0.0
 40
1.921188692163537
 50
131.9289483646597
 51
172.8334505973277
  0
ENDSEC
  0
EOF
