  0
SECTION
  2
HEADER
  9
$ACADVER
  1
AC1009
  9
$INSBASE
 10
0.0
 20
0.0
 30
0.0
  9
$EXTMIN
 10
0.0
 20
-2.960436562073669
 30
0.0
  9
$EXTMAX
 10
119.59999999999999
 20
229.10000000000099
 30
0.0
  9
$LIMMIN
 10
0.0
 20
0.0
  9
$LIMMAX
 10
12.0
 20
9.0
  9
$ORTHOMODE
 70
     1
  9
$REGENMODE
 70
     1
  9
$FILLMODE
 70
     1
  9
$QTEXTMODE
 70
     0
  9
$MIRRTEXT
 70
     0
  9
$DRAGMODE
 70
     2
  9
$LTSCALE
 40
10.0
  9
$OSMODE
 70
    37
  9
$ATTMODE
 70
     1
  9
$TEXTSIZE
 40
0.2
  9
$TRACEWID
 40
0.05
  9
$TEXTSTYLE
  7
STANDARD
  9
$CLAYER
  8
0
  9
$CELTYPE
  6
BYLAYER
  9
$CECOLOR
 62
   256
  9
$DIMSCALE
 40
1.0
  9
$DIMASZ
 40
0.18
  9
$DIMEXO
 40
0.0625
  9
$DIMDLI
 40
0.38
  9
$DIMRND
 40
0.0
  9
$DIMDLE
 40
0.0
  9
$DIMEXE
 40
0.18
  9
$DIMTP
 40
0.0
  9
$DIMTM
 40
0.0
  9
$DIMTXT
 40
0.18
  9
$DIMCEN
 40
0.09
  9
$DIMTSZ
 40
0.0
  9
$DIMTOL
 70
     0
  9
$DIMLIM
 70
     0
  9
$DIMTIH
 70
     1
  9
$DIMTOH
 70
     1
  9
$DIMSE1
 70
     0
  9
$DIMSE2
 70
     0
  9
$DIMTAD
 70
     0
  9
$DIMZIN
 70
     0
  9
$DIMBLK
  1

  9
$DIMASO
 70
     1
  9
$DIMSHO
 70
     1
  9
$DIMPOST
  1

  9
$DIMAPOST
  1

  9
$DIMALT
 70
     0
  9
$DIMALTD
 70
     2
  9
$DIMALTF
 40
25.399999999999999
  9
$DIMLFAC
 40
1.0
  9
$DIMTOFL
 70
     0
  9
$DIMTVP
 40
0.0
  9
$DIMTIX
 70
     0
  9
$DIMSOXD
 70
     0
  9
$DIMSAH
 70
     0
  9
$DIMBLK1
  1

  9
$DIMBLK2
  1

  9
$DIMSTYLE
  2
STANDARD
  9
$DIMCLRD
 70
     0
  9
$DIMCLRE
 70
     0
  9
$DIMCLRT
 70
     0
  9
$DIMTFAC
 40
1.0
  9
$DIMGAP
 40
0.09
  9
$LUNITS
 70
     2
  9
$LUPREC
 70
     4
  9
$SKETCHINC
 40
0.1
  9
$FILLETRAD
 40
1.5
  9
$AUNITS
 70
     0
  9
$AUPREC
 70
     0
  9
$MENU
  1
.
  9
$ELEVATION
 40
0.0
  9
$PELEVATION
 40
0.0
  9
$THICKNESS
 40
0.0
  9
$LIMCHECK
 70
     0
  9
$BLIPMODE
 70
     0
  9
$CHAMFERA
 40
0.0
  9
$CHAMFERB
 40
0.0
  9
$SKPOLY
 70
     0
  9
$TDCREATE
 40
2453083.4120647679
  9
$TDUPDATE
 40
2457497.6472113542
  9
$TDINDWG
 40
0.4591130208
  9
$TDUSRTIMER
 40
0.4591129051
  9
$USRTIMER
 70
     1
  9
$ANGBASE
 50
0.0
  9
$ANGDIR
 70
     0
  9
$PDMODE
 70
     0
  9
$PDSIZE
 40
0.0
  9
$PLINEWID
 40
0.0
  9
$COORDS
 70
     1
  9
$SPLFRAME
 70
     0
  9
$SPLINETYPE
 70
     6
  9
$SPLINESEGS
 70
     8
  9
$ATTDIA
 70
     0
  9
$ATTREQ
 70
     1
  9
$HANDLING
 70
     1
  9
$HANDSEED
  5
3C17
  9
$SURFTAB1
 70
     6
  9
$SURFTAB2
 70
     6
  9
$SURFTYPE
 70
     6
  9
$SURFU
 70
     6
  9
$SURFV
 70
     6
  9
$UCSNAME
  2

  9
$UCSORG
 10
0.0
 20
0.0
 30
0.0
  9
$UCSXDIR
 10
1.0
 20
0.0
 30
0.0
  9
$UCSYDIR
 10
0.0
 20
1.0
 30
0.0
  9
$PUCSNAME
  2

  9
$PUCSORG
 10
0.0
 20
0.0
 30
0.0
  9
$PUCSXDIR
 10
1.0
 20
0.0
 30
0.0
  9
$PUCSYDIR
 10
0.0
 20
1.0
 30
0.0
  9
$USERI1
 70
     0
  9
$USERI2
 70
     1
  9
$USERI3
 70
     0
  9
$USERI4
 70
     0
  9
$USERI5
 70
     0
  9
$USERR1
 40
0.0
  9
$USERR2
 40
0.0
  9
$USERR3
 40
0.0
  9
$USERR4
 40
0.0
  9
$USERR5
 40
0.0
  9
$WORLDVIEW
 70
     1
  9
$SHADEDGE
 70
     3
  9
$SHADEDIF
 70
    70
  9
$TILEMODE
 70
     1
  9
$MAXACTVP
 70
    64
  9
$PLIMCHECK
 70
     0
  9
$PEXTMIN
 10
0.0
 20
0.0
 30
0.0
  9
$PEXTMAX
 10
0.0
 20
0.0
 30
0.0
  9
$PLIMMIN
 10
0.0
 20
0.0
  9
$PLIMMAX
 10
12.0
 20
9.0
  9
$UNITMODE
 70
     0
  9
$VISRETAIN
 70
     1
  9
$PLINEGEN
 70
     0
  9
$PSLTSCALE
 70
     1
  0
ENDSEC
  0
SECTION
  2
TABLES
  0
TABLE
  2
VPORT
 70
     1
  0
VPORT
  2
*ACTIVE
 70
     0
 10
0.0
 20
0.0
 11
1.0
 21
1.0
 12
178.08152645327209
 22
113.06907773057191
 13
0.0
 23
0.0
 14
0.5
 24
0.5
 15
0.5
 25
0.5
 16
0.0
 26
0.0
 36
1.0
 17
0.0
 27
0.0
 37
0.0
 40
234.1187426760543
 41
2.6019575856443709
 42
50.0
 43
0.0
 44
0.0
 50
0.0
 51
0.0
 71
     0
 72
  1000
 73
     1
 74
     2
 75
     0
 76
     0
 77
     0
 78
     0
  0
ENDTAB
  0
TABLE
  2
LTYPE
 70
     3
  0
LTYPE
  2
CONTINUOUS
 70
     0
  3
Solid Line
 72
    65
 73
     0
 40
0.0
  0
LTYPE
  2
CENTER
 70
     0
  3
____ _ ____ _ ____ _ ____ _ ____ _ ____ _ ____
 72
    65
 73
     4
 40
2.0
 49
1.25
 49
-0.25
 49
0.25
 49
-0.25
  0
LTYPE
  2
PHANTOM2
 70
     0
  3
___ _ _ ___ _ _ ___ _ _ ___ _ _
 72
    65
 73
     6
 40
1.25
 49
0.625
 49
-0.125
 49
0.125
 49
-0.125
 49
0.125
 49
-0.125
  0
ENDTAB
  0
TABLE
  2
LAYER
 70
     2
  0
LAYER
  2
0
 70
     0
 62
     7
  6
CONTINUOUS
  0
LAYER
  2
1
 70
     0
 62
     1
  6
CENTER
  0
ENDTAB
  0
TABLE
  2
STYLE
 70
     2
  0
STYLE
  2
STANDARD
 70
     0
 40
0.0
 41
1.0
 50
0.0
 71
     0
 42
0.2
  3
simplex.shx
  4
bigfont.shx
  0
STYLE
  2
STANDARD1
 70
     0
 40
0.0
 41
1.0
 50
0.0
 71
     0
 42
3.0
  3
txt
  4

  0
ENDTAB
  0
TABLE
  2
VIEW
 70
     0
  0
ENDTAB
  0
TABLE
  2
UCS
 70
     0
  0
ENDTAB
  0
TABLE
  2
APPID
 70
     5
  0
APPID
  2
ACAD
 70
     0
  0
APPID
  2
DCO15
 70
     0
  0
APPID
  2
ACAD_MLEADERVER
 70
     0
  0
APPID
  2
ACAD_NAV_VCDISPLAY
 70
     0
  0
APPID
  2
ACAD_EXEMPT_FROM_CAD_STANDARDS
 70
     0
  0
ENDTAB
  0
TABLE
  2
DIMSTYLE
 70
     1
  0
DIMSTYLE
  2
STANDARD
 70
     0
  3

  4

  5

  6

  7

 40
1.0
 41
0.18
 42
0.0625
 43
0.38
 44
0.18
 45
0.0
 46
0.0
 47
0.0
 48
0.0
140
0.18
141
0.09
142
0.0
143
25.399999999999999
144
1.0
145
0.0
146
1.0
147
0.09
 71
     0
 72
     0
 73
     1
 74
     1
 75
     0
 76
     0
 77
     0
 78
     0
170
     0
171
     2
172
     0
173
     0
174
     0
175
     0
176
     0
177
     0
178
     0
  0
ENDTAB
  0
ENDSEC
  0
SECTION
  2
BLOCKS
  0
BLOCK
  8
0
  2
$MODEL_SPACE
 70
     0
 10
0.0
 20
0.0
 30
0.0
  3
$MODEL_SPACE
  1

  0
ENDBLK
  5
21
  8
0
  0
BLOCK
 67
     1
  8
0
  2
$PAPER_SPACE
 70
     0
 10
0.0
 20
0.0
 30
0.0
  3
$PAPER_SPACE
  1

  0
ENDBLK
  5
5B
 67
     1
  8
0
  0
ENDSEC
  0
SECTION
  2
ENTITIES
  0
LINE
  5
2C97
  8
0
 10
117.1071858360767
 20
165.50000000000099
 30
0.0
 11
107.9928141639234
 21
165.50000000000099
 31
0.0
  0
LINE
  5
2D55
  8
0
 10
109.52265745301619
 20
173.87951918345061
 30
0.0
 11
114.9901781757428
 21
173.87951918345061
 31
0.0
  0
LINE
  5
2D5D
  8
0
 10
115.5773425469839
 20
168.00000000000091
 30
0.0
 11
109.52265745301619
 21
168.00000000000091
 31
0.0
  0
LINE
  5
2E2E
  8
0
 10
25.905594228764269
 20
221.0773425469848
 30
0.0
 11
44.803227665824551
 21
222.2690689286724
 31
0.0
  0
LINE
  5
2F3C
  8
0
 10
25.636345484052779
 20
168.00000000000091
 30
0.0
 11
25.73954075502439
 21
168.00000000000091
 31
0.0
  0
LINE
  5
2F42
  8
0
 10
53.350000000000051
 20
180.00000000000091
 30
0.0
 11
46.649999999999999
 21
180.00000000000091
 31
0.0
  0
LINE
  5
2F45
  8
0
 10
25.73954075502439
 20
168.00000000000091
 30
0.0
 11
25.993244076001591
 21
168.00000000000091
 31
0.0
  0
ARC
  5
2F4E
  8
0
 10
50.063772361107361
 20
68.815312845004783
 30
0.0
 40
107.9500000000002
 50
94.017856613247105
 51
103.27795552508771
  0
LINE
  5
2F52
  8
0
 10
45.699999999999953
 20
35.0
 30
0.0
 11
54.300000000000061
 21
35.0
 31
0.0
  0
LINE
  5
2F73
  8
0
 10
57.050000000000011
 20
144.00000000000091
 30
0.0
 11
42.95000000000001
 21
144.00000000000091
 31
0.0
  0
LINE
  5
2F75
  8
0
 10
57.050000000000011
 20
145.65100000000089
 30
0.0
 11
42.950000000000003
 21
145.65100000000089
 31
0.0
  0
LINE
  5
2F86
  8
0
 10
46.150000000000013
 20
179.50000000000091
 30
0.0
 11
46.150000000000013
 21
176.50000000000091
 31
0.0
  0
LINE
  5
2F98
  8
1
 10
50.0
 20
185.00000000000091
 30
0.0
 11
50.0
 21
30.0
 31
0.0
  0
LINE
  5
2F99
  8
0
 10
45.0
 20
144.00000000000091
 30
0.0
 11
45.0
 21
44.000000000000973
 31
0.0
  0
LINE
  5
2F9A
  8
0
 10
45.000000000000021
 20
36.999999999999993
 30
0.0
 11
55.000000000000028
 21
36.999999999999972
 31
0.0
  0
LINE
  5
2F9E
  8
0
 10
45.0
 20
36.999999999999972
 30
0.0
 11
45.699999999999953
 21
35.0
 31
0.0
  0
ARC
  5
2F9F
  8
0
 10
45.850000000000051
 20
42.413336834738743
 30
0.0
 40
1.8
 50
118.1786427405318
 51
241.82135725946819
  0
LINE
  5
2FA1
  8
0
 10
45.0
 20
40.826673669476527
 30
0.0
 11
45.0
 21
36.999999999999972
 31
0.0
  0
ARC
  5
2FAA
  8
0
 10
40.976005724462681
 20
42.413336834738743
 30
0.0
 40
4.3255092104348867
 50
338.48065491511858
 51
21.519345084881369
  0
ARC
  5
2FAF
  8
0
 10
59.023994275537348
 20
42.413336834738743
 30
0.0
 40
4.3255092104348867
 50
158.48065491511861
 51
201.51934508488131
  0
LINE
  5
2FB0
  8
0
 10
55.000000000000028
 20
40.826673669476527
 30
0.0
 11
55.000000000000028
 21
36.999999999999972
 31
0.0
  0
ARC
  5
2FB1
  8
0
 10
54.149999999999977
 20
42.413336834738743
 30
0.0
 40
1.8
 50
298.17864274053181
 51
61.821357259468208
  0
LINE
  5
2FB2
  8
0
 10
55.000000000000028
 20
144.00000000000091
 30
0.0
 11
55.000000000000028
 21
44.000000000000973
 31
0.0
  0
LINE
  5
2FB3
  8
0
 10
55.000000000000028
 20
36.999999999999972
 30
0.0
 11
54.300000000000061
 21
35.0
 31
0.0
  0
ARC
  5
2FB9
  8
0
 10
39.602580934974519
 20
164.54054550327089
 30
0.0
 40
3.4822072494599841
 50
15.99363427488337
 51
83.446639587204118
  0
LINE
  5
2FBB
  8
0
 10
42.949999999999989
 20
165.50000000000099
 30
0.0
 11
44.293693110721158
 21
165.50000000000099
 31
0.0
  0
POLYLINE
  5
2FBF
  8
0
 10
44.293693110721158
 20
165.50000000000091
 30
0.0
 66
     1
 70
     8
  0
VERTEX
  8
0
  5
390B
 10
44.2937
 20
165.500
 30
0.000000
  70
    32
  0
VERTEX
  8
0
  5
390C
 10
44.2934
 20
165.531
 30
0.000000
  70
    32
  0
VERTEX
  8
0
  5
390D
 10
44.2926
 20
165.561
 30
0.000000
  70
    32
  0
VERTEX
  8
0
  5
390E
 10
44.2913
 20
165.592
 30
0.000000
  70
    32
  0
VERTEX
  8
0
  5
390F
 10
44.2895
 20
165.623
 30
0.000000
  70
    32
  0
VERTEX
  8
0
  5
3910
 10
44.2871
 20
165.653
 30
0.000000
  70
    32
  0
VERTEX
  8
0
  5
3911
 10
44.2842
 20
165.684
 30
0.000000
  70
    32
  0
VERTEX
  8
0
  5
3912
 10
44.2808
 20
165.714
 30
0.000000
  70
    32
  0
VERTEX
  8
0
  5
3913
 10
44.2768
 20
165.745
 30
0.000000
  70
    32
  0
VERTEX
  8
0
  5
3914
 10
44.2724
 20
165.776
 30
0.000000
  70
    32
  0
VERTEX
  8
0
  5
3915
 10
44.2674
 20
165.806
 30
0.000000
  70
    32
  0
VERTEX
  8
0
  5
3916
 10
44.2619
 20
165.836
 30
0.000000
  70
    32
  0
VERTEX
  8
0
  5
3917
 10
44.2558
 20
165.867
 30
0.000000
  70
    32
  0
VERTEX
  8
0
  5
3918
 10
44.2492
 20
165.897
 30
0.000000
  70
    32
  0
VERTEX
  8
0
  5
3919
 10
44.2422
 20
165.927
 30
0.000000
  70
    32
  0
VERTEX
  8
0
  5
391A
 10
44.2346
 20
165.958
 30
0.000000
  70
    32
  0
VERTEX
  8
0
  5
391B
 10
44.2264
 20
165.988
 30
0.000000
  70
    32
  0
VERTEX
  8
0
  5
391C
 10
44.2178
 20
166.018
 30
0.000000
  70
    32
  0
VERTEX
  8
0
  5
391D
 10
44.2087
 20
166.048
 30
0.000000
  70
    32
  0
VERTEX
  8
0
  5
391E
 10
44.1990
 20
166.078
 30
0.000000
  70
    32
  0
VERTEX
  8
0
  5
391F
 10
44.1888
 20
166.107
 30
0.000000
  70
    32
  0
VERTEX
  8
0
  5
3920
 10
44.1781
 20
166.137
 30
0.000000
  70
    32
  0
VERTEX
  8
0
  5
3921
 10
44.1669
 20
166.167
 30
0.000000
  70
    32
  0
VERTEX
  8
0
  5
3922
 10
44.1552
 20
166.196
 30
0.000000
  70
    32
  0
VERTEX
  8
0
  5
3923
 10
44.1430
 20
166.226
 30
0.000000
  70
    32
  0
VERTEX
  8
0
  5
3924
 10
44.1303
 20
166.255
 30
0.000000
  70
    32
  0
VERTEX
  8
0
  5
3925
 10
44.1170
 20
166.284
 30
0.000000
  70
    32
  0
VERTEX
  8
0
  5
3926
 10
44.1033
 20
166.313
 30
0.000000
  70
    32
  0
VERTEX
  8
0
  5
3927
 10
44.0891
 20
166.342
 30
0.000000
  70
    32
  0
VERTEX
  8
0
  5
3928
 10
44.0744
 20
166.371
 30
0.000000
  70
    32
  0
VERTEX
  8
0
  5
3929
 10
44.0592
 20
166.400
 30
0.000000
  70
    32
  0
VERTEX
  8
0
  5
392A
 10
44.0435
 20
166.428
 30
0.000000
  70
    32
  0
VERTEX
  8
0
  5
392B
 10
44.0273
 20
166.457
 30
0.000000
  70
    32
  0
VERTEX
  8
0
  5
392C
 10
44.0106
 20
166.485
 30
0.000000
  70
    32
  0
VERTEX
  8
0
  5
392D
 10
43.9934
 20
166.513
 30
0.000000
  70
    32
  0
VERTEX
  8
0
  5
392E
 10
43.9758
 20
166.541
 30
0.000000
  70
    32
  0
VERTEX
  8
0
  5
392F
 10
43.9577
 20
166.569
 30
0.000000
  70
    32
  0
VERTEX
  8
0
  5
3930
 10
43.9391
 20
166.597
 30
0.000000
  70
    32
  0
VERTEX
  8
0
  5
3931
 10
43.9200
 20
166.624
 30
0.000000
  70
    32
  0
VERTEX
  8
0
  5
3932
 10
43.9004
 20
166.651
 30
0.000000
  70
    32
  0
VERTEX
  8
0
  5
3933
 10
43.8804
 20
166.678
 30
0.000000
  70
    32
  0
VERTEX
  8
0
  5
3934
 10
43.8599
 20
166.705
 30
0.000000
  70
    32
  0
VERTEX
  8
0
  5
3935
 10
43.8390
 20
166.732
 30
0.000000
  70
    32
  0
VERTEX
  8
0
  5
3936
 10
43.8176
 20
166.759
 30
0.000000
  70
    32
  0
VERTEX
  8
0
  5
3937
 10
43.7957
 20
166.785
 30
0.000000
  70
    32
  0
VERTEX
  8
0
  5
3938
 10
43.7734
 20
166.811
 30
0.000000
  70
    32
  0
VERTEX
  8
0
  5
3939
 10
43.7507
 20
166.837
 30
0.000000
  70
    32
  0
VERTEX
  8
0
  5
393A
 10
43.7275
 20
166.863
 30
0.000000
  70
    32
  0
VERTEX
  8
0
  5
393B
 10
43.7038
 20
166.889
 30
0.000000
  70
    32
  0
VERTEX
  8
0
  5
393C
 10
43.6798
 20
166.914
 30
0.000000
  70
    32
  0
VERTEX
  8
0
  5
393D
 10
43.6552
 20
166.940
 30
0.000000
  70
    32
  0
VERTEX
  8
0
  5
393E
 10
43.6303
 20
166.964
 30
0.000000
  70
    32
  0
VERTEX
  8
0
  5
393F
 10
43.6049
 20
166.989
 30
0.000000
  70
    32
  0
VERTEX
  8
0
  5
3940
 10
43.5791
 20
167.014
 30
0.000000
  70
    32
  0
VERTEX
  8
0
  5
3941
 10
43.5529
 20
167.038
 30
0.000000
  70
    32
  0
VERTEX
  8
0
  5
3942
 10
43.5263
 20
167.062
 30
0.000000
  70
    32
  0
VERTEX
  8
0
  5
3943
 10
43.4992
 20
167.086
 30
0.000000
  70
    32
  0
VERTEX
  8
0
  5
3944
 10
43.4718
 20
167.110
 30
0.000000
  70
    32
  0
VERTEX
  8
0
  5
3945
 10
43.4439
 20
167.133
 30
0.000000
  70
    32
  0
VERTEX
  8
0
  5
3946
 10
43.4157
 20
167.156
 30
0.000000
  70
    32
  0
VERTEX
  8
0
  5
3947
 10
43.3870
 20
167.179
 30
0.000000
  70
    32
  0
VERTEX
  8
0
  5
3948
 10
43.3580
 20
167.202
 30
0.000000
  70
    32
  0
VERTEX
  8
0
  5
3949
 10
43.3286
 20
167.224
 30
0.000000
  70
    32
  0
VERTEX
  8
0
  5
394A
 10
43.2988
 20
167.246
 30
0.000000
  70
    32
  0
VERTEX
  8
0
  5
394B
 10
43.2686
 20
167.268
 30
0.000000
  70
    32
  0
VERTEX
  8
0
  5
394C
 10
43.2380
 20
167.289
 30
0.000000
  70
    32
  0
VERTEX
  8
0
  5
394D
 10
43.2071
 20
167.311
 30
0.000000
  70
    32
  0
VERTEX
  8
0
  5
394E
 10
43.1758
 20
167.332
 30
0.000000
  70
    32
  0
VERTEX
  8
0
  5
394F
 10
43.1441
 20
167.352
 30
0.000000
  70
    32
  0
VERTEX
  8
0
  5
3950
 10
43.1121
 20
167.373
 30
0.000000
  70
    32
  0
VERTEX
  8
0
  5
3951
 10
43.0798
 20
167.393
 30
0.000000
  70
    32
  0
VERTEX
  8
0
  5
3952
 10
43.0471
 20
167.413
 30
0.000000
  70
    32
  0
VERTEX
  8
0
  5
3953
 10
43.0141
 20
167.433
 30
0.000000
  70
    32
  0
VERTEX
  8
0
  5
3954
 10
42.9807
 20
167.452
 30
0.000000
  70
    32
  0
VERTEX
  8
0
  5
3955
 10
42.9470
 20
167.471
 30
0.000000
  70
    32
  0
VERTEX
  8
0
  5
3956
 10
42.9130
 20
167.490
 30
0.000000
  70
    32
  0
VERTEX
  8
0
  5
3957
 10
42.8786
 20
167.508
 30
0.000000
  70
    32
  0
VERTEX
  8
0
  5
3958
 10
42.8440
 20
167.526
 30
0.000000
  70
    32
  0
VERTEX
  8
0
  5
3959
 10
42.8090
 20
167.544
 30
0.000000
  70
    32
  0
VERTEX
  8
0
  5
395A
 10
42.7738
 20
167.561
 30
0.000000
  70
    32
  0
VERTEX
  8
0
  5
395B
 10
42.7382
 20
167.579
 30
0.000000
  70
    32
  0
VERTEX
  8
0
  5
395C
 10
42.7023
 20
167.596
 30
0.000000
  70
    32
  0
VERTEX
  8
0
  5
395D
 10
42.6662
 20
167.612
 30
0.000000
  70
    32
  0
VERTEX
  8
0
  5
395E
 10
42.6298
 20
167.628
 30
0.000000
  70
    32
  0
VERTEX
  8
0
  5
395F
 10
42.5931
 20
167.644
 30
0.000000
  70
    32
  0
VERTEX
  8
0
  5
3960
 10
42.5561
 20
167.660
 30
0.000000
  70
    32
  0
VERTEX
  8
0
  5
3961
 10
42.5188
 20
167.675
 30
0.000000
  70
    32
  0
VERTEX
  8
0
  5
3962
 10
42.4813
 20
167.690
 30
0.000000
  70
    32
  0
VERTEX
  8
0
  5
3963
 10
42.4436
 20
167.705
 30
0.000000
  70
    32
  0
VERTEX
  8
0
  5
3964
 10
42.4056
 20
167.719
 30
0.000000
  70
    32
  0
VERTEX
  8
0
  5
3965
 10
42.3673
 20
167.733
 30
0.000000
  70
    32
  0
VERTEX
  8
0
  5
3966
 10
42.3288
 20
167.747
 30
0.000000
  70
    32
  0
VERTEX
  8
0
  5
3967
 10
42.2901
 20
167.760
 30
0.000000
  70
    32
  0
VERTEX
  8
0
  5
3968
 10
42.2512
 20
167.773
 30
0.000000
  70
    32
  0
VERTEX
  8
0
  5
3969
 10
42.2120
 20
167.786
 30
0.000000
  70
    32
  0
VERTEX
  8
0
  5
396A
 10
42.1727
 20
167.798
 30
0.000000
  70
    32
  0
VERTEX
  8
0
  5
396B
 10
42.1331
 20
167.810
 30
0.000000
  70
    32
  0
VERTEX
  8
0
  5
396C
 10
42.0933
 20
167.821
 30
0.000000
  70
    32
  0
VERTEX
  8
0
  5
396D
 10
42.0533
 20
167.832
 30
0.000000
  70
    32
  0
VERTEX
  8
0
  5
396E
 10
42.0132
 20
167.843
 30
0.000000
  70
    32
  0
VERTEX
  8
0
  5
396F
 10
41.9728
 20
167.854
 30
0.000000
  70
    32
  0
VERTEX
  8
0
  5
3970
 10
41.9323
 20
167.864
 30
0.000000
  70
    32
  0
VERTEX
  8
0
  5
3971
 10
41.8916
 20
167.874
 30
0.000000
  70
    32
  0
VERTEX
  8
0
  5
3972
 10
41.8507
 20
167.883
 30
0.000000
  70
    32
  0
VERTEX
  8
0
  5
3973
 10
41.8097
 20
167.892
 30
0.000000
  70
    32
  0
VERTEX
  8
0
  5
3974
 10
41.7685
 20
167.901
 30
0.000000
  70
    32
  0
VERTEX
  8
0
  5
3975
 10
41.7272
 20
167.909
 30
0.000000
  70
    32
  0
VERTEX
  8
0
  5
3976
 10
41.6857
 20
167.917
 30
0.000000
  70
    32
  0
VERTEX
  8
0
  5
3977
 10
41.6441
 20
167.925
 30
0.000000
  70
    32
  0
VERTEX
  8
0
  5
3978
 10
41.6024
 20
167.932
 30
0.000000
  70
    32
  0
VERTEX
  8
0
  5
3979
 10
41.5605
 20
167.939
 30
0.000000
  70
    32
  0
VERTEX
  8
0
  5
397A
 10
41.5186
 20
167.946
 30
0.000000
  70
    32
  0
VERTEX
  8
0
  5
397B
 10
41.4765
 20
167.952
 30
0.000000
  70
    32
  0
VERTEX
  8
0
  5
397C
 10
41.4343
 20
167.958
 30
0.000000
  70
    32
  0
VERTEX
  8
0
  5
397D
 10
41.3921
 20
167.963
 30
0.000000
  70
    32
  0
VERTEX
  8
0
  5
397E
 10
41.3497
 20
167.968
 30
0.000000
  70
    32
  0
VERTEX
  8
0
  5
397F
 10
41.3072
 20
167.973
 30
0.000000
  70
    32
  0
VERTEX
  8
0
  5
3980
 10
41.2647
 20
167.977
 30
0.000000
  70
    32
  0
VERTEX
  8
0
  5
3981
 10
41.2221
 20
167.981
 30
0.000000
  70
    32
  0
VERTEX
  8
0
  5
3982
 10
41.1795
 20
167.985
 30
0.000000
  70
    32
  0
VERTEX
  8
0
  5
3983
 10
41.1368
 20
167.988
 30
0.000000
  70
    32
  0
VERTEX
  8
0
  5
3984
 10
41.0940
 20
167.991
 30
0.000000
  70
    32
  0
VERTEX
  8
0
  5
3985
 10
41.0512
 20
167.993
 30
0.000000
  70
    32
  0
VERTEX
  8
0
  5
3986
 10
41.0083
 20
167.995
 30
0.000000
  70
    32
  0
VERTEX
  8
0
  5
3987
 10
40.9654
 20
167.997
 30
0.000000
  70
    32
  0
VERTEX
  8
0
  5
3988
 10
40.9225
 20
167.998
 30
0.000000
  70
    32
  0
VERTEX
  8
0
  5
3989
 10
40.8796
 20
167.999
 30
0.000000
  70
    32
  0
VERTEX
  8
0
  5
398A
 10
40.8366
 20
168.000
 30
0.000000
  70
    32
  0
VERTEX
  8
0
  5
398B
 10
40.7937
 20
168.000
 30
0.000000
  70
    32
  0
SEQEND
  8
0
  5
398C
  0
LINE
  5
2FCD
  8
0
 10
42.5
 20
176.50000000000091
 30
0.0
 11
57.500000000000107
 21
176.50000000000091
 31
0.0
  0
ARC
  5
2FCF
  8
0
 10
46.649999999999999
 20
179.50000000000091
 30
0.0
 40
0.5
 50
90.0
 51
180.0
  0
LINE
  5
2FD1
  8
0
 10
46.150000000000013
 20
179.50000000000091
 30
0.0
 11
53.850000000000051
 21
179.5000000000008
 31
0.0
  0
ARC
  5
2FD3
  8
0
 10
53.350000000000051
 20
179.50000000000091
 30
0.0
 40
0.5
 50
0.0
 51
90.0
  0
LINE
  5
2FD4
  8
0
 10
53.850000000000051
 20
179.50000000000091
 30
0.0
 11
53.850000000000051
 21
176.50000000000091
 31
0.0
  0
LINE
  5
2FD9
  8
0
 10
24.5
 20
172.90625187137601
 30
0.0
 11
24.5
 21
169.00000000000091
 31
0.0
  0
ARC
  5
2FDA
  8
0
 10
25.5
 20
172.90625187137601
 30
0.0
 40
1.0
 50
103.27795552508741
 51
180.00000000000071
  0
ARC
  5
2FDB
  8
0
 10
25.5
 20
169.00000000000091
 30
0.0
 40
1.0
 50
180.0
 51
269.99999999999989
  0
ARC
  5
2FDC
  8
0
 10
74.499999999999972
 20
169.00000000000091
 30
0.0
 40
1.0
 50
270.00000000000011
 51
0.0
  0
ARC
  5
2FDD
  8
0
 10
74.499999999999972
 20
172.90625187137601
 30
0.0
 40
1.0
 50
359.9999999999992
 51
76.722044474912622
  0
LINE
  5
2FDE
  8
0
 10
75.499999999999972
 20
172.90625187137601
 30
0.0
 11
75.499999999999972
 21
169.00000000000091
 31
0.0
  0
ARC
  5
2FDF
  8
0
 10
54.163889789273277
 20
175.48639039698639
 30
0.0
 40
1.032972345589376
 50
0.7555031149812085
 51
78.891996712885643
  0
ARC
  5
2FE0
  8
0
 10
61.938070541327278
 20
168.07204476741799
 30
0.0
 40
6.7416832097474311
 50
180.6123010458877
 51
202.4274786872914
  0
LINE
  5
2FE1
  8
0
 10
55.196772294544402
 20
175.50029232817519
 30
0.0
 11
55.196772294544367
 21
168.00000000000091
 31
0.0
  0
POLYLINE
  5
2FE2
  8
0
 10
55.706306889278807
 20
165.50000000000091
 30
0.0
 66
     1
 70
     8
  0
VERTEX
  8
0
  5
398D
 10
55.7063
 20
165.500
 30
0.000000
  70
    32
  0
VERTEX
  8
0
  5
398E
 10
55.7066
 20
165.531
 30
0.000000
  70
    32
  0
VERTEX
  8
0
  5
398F
 10
55.7074
 20
165.561
 30
0.000000
  70
    32
  0
VERTEX
  8
0
  5
3990
 10
55.7087
 20
165.592
 30
0.000000
  70
    32
  0
VERTEX
  8
0
  5
3991
 10
55.7105
 20
165.623
 30
0.000000
  70
    32
  0
VERTEX
  8
0
  5
3992
 10
55.7129
 20
165.653
 30
0.000000
  70
    32
  0
VERTEX
  8
0
  5
3993
 10
55.7158
 20
165.684
 30
0.000000
  70
    32
  0
VERTEX
  8
0
  5
3994
 10
55.7192
 20
165.714
 30
0.000000
  70
    32
  0
VERTEX
  8
0
  5
3995
 10
55.7232
 20
165.745
 30
0.000000
  70
    32
  0
VERTEX
  8
0
  5
3996
 10
55.7276
 20
165.776
 30
0.000000
  70
    32
  0
VERTEX
  8
0
  5
3997
 10
55.7326
 20
165.806
 30
0.000000
  70
    32
  0
VERTEX
  8
0
  5
3998
 10
55.7381
 20
165.836
 30
0.000000
  70
    32
  0
VERTEX
  8
0
  5
3999
 10
55.7442
 20
165.867
 30
0.000000
  70
    32
  0
VERTEX
  8
0
  5
399A
 10
55.7508
 20
165.897
 30
0.000000
  70
    32
  0
VERTEX
  8
0
  5
399B
 10
55.7578
 20
165.927
 30
0.000000
  70
    32
  0
VERTEX
  8
0
  5
399C
 10
55.7654
 20
165.958
 30
0.000000
  70
    32
  0
VERTEX
  8
0
  5
399D
 10
55.7736
 20
165.988
 30
0.000000
  70
    32
  0
VERTEX
  8
0
  5
399E
 10
55.7822
 20
166.018
 30
0.000000
  70
    32
  0
VERTEX
  8
0
  5
399F
 10
55.7913
 20
166.048
 30
0.000000
  70
    32
  0
VERTEX
  8
0
  5
39A0
 10
55.8010
 20
166.078
 30
0.000000
  70
    32
  0
VERTEX
  8
0
  5
39A1
 10
55.8112
 20
166.107
 30
0.000000
  70
    32
  0
VERTEX
  8
0
  5
39A2
 10
55.8219
 20
166.137
 30
0.000000
  70
    32
  0
VERTEX
  8
0
  5
39A3
 10
55.8331
 20
166.167
 30
0.000000
  70
    32
  0
VERTEX
  8
0
  5
39A4
 10
55.8448
 20
166.196
 30
0.000000
  70
    32
  0
VERTEX
  8
0
  5
39A5
 10
55.8570
 20
166.226
 30
0.000000
  70
    32
  0
VERTEX
  8
0
  5
39A6
 10
55.8697
 20
166.255
 30
0.000000
  70
    32
  0
VERTEX
  8
0
  5
39A7
 10
55.8830
 20
166.284
 30
0.000000
  70
    32
  0
VERTEX
  8
0
  5
39A8
 10
55.8967
 20
166.313
 30
0.000000
  70
    32
  0
VERTEX
  8
0
  5
39A9
 10
55.9109
 20
166.342
 30
0.000000
  70
    32
  0
VERTEX
  8
0
  5
39AA
 10
55.9256
 20
166.371
 30
0.000000
  70
    32
  0
VERTEX
  8
0
  5
39AB
 10
55.9408
 20
166.400
 30
0.000000
  70
    32
  0
VERTEX
  8
0
  5
39AC
 10
55.9565
 20
166.428
 30
0.000000
  70
    32
  0
VERTEX
  8
0
  5
39AD
 10
55.9727
 20
166.457
 30
0.000000
  70
    32
  0
VERTEX
  8
0
  5
39AE
 10
55.9894
 20
166.485
 30
0.000000
  70
    32
  0
VERTEX
  8
0
  5
39AF
 10
56.0066
 20
166.513
 30
0.000000
  70
    32
  0
VERTEX
  8
0
  5
39B0
 10
56.0242
 20
166.541
 30
0.000000
  70
    32
  0
VERTEX
  8
0
  5
39B1
 10
56.0423
 20
166.569
 30
0.000000
  70
    32
  0
VERTEX
  8
0
  5
39B2
 10
56.0609
 20
166.597
 30
0.000000
  70
    32
  0
VERTEX
  8
0
  5
39B3
 10
56.0800
 20
166.624
 30
0.000000
  70
    32
  0
VERTEX
  8
0
  5
39B4
 10
56.0996
 20
166.651
 30
0.000000
  70
    32
  0
VERTEX
  8
0
  5
39B5
 10
56.1196
 20
166.678
 30
0.000000
  70
    32
  0
VERTEX
  8
0
  5
39B6
 10
56.1401
 20
166.705
 30
0.000000
  70
    32
  0
VERTEX
  8
0
  5
39B7
 10
56.1610
 20
166.732
 30
0.000000
  70
    32
  0
VERTEX
  8
0
  5
39B8
 10
56.1824
 20
166.759
 30
0.000000
  70
    32
  0
VERTEX
  8
0
  5
39B9
 10
56.2043
 20
166.785
 30
0.000000
  70
    32
  0
VERTEX
  8
0
  5
39BA
 10
56.2266
 20
166.811
 30
0.000000
  70
    32
  0
VERTEX
  8
0
  5
39BB
 10
56.2493
 20
166.837
 30
0.000000
  70
    32
  0
VERTEX
  8
0
  5
39BC
 10
56.2725
 20
166.863
 30
0.000000
  70
    32
  0
VERTEX
  8
0
  5
39BD
 10
56.2962
 20
166.889
 30
0.000000
  70
    32
  0
VERTEX
  8
0
  5
39BE
 10
56.3202
 20
166.914
 30
0.000000
  70
    32
  0
VERTEX
  8
0
  5
39BF
 10
56.3448
 20
166.940
 30
0.000000
  70
    32
  0
VERTEX
  8
0
  5
39C0
 10
56.3697
 20
166.964
 30
0.000000
  70
    32
  0
VERTEX
  8
0
  5
39C1
 10
56.3951
 20
166.989
 30
0.000000
  70
    32
  0
VERTEX
  8
0
  5
39C2
 10
56.4209
 20
167.014
 30
0.000000
  70
    32
  0
VERTEX
  8
0
  5
39C3
 10
56.4471
 20
167.038
 30
0.000000
  70
    32
  0
VERTEX
  8
0
  5
39C4
 10
56.4737
 20
167.062
 30
0.000000
  70
    32
  0
VERTEX
  8
0
  5
39C5
 10
56.5008
 20
167.086
 30
0.000000
  70
    32
  0
VERTEX
  8
0
  5
39C6
 10
56.5282
 20
167.110
 30
0.000000
  70
    32
  0
VERTEX
  8
0
  5
39C7
 10
56.5561
 20
167.133
 30
0.000000
  70
    32
  0
VERTEX
  8
0
  5
39C8
 10
56.5843
 20
167.156
 30
0.000000
  70
    32
  0
VERTEX
  8
0
  5
39C9
 10
56.6130
 20
167.179
 30
0.000000
  70
    32
  0
VERTEX
  8
0
  5
39CA
 10
56.6420
 20
167.202
 30
0.000000
  70
    32
  0
VERTEX
  8
0
  5
39CB
 10
56.6714
 20
167.224
 30
0.000000
  70
    32
  0
VERTEX
  8
0
  5
39CC
 10
56.7012
 20
167.246
 30
0.000000
  70
    32
  0
VERTEX
  8
0
  5
39CD
 10
56.7314
 20
167.268
 30
0.000000
  70
    32
  0
VERTEX
  8
0
  5
39CE
 10
56.7620
 20
167.289
 30
0.000000
  70
    32
  0
VERTEX
  8
0
  5
39CF
 10
56.7929
 20
167.311
 30
0.000000
  70
    32
  0
VERTEX
  8
0
  5
39D0
 10
56.8242
 20
167.332
 30
0.000000
  70
    32
  0
VERTEX
  8
0
  5
39D1
 10
56.8559
 20
167.352
 30
0.000000
  70
    32
  0
VERTEX
  8
0
  5
39D2
 10
56.8879
 20
167.373
 30
0.000000
  70
    32
  0
VERTEX
  8
0
  5
39D3
 10
56.9202
 20
167.393
 30
0.000000
  70
    32
  0
VERTEX
  8
0
  5
39D4
 10
56.9529
 20
167.413
 30
0.000000
  70
    32
  0
VERTEX
  8
0
  5
39D5
 10
56.9859
 20
167.433
 30
0.000000
  70
    32
  0
VERTEX
  8
0
  5
39D6
 10
57.0193
 20
167.452
 30
0.000000
  70
    32
  0
VERTEX
  8
0
  5
39D7
 10
57.0530
 20
167.471
 30
0.000000
  70
    32
  0
VERTEX
  8
0
  5
39D8
 10
57.0870
 20
167.490
 30
0.000000
  70
    32
  0
VERTEX
  8
0
  5
39D9
 10
57.1214
 20
167.508
 30
0.000000
  70
    32
  0
VERTEX
  8
0
  5
39DA
 10
57.1560
 20
167.526
 30
0.000000
  70
    32
  0
VERTEX
  8
0
  5
39DB
 10
57.1910
 20
167.544
 30
0.000000
  70
    32
  0
VERTEX
  8
0
  5
39DC
 10
57.2262
 20
167.561
 30
0.000000
  70
    32
  0
VERTEX
  8
0
  5
39DD
 10
57.2618
 20
167.579
 30
0.000000
  70
    32
  0
VERTEX
  8
0
  5
39DE
 10
57.2977
 20
167.596
 30
0.000000
  70
    32
  0
VERTEX
  8
0
  5
39DF
 10
57.3338
 20
167.612
 30
0.000000
  70
    32
  0
VERTEX
  8
0
  5
39E0
 10
57.3702
 20
167.628
 30
0.000000
  70
    32
  0
VERTEX
  8
0
  5
39E1
 10
57.4069
 20
167.644
 30
0.000000
  70
    32
  0
VERTEX
  8
0
  5
39E2
 10
57.4439
 20
167.660
 30
0.000000
  70
    32
  0
VERTEX
  8
0
  5
39E3
 10
57.4812
 20
167.675
 30
0.000000
  70
    32
  0
VERTEX
  8
0
  5
39E4
 10
57.5187
 20
167.690
 30
0.000000
  70
    32
  0
VERTEX
  8
0
  5
39E5
 10
57.5564
 20
167.705
 30
0.000000
  70
    32
  0
VERTEX
  8
0
  5
39E6
 10
57.5944
 20
167.719
 30
0.000000
  70
    32
  0
VERTEX
  8
0
  5
39E7
 10
57.6327
 20
167.733
 30
0.000000
  70
    32
  0
VERTEX
  8
0
  5
39E8
 10
57.6712
 20
167.747
 30
0.000000
  70
    32
  0
VERTEX
  8
0
  5
39E9
 10
57.7099
 20
167.760
 30
0.000000
  70
    32
  0
VERTEX
  8
0
  5
39EA
 10
57.7488
 20
167.773
 30
0.000000
  70
    32
  0
VERTEX
  8
0
  5
39EB
 10
57.7880
 20
167.786
 30
0.000000
  70
    32
  0
VERTEX
  8
0
  5
39EC
 10
57.8273
 20
167.798
 30
0.000000
  70
    32
  0
VERTEX
  8
0
  5
39ED
 10
57.8669
 20
167.810
 30
0.000000
  70
    32
  0
VERTEX
  8
0
  5
39EE
 10
57.9067
 20
167.821
 30
0.000000
  70
    32
  0
VERTEX
  8
0
  5
39EF
 10
57.9467
 20
167.832
 30
0.000000
  70
    32
  0
VERTEX
  8
0
  5
39F0
 10
57.9868
 20
167.843
 30
0.000000
  70
    32
  0
VERTEX
  8
0
  5
39F1
 10
58.0272
 20
167.854
 30
0.000000
  70
    32
  0
VERTEX
  8
0
  5
39F2
 10
58.0677
 20
167.864
 30
0.000000
  70
    32
  0
VERTEX
  8
0
  5
39F3
 10
58.1084
 20
167.874
 30
0.000000
  70
    32
  0
VERTEX
  8
0
  5
39F4
 10
58.1493
 20
167.883
 30
0.000000
  70
    32
  0
VERTEX
  8
0
  5
39F5
 10
58.1903
 20
167.892
 30
0.000000
  70
    32
  0
VERTEX
  8
0
  5
39F6
 10
58.2315
 20
167.901
 30
0.000000
  70
    32
  0
VERTEX
  8
0
  5
39F7
 10
58.2728
 20
167.909
 30
0.000000
  70
    32
  0
VERTEX
  8
0
  5
39F8
 10
58.3143
 20
167.917
 30
0.000000
  70
    32
  0
VERTEX
  8
0
  5
39F9
 10
58.3559
 20
167.925
 30
0.000000
  70
    32
  0
VERTEX
  8
0
  5
39FA
 10
58.3976
 20
167.932
 30
0.000000
  70
    32
  0
VERTEX
  8
0
  5
39FB
 10
58.4395
 20
167.939
 30
0.000000
  70
    32
  0
VERTEX
  8
0
  5
39FC
 10
58.4814
 20
167.946
 30
0.000000
  70
    32
  0
VERTEX
  8
0
  5
39FD
 10
58.5235
 20
167.952
 30
0.000000
  70
    32
  0
VERTEX
  8
0
  5
39FE
 10
58.5657
 20
167.958
 30
0.000000
  70
    32
  0
VERTEX
  8
0
  5
39FF
 10
58.6079
 20
167.963
 30
0.000000
  70
    32
  0
VERTEX
  8
0
  5
3A00
 10
58.6503
 20
167.968
 30
0.000000
  70
    32
  0
VERTEX
  8
0
  5
3A01
 10
58.6928
 20
167.973
 30
0.000000
  70
    32
  0
VERTEX
  8
0
  5
3A02
 10
58.7353
 20
167.977
 30
0.000000
  70
    32
  0
VERTEX
  8
0
  5
3A03
 10
58.7779
 20
167.981
 30
0.000000
  70
    32
  0
VERTEX
  8
0
  5
3A04
 10
58.8205
 20
167.985
 30
0.000000
  70
    32
  0
VERTEX
  8
0
  5
3A05
 10
58.8632
 20
167.988
 30
0.000000
  70
    32
  0
VERTEX
  8
0
  5
3A06
 10
58.9060
 20
167.991
 30
0.000000
  70
    32
  0
VERTEX
  8
0
  5
3A07
 10
58.9488
 20
167.993
 30
0.000000
  70
    32
  0
VERTEX
  8
0
  5
3A08
 10
58.9917
 20
167.995
 30
0.000000
  70
    32
  0
VERTEX
  8
0
  5
3A09
 10
59.0346
 20
167.997
 30
0.000000
  70
    32
  0
VERTEX
  8
0
  5
3A0A
 10
59.0775
 20
167.998
 30
0.000000
  70
    32
  0
VERTEX
  8
0
  5
3A0B
 10
59.1204
 20
167.999
 30
0.000000
  70
    32
  0
VERTEX
  8
0
  5
3A0C
 10
59.1634
 20
168.000
 30
0.000000
  70
    32
  0
VERTEX
  8
0
  5
3A0D
 10
59.2063
 20
168.000
 30
0.000000
  70
    32
  0
SEQEND
  8
0
  5
3A0E
  0
LINE
  5
2FE3
  8
0
 10
57.050000000000011
 20
165.50000000000099
 30
0.0
 11
55.706306889278807
 21
165.50000000000099
 31
0.0
  0
ARC
  5
2FE4
  8
0
 10
60.39741906502536
 20
164.54054550327101
 30
0.0
 40
3.4822072494598419
 50
96.553360412794675
 51
164.0063657251178
  0
LINE
  5
2FE5
  8
0
 10
55.196772294544367
 20
168.00000000000091
 30
0.0
 11
74.499999999999972
 21
168.00000000000091
 31
0.0
  0
ARC
  5
2FE6
  8
0
 10
49.936227638892603
 20
68.815312845004783
 30
0.0
 40
107.9500000000002
 50
76.722044474912309
 51
85.982143386752895
  0
LINE
  5
2FE7
  8
0
 10
74.260459244975564
 20
168.00000000000091
 30
0.0
 11
74.006755923998384
 21
168.00000000000091
 31
0.0
  0
LINE
  5
2FE8
  8
0
 10
74.363654515947189
 20
168.00000000000091
 30
0.0
 11
74.260459244975564
 21
168.00000000000091
 31
0.0
  0
LINE
  5
2FF2
  8
1
 10
19.499999999999972
 20
217.05000000000089
 30
0.0
 11
80.500000000000057
 21
217.05000000000089
 31
0.0
  0
LINE
  5
2FF3
  8
1
 10
50.0
 20
205.00000000000099
 30
0.0
 11
50.0
 21
229.10000000000099
 31
0.0
  0
LINE
  5
2FF8
  8
0
 10
24.499999999999972
 20
214.5196836887115
 30
0.0
 11
24.499999999999972
 21
219.5803163112904
 31
0.0
  0
ARC
  5
2FFA
  8
0
 10
25.999999999999972
 20
219.5803163112904
 30
0.0
 40
1.5
 50
93.608419726474835
 51
180.0
  0
LINE
  5
3001
  8
0
 10
25.905594228764269
 20
213.0226574530171
 30
0.0
 11
44.803227665824593
 21
211.8309310713295
 31
0.0
  0
ARC
  5
3002
  8
0
 10
25.999999999999972
 20
214.5196836887115
 30
0.0
 40
1.5
 50
180.0
 51
266.39158027352511
  0
ARC
  5
3003
  8
0
 10
74.000000000000028
 20
214.5196836887115
 30
0.0
 40
1.5
 50
273.60841972647489
 51
0.0
  0
LINE
  5
3004
  8
0
 10
74.094405771235714
 20
213.0226574530171
 30
0.0
 11
55.196772334175407
 21
211.8309310713295
 31
0.0
  0
ARC
  5
3007
  8
0
 10
74.000000000000028
 20
219.5803163112904
 30
0.0
 40
1.5
 50
0.0
 51
86.391580273525136
  0
LINE
  5
3008
  8
0
 10
75.500000000000028
 20
214.5196836887115
 30
0.0
 11
75.500000000000028
 21
219.5803163112904
 31
0.0
  0
LINE
  5
3009
  8
0
 10
74.094405771235714
 20
221.0773425469848
 30
0.0
 11
55.196772334175449
 21
222.2690689286724
 31
0.0
  0
CIRCLE
  5
300D
  8
0
 10
50.0
 20
217.05000000000089
 30
0.0
 40
3.3500000000000218
  0
CIRCLE
  5
300E
  8
0
 10
50.0
 20
217.05000000000089
 30
0.0
 40
3.8500000000000218
  0
CIRCLE
  5
3017
  8
0
 10
71.096220012610928
 20
217.05008789337421
 30
0.0
 40
1.95
  0
CIRCLE
  5
3018
  8
0
 10
71.096220012610928
 20
217.05008789337421
 30
0.0
 40
1.75
  0
LINE
  5
3213
  8
0
 10
117.55
 20
36.999999999999993
 30
0.0
 11
116.85000000000009
 21
35.0
 31
0.0
  0
LINE
  5
3214
  8
0
 10
117.55
 20
144.00000000000091
 30
0.0
 11
117.55
 21
36.999999999999922
 31
0.0
  0
LINE
  5
321B
  8
0
 10
107.55
 20
36.999999999999993
 30
0.0
 11
108.25
 21
35.0
 31
0.0
  0
LINE
  5
321C
  8
0
 10
107.5500000000001
 20
37.0
 30
0.0
 11
117.5500000000001
 21
37.0
 31
0.0
  0
LINE
  5
321D
  8
0
 10
107.55
 20
144.00000000000091
 30
0.0
 11
107.55
 21
37.000000000000007
 31
0.0
  0
LINE
  5
321E
  8
1
 10
112.55
 20
185.00000000000091
 30
0.0
 11
112.55
 21
30.0
 31
0.0
  0
LINE
  5
3225
  8
0
 10
119.59999999999999
 20
145.65100000000089
 30
0.0
 11
105.5000000000001
 21
145.65100000000089
 31
0.0
  0
LINE
  5
3226
  8
0
 10
119.59999999999999
 20
144.00000000000091
 30
0.0
 11
105.5
 21
144.00000000000091
 31
0.0
  0
LINE
  5
3227
  8
0
 10
108.25
 20
35.0
 30
0.0
 11
116.85000000000009
 21
35.0
 31
0.0
  0
CIRCLE
  5
322A
  8
0
 10
112.55
 20
42.41333683473875
 30
0.0
 40
1.586663165262223
  0
LINE
  5
322B
  8
0
 10
106.5
 20
176.50000000000091
 30
0.0
 11
118.59999999999999
 21
176.50000000000091
 31
0.0
  0
ARC
  5
322E
  8
0
 10
106.5
 20
175.50000000000091
 30
0.0
 40
1.0
 50
90.0
 51
180.0
  0
ARC
  5
3232
  8
0
 10
118.59999999999999
 20
175.50000000000091
 30
0.0
 40
1.0
 50
0.0000000000003053
 51
89.999999999999915
  0
LINE
  5
3235
  8
0
 10
118.1071858360767
 20
174.50000000000091
 30
0.0
 11
118.1071858360767
 21
167.50000000000091
 31
0.0
  0
LINE
  5
3237
  8
0
 10
112.55
 20
173.87951918345061
 30
0.0
 11
115.5773425469839
 21
173.87951918345061
 31
0.0
  0
ARC
  5
3239
  8
0
 10
115.5773425469839
 20
172.87951918345061
 30
0.0
 40
1.0
 50
0.0
 51
90.0
  0
POLYLINE
  5
323C
  8
0
 10
117.1071858360767
 20
165.50000000000091
 30
0.0
 66
     1
 70
     8
  0
VERTEX
  8
0
  5
3A0F
 10
117.107
 20
165.500
 30
0.000000
  70
    32
  0
VERTEX
  8
0
  5
3A10
 10
117.119
 20
165.500
 30
0.000000
  70
    32
  0
VERTEX
  8
0
  5
3A11
 10
117.132
 20
165.501
 30
0.000000
  70
    32
  0
VERTEX
  8
0
  5
3A12
 10
117.144
 20
165.501
 30
0.000000
  70
    32
  0
VERTEX
  8
0
  5
3A13
 10
117.156
 20
165.502
 30
0.000000
  70
    32
  0
VERTEX
  8
0
  5
3A14
 10
117.169
 20
165.504
 30
0.000000
  70
    32
  0
VERTEX
  8
0
  5
3A15
 10
117.181
 20
165.505
 30
0.000000
  70
    32
  0
VERTEX
  8
0
  5
3A16
 10
117.193
 20
165.507
 30
0.000000
  70
    32
  0
VERTEX
  8
0
  5
3A17
 10
117.205
 20
165.510
 30
0.000000
  70
    32
  0
VERTEX
  8
0
  5
3A18
 10
117.217
 20
165.512
 30
0.000000
  70
    32
  0
VERTEX
  8
0
  5
3A19
 10
117.230
 20
165.515
 30
0.000000
  70
    32
  0
VERTEX
  8
0
  5
3A1A
 10
117.242
 20
165.518
 30
0.000000
  70
    32
  0
VERTEX
  8
0
  5
3A1B
 10
117.254
 20
165.522
 30
0.000000
  70
    32
  0
VERTEX
  8
0
  5
3A1C
 10
117.266
 20
165.525
 30
0.000000
  70
    32
  0
VERTEX
  8
0
  5
3A1D
 10
117.278
 20
165.529
 30
0.000000
  70
    32
  0
VERTEX
  8
0
  5
3A1E
 10
117.290
 20
165.534
 30
0.000000
  70
    32
  0
VERTEX
  8
0
  5
3A1F
 10
117.302
 20
165.538
 30
0.000000
  70
    32
  0
VERTEX
  8
0
  5
3A20
 10
117.314
 20
165.543
 30
0.000000
  70
    32
  0
VERTEX
  8
0
  5
3A21
 10
117.326
 20
165.549
 30
0.000000
  70
    32
  0
VERTEX
  8
0
  5
3A22
 10
117.338
 20
165.554
 30
0.000000
  70
    32
  0
VERTEX
  8
0
  5
3A23
 10
117.350
 20
165.560
 30
0.000000
  70
    32
  0
VERTEX
  8
0
  5
3A24
 10
117.362
 20
165.566
 30
0.000000
  70
    32
  0
VERTEX
  8
0
  5
3A25
 10
117.374
 20
165.572
 30
0.000000
  70
    32
  0
VERTEX
  8
0
  5
3A26
 10
117.386
 20
165.579
 30
0.000000
  70
    32
  0
VERTEX
  8
0
  5
3A27
 10
117.397
 20
165.586
 30
0.000000
  70
    32
  0
VERTEX
  8
0
  5
3A28
 10
117.409
 20
165.593
 30
0.000000
  70
    32
  0
VERTEX
  8
0
  5
3A29
 10
117.421
 20
165.601
 30
0.000000
  70
    32
  0
VERTEX
  8
0
  5
3A2A
 10
117.432
 20
165.609
 30
0.000000
  70
    32
  0
VERTEX
  8
0
  5
3A2B
 10
117.444
 20
165.617
 30
0.000000
  70
    32
  0
VERTEX
  8
0
  5
3A2C
 10
117.456
 20
165.625
 30
0.000000
  70
    32
  0
VERTEX
  8
0
  5
3A2D
 10
117.467
 20
165.634
 30
0.000000
  70
    32
  0
VERTEX
  8
0
  5
3A2E
 10
117.479
 20
165.643
 30
0.000000
  70
    32
  0
VERTEX
  8
0
  5
3A2F
 10
117.490
 20
165.652
 30
0.000000
  70
    32
  0
VERTEX
  8
0
  5
3A30
 10
117.501
 20
165.662
 30
0.000000
  70
    32
  0
VERTEX
  8
0
  5
3A31
 10
117.512
 20
165.672
 30
0.000000
  70
    32
  0
VERTEX
  8
0
  5
3A32
 10
117.524
 20
165.682
 30
0.000000
  70
    32
  0
VERTEX
  8
0
  5
3A33
 10
117.535
 20
165.692
 30
0.000000
  70
    32
  0
VERTEX
  8
0
  5
3A34
 10
117.546
 20
165.703
 30
0.000000
  70
    32
  0
VERTEX
  8
0
  5
3A35
 10
117.557
 20
165.714
 30
0.000000
  70
    32
  0
VERTEX
  8
0
  5
3A36
 10
117.568
 20
165.725
 30
0.000000
  70
    32
  0
VERTEX
  8
0
  5
3A37
 10
117.579
 20
165.736
 30
0.000000
  70
    32
  0
VERTEX
  8
0
  5
3A38
 10
117.589
 20
165.748
 30
0.000000
  70
    32
  0
VERTEX
  8
0
  5
3A39
 10
117.600
 20
165.760
 30
0.000000
  70
    32
  0
VERTEX
  8
0
  5
3A3A
 10
117.611
 20
165.772
 30
0.000000
  70
    32
  0
VERTEX
  8
0
  5
3A3B
 10
117.621
 20
165.785
 30
0.000000
  70
    32
  0
VERTEX
  8
0
  5
3A3C
 10
117.632
 20
165.797
 30
0.000000
  70
    32
  0
VERTEX
  8
0
  5
3A3D
 10
117.642
 20
165.810
 30
0.000000
  70
    32
  0
VERTEX
  8
0
  5
3A3E
 10
117.653
 20
165.824
 30
0.000000
  70
    32
  0
VERTEX
  8
0
  5
3A3F
 10
117.663
 20
165.837
 30
0.000000
  70
    32
  0
VERTEX
  8
0
  5
3A40
 10
117.673
 20
165.851
 30
0.000000
  70
    32
  0
VERTEX
  8
0
  5
3A41
 10
117.683
 20
165.865
 30
0.000000
  70
    32
  0
VERTEX
  8
0
  5
3A42
 10
117.693
 20
165.879
 30
0.000000
  70
    32
  0
VERTEX
  8
0
  5
3A43
 10
117.703
 20
165.894
 30
0.000000
  70
    32
  0
VERTEX
  8
0
  5
3A44
 10
117.713
 20
165.908
 30
0.000000
  70
    32
  0
VERTEX
  8
0
  5
3A45
 10
117.722
 20
165.923
 30
0.000000
  70
    32
  0
VERTEX
  8
0
  5
3A46
 10
117.732
 20
165.939
 30
0.000000
  70
    32
  0
VERTEX
  8
0
  5
3A47
 10
117.742
 20
165.954
 30
0.000000
  70
    32
  0
VERTEX
  8
0
  5
3A48
 10
117.751
 20
165.970
 30
0.000000
  70
    32
  0
VERTEX
  8
0
  5
3A49
 10
117.760
 20
165.986
 30
0.000000
  70
    32
  0
VERTEX
  8
0
  5
3A4A
 10
117.770
 20
166.002
 30
0.000000
  70
    32
  0
VERTEX
  8
0
  5
3A4B
 10
117.779
 20
166.018
 30
0.000000
  70
    32
  0
VERTEX
  8
0
  5
3A4C
 10
117.788
 20
166.035
 30
0.000000
  70
    32
  0
VERTEX
  8
0
  5
3A4D
 10
117.797
 20
166.052
 30
0.000000
  70
    32
  0
VERTEX
  8
0
  5
3A4E
 10
117.806
 20
166.069
 30
0.000000
  70
    32
  0
VERTEX
  8
0
  5
3A4F
 10
117.814
 20
166.086
 30
0.000000
  70
    32
  0
VERTEX
  8
0
  5
3A50
 10
117.823
 20
166.103
 30
0.000000
  70
    32
  0
VERTEX
  8
0
  5
3A51
 10
117.831
 20
166.121
 30
0.000000
  70
    32
  0
VERTEX
  8
0
  5
3A52
 10
117.840
 20
166.139
 30
0.000000
  70
    32
  0
VERTEX
  8
0
  5
3A53
 10
117.848
 20
166.157
 30
0.000000
  70
    32
  0
VERTEX
  8
0
  5
3A54
 10
117.856
 20
166.175
 30
0.000000
  70
    32
  0
VERTEX
  8
0
  5
3A55
 10
117.864
 20
166.194
 30
0.000000
  70
    32
  0
VERTEX
  8
0
  5
3A56
 10
117.872
 20
166.212
 30
0.000000
  70
    32
  0
VERTEX
  8
0
  5
3A57
 10
117.880
 20
166.231
 30
0.000000
  70
    32
  0
VERTEX
  8
0
  5
3A58
 10
117.888
 20
166.250
 30
0.000000
  70
    32
  0
VERTEX
  8
0
  5
3A59
 10
117.896
 20
166.270
 30
0.000000
  70
    32
  0
VERTEX
  8
0
  5
3A5A
 10
117.903
 20
166.289
 30
0.000000
  70
    32
  0
VERTEX
  8
0
  5
3A5B
 10
117.910
 20
166.309
 30
0.000000
  70
    32
  0
VERTEX
  8
0
  5
3A5C
 10
117.918
 20
166.328
 30
0.000000
  70
    32
  0
VERTEX
  8
0
  5
3A5D
 10
117.925
 20
166.348
 30
0.000000
  70
    32
  0
VERTEX
  8
0
  5
3A5E
 10
117.932
 20
166.369
 30
0.000000
  70
    32
  0
VERTEX
  8
0
  5
3A5F
 10
117.939
 20
166.389
 30
0.000000
  70
    32
  0
VERTEX
  8
0
  5
3A60
 10
117.945
 20
166.409
 30
0.000000
  70
    32
  0
VERTEX
  8
0
  5
3A61
 10
117.952
 20
166.430
 30
0.000000
  70
    32
  0
VERTEX
  8
0
  5
3A62
 10
117.959
 20
166.451
 30
0.000000
  70
    32
  0
VERTEX
  8
0
  5
3A63
 10
117.965
 20
166.472
 30
0.000000
  70
    32
  0
VERTEX
  8
0
  5
3A64
 10
117.971
 20
166.493
 30
0.000000
  70
    32
  0
VERTEX
  8
0
  5
3A65
 10
117.977
 20
166.514
 30
0.000000
  70
    32
  0
VERTEX
  8
0
  5
3A66
 10
117.983
 20
166.536
 30
0.000000
  70
    32
  0
VERTEX
  8
0
  5
3A67
 10
117.989
 20
166.557
 30
0.000000
  70
    32
  0
VERTEX
  8
0
  5
3A68
 10
117.995
 20
166.579
 30
0.000000
  70
    32
  0
VERTEX
  8
0
  5
3A69
 10
118.000
 20
166.601
 30
0.000000
  70
    32
  0
VERTEX
  8
0
  5
3A6A
 10
118.006
 20
166.623
 30
0.000000
  70
    32
  0
VERTEX
  8
0
  5
3A6B
 10
118.011
 20
166.645
 30
0.000000
  70
    32
  0
VERTEX
  8
0
  5
3A6C
 10
118.016
 20
166.667
 30
0.000000
  70
    32
  0
VERTEX
  8
0
  5
3A6D
 10
118.021
 20
166.690
 30
0.000000
  70
    32
  0
VERTEX
  8
0
  5
3A6E
 10
118.026
 20
166.712
 30
0.000000
  70
    32
  0
VERTEX
  8
0
  5
3A6F
 10
118.031
 20
166.735
 30
0.000000
  70
    32
  0
VERTEX
  8
0
  5
3A70
 10
118.036
 20
166.757
 30
0.000000
  70
    32
  0
VERTEX
  8
0
  5
3A71
 10
118.040
 20
166.780
 30
0.000000
  70
    32
  0
VERTEX
  8
0
  5
3A72
 10
118.045
 20
166.803
 30
0.000000
  70
    32
  0
VERTEX
  8
0
  5
3A73
 10
118.049
 20
166.826
 30
0.000000
  70
    32
  0
VERTEX
  8
0
  5
3A74
 10
118.053
 20
166.849
 30
0.000000
  70
    32
  0
VERTEX
  8
0
  5
3A75
 10
118.057
 20
166.873
 30
0.000000
  70
    32
  0
VERTEX
  8
0
  5
3A76
 10
118.060
 20
166.896
 30
0.000000
  70
    32
  0
VERTEX
  8
0
  5
3A77
 10
118.064
 20
166.919
 30
0.000000
  70
    32
  0
VERTEX
  8
0
  5
3A78
 10
118.068
 20
166.943
 30
0.000000
  70
    32
  0
VERTEX
  8
0
  5
3A79
 10
118.071
 20
166.967
 30
0.000000
  70
    32
  0
VERTEX
  8
0
  5
3A7A
 10
118.074
 20
166.990
 30
0.000000
  70
    32
  0
VERTEX
  8
0
  5
3A7B
 10
118.077
 20
167.014
 30
0.000000
  70
    32
  0
VERTEX
  8
0
  5
3A7C
 10
118.080
 20
167.038
 30
0.000000
  70
    32
  0
VERTEX
  8
0
  5
3A7D
 10
118.083
 20
167.062
 30
0.000000
  70
    32
  0
VERTEX
  8
0
  5
3A7E
 10
118.086
 20
167.086
 30
0.000000
  70
    32
  0
VERTEX
  8
0
  5
3A7F
 10
118.088
 20
167.110
 30
0.000000
  70
    32
  0
VERTEX
  8
0
  5
3A80
 10
118.090
 20
167.134
 30
0.000000
  70
    32
  0
VERTEX
  8
0
  5
3A81
 10
118.092
 20
167.158
 30
0.000000
  70
    32
  0
VERTEX
  8
0
  5
3A82
 10
118.094
 20
167.182
 30
0.000000
  70
    32
  0
VERTEX
  8
0
  5
3A83
 10
118.096
 20
167.207
 30
0.000000
  70
    32
  0
VERTEX
  8
0
  5
3A84
 10
118.098
 20
167.231
 30
0.000000
  70
    32
  0
VERTEX
  8
0
  5
3A85
 10
118.100
 20
167.255
 30
0.000000
  70
    32
  0
VERTEX
  8
0
  5
3A86
 10
118.101
 20
167.280
 30
0.000000
  70
    32
  0
VERTEX
  8
0
  5
3A87
 10
118.102
 20
167.304
 30
0.000000
  70
    32
  0
VERTEX
  8
0
  5
3A88
 10
118.103
 20
167.328
 30
0.000000
  70
    32
  0
VERTEX
  8
0
  5
3A89
 10
118.104
 20
167.353
 30
0.000000
  70
    32
  0
VERTEX
  8
0
  5
3A8A
 10
118.105
 20
167.377
 30
0.000000
  70
    32
  0
VERTEX
  8
0
  5
3A8B
 10
118.106
 20
167.402
 30
0.000000
  70
    32
  0
VERTEX
  8
0
  5
3A8C
 10
118.107
 20
167.426
 30
0.000000
  70
    32
  0
VERTEX
  8
0
  5
3A8D
 10
118.107
 20
167.451
 30
0.000000
  70
    32
  0
VERTEX
  8
0
  5
3A8E
 10
118.107
 20
167.475
 30
0.000000
  70
    32
  0
VERTEX
  8
0
  5
3A8F
 10
118.107
 20
167.500
 30
0.000000
  70
    32
  0
SEQEND
  8
0
  5
3A90
  0
LINE
  5
323D
  8
0
 10
116.5773425469839
 20
172.87951918345061
 30
0.0
 11
116.5773425469839
 21
169.00000000000099
 31
0.0
  0
ARC
  5
323E
  8
0
 10
115.5773425469839
 20
169.00000000000099
 30
0.0
 40
1.0
 50
270.0
 51
0.0
  0
POLYLINE
  5
324E
  8
0
 10
117.1071858360767
 20
176.50000000000091
 30
0.0
 66
     1
 70
     8
  0
VERTEX
  8
0
  5
3A91
 10
117.107
 20
176.500
 30
0.000000
  70
    32
  0
VERTEX
  8
0
  5
3A92
 10
117.119
 20
176.500
 30
0.000000
  70
    32
  0
VERTEX
  8
0
  5
3A93
 10
117.132
 20
176.499
 30
0.000000
  70
    32
  0
VERTEX
  8
0
  5
3A94
 10
117.144
 20
176.499
 30
0.000000
  70
    32
  0
VERTEX
  8
0
  5
3A95
 10
117.156
 20
176.498
 30
0.000000
  70
    32
  0
VERTEX
  8
0
  5
3A96
 10
117.169
 20
176.496
 30
0.000000
  70
    32
  0
VERTEX
  8
0
  5
3A97
 10
117.181
 20
176.495
 30
0.000000
  70
    32
  0
VERTEX
  8
0
  5
3A98
 10
117.193
 20
176.493
 30
0.000000
  70
    32
  0
VERTEX
  8
0
  5
3A99
 10
117.205
 20
176.490
 30
0.000000
  70
    32
  0
VERTEX
  8
0
  5
3A9A
 10
117.217
 20
176.488
 30
0.000000
  70
    32
  0
VERTEX
  8
0
  5
3A9B
 10
117.230
 20
176.485
 30
0.000000
  70
    32
  0
VERTEX
  8
0
  5
3A9C
 10
117.242
 20
176.482
 30
0.000000
  70
    32
  0
VERTEX
  8
0
  5
3A9D
 10
117.254
 20
176.478
 30
0.000000
  70
    32
  0
VERTEX
  8
0
  5
3A9E
 10
117.266
 20
176.475
 30
0.000000
  70
    32
  0
VERTEX
  8
0
  5
3A9F
 10
117.278
 20
176.471
 30
0.000000
  70
    32
  0
VERTEX
  8
0
  5
3AA0
 10
117.290
 20
176.466
 30
0.000000
  70
    32
  0
VERTEX
  8
0
  5
3AA1
 10
117.302
 20
176.462
 30
0.000000
  70
    32
  0
VERTEX
  8
0
  5
3AA2
 10
117.314
 20
176.457
 30
0.000000
  70
    32
  0
VERTEX
  8
0
  5
3AA3
 10
117.326
 20
176.451
 30
0.000000
  70
    32
  0
VERTEX
  8
0
  5
3AA4
 10
117.338
 20
176.446
 30
0.000000
  70
    32
  0
VERTEX
  8
0
  5
3AA5
 10
117.350
 20
176.440
 30
0.000000
  70
    32
  0
VERTEX
  8
0
  5
3AA6
 10
117.362
 20
176.434
 30
0.000000
  70
    32
  0
VERTEX
  8
0
  5
3AA7
 10
117.374
 20
176.428
 30
0.000000
  70
    32
  0
VERTEX
  8
0
  5
3AA8
 10
117.386
 20
176.421
 30
0.000000
  70
    32
  0
VERTEX
  8
0
  5
3AA9
 10
117.397
 20
176.414
 30
0.000000
  70
    32
  0
VERTEX
  8
0
  5
3AAA
 10
117.409
 20
176.407
 30
0.000000
  70
    32
  0
VERTEX
  8
0
  5
3AAB
 10
117.421
 20
176.399
 30
0.000000
  70
    32
  0
VERTEX
  8
0
  5
3AAC
 10
117.432
 20
176.391
 30
0.000000
  70
    32
  0
VERTEX
  8
0
  5
3AAD
 10
117.444
 20
176.383
 30
0.000000
  70
    32
  0
VERTEX
  8
0
  5
3AAE
 10
117.456
 20
176.375
 30
0.000000
  70
    32
  0
VERTEX
  8
0
  5
3AAF
 10
117.467
 20
176.366
 30
0.000000
  70
    32
  0
VERTEX
  8
0
  5
3AB0
 10
117.479
 20
176.357
 30
0.000000
  70
    32
  0
VERTEX
  8
0
  5
3AB1
 10
117.490
 20
176.348
 30
0.000000
  70
    32
  0
VERTEX
  8
0
  5
3AB2
 10
117.501
 20
176.338
 30
0.000000
  70
    32
  0
VERTEX
  8
0
  5
3AB3
 10
117.512
 20
176.328
 30
0.000000
  70
    32
  0
VERTEX
  8
0
  5
3AB4
 10
117.524
 20
176.318
 30
0.000000
  70
    32
  0
VERTEX
  8
0
  5
3AB5
 10
117.535
 20
176.308
 30
0.000000
  70
    32
  0
VERTEX
  8
0
  5
3AB6
 10
117.546
 20
176.297
 30
0.000000
  70
    32
  0
VERTEX
  8
0
  5
3AB7
 10
117.557
 20
176.286
 30
0.000000
  70
    32
  0
VERTEX
  8
0
  5
3AB8
 10
117.568
 20
176.275
 30
0.000000
  70
    32
  0
VERTEX
  8
0
  5
3AB9
 10
117.579
 20
176.264
 30
0.000000
  70
    32
  0
VERTEX
  8
0
  5
3ABA
 10
117.589
 20
176.252
 30
0.000000
  70
    32
  0
VERTEX
  8
0
  5
3ABB
 10
117.600
 20
176.240
 30
0.000000
  70
    32
  0
VERTEX
  8
0
  5
3ABC
 10
117.611
 20
176.228
 30
0.000000
  70
    32
  0
VERTEX
  8
0
  5
3ABD
 10
117.621
 20
176.215
 30
0.000000
  70
    32
  0
VERTEX
  8
0
  5
3ABE
 10
117.632
 20
176.203
 30
0.000000
  70
    32
  0
VERTEX
  8
0
  5
3ABF
 10
117.642
 20
176.190
 30
0.000000
  70
    32
  0
VERTEX
  8
0
  5
3AC0
 10
117.653
 20
176.176
 30
0.000000
  70
    32
  0
VERTEX
  8
0
  5
3AC1
 10
117.663
 20
176.163
 30
0.000000
  70
    32
  0
VERTEX
  8
0
  5
3AC2
 10
117.673
 20
176.149
 30
0.000000
  70
    32
  0
VERTEX
  8
0
  5
3AC3
 10
117.683
 20
176.135
 30
0.000000
  70
    32
  0
VERTEX
  8
0
  5
3AC4
 10
117.693
 20
176.121
 30
0.000000
  70
    32
  0
VERTEX
  8
0
  5
3AC5
 10
117.703
 20
176.106
 30
0.000000
  70
    32
  0
VERTEX
  8
0
  5
3AC6
 10
117.713
 20
176.092
 30
0.000000
  70
    32
  0
VERTEX
  8
0
  5
3AC7
 10
117.722
 20
176.077
 30
0.000000
  70
    32
  0
VERTEX
  8
0
  5
3AC8
 10
117.732
 20
176.061
 30
0.000000
  70
    32
  0
VERTEX
  8
0
  5
3AC9
 10
117.742
 20
176.046
 30
0.000000
  70
    32
  0
VERTEX
  8
0
  5
3ACA
 10
117.751
 20
176.030
 30
0.000000
  70
    32
  0
VERTEX
  8
0
  5
3ACB
 10
117.760
 20
176.014
 30
0.000000
  70
    32
  0
VERTEX
  8
0
  5
3ACC
 10
117.770
 20
175.998
 30
0.000000
  70
    32
  0
VERTEX
  8
0
  5
3ACD
 10
117.779
 20
175.982
 30
0.000000
  70
    32
  0
VERTEX
  8
0
  5
3ACE
 10
117.788
 20
175.965
 30
0.000000
  70
    32
  0
VERTEX
  8
0
  5
3ACF
 10
117.797
 20
175.948
 30
0.000000
  70
    32
  0
VERTEX
  8
0
  5
3AD0
 10
117.806
 20
175.931
 30
0.000000
  70
    32
  0
VERTEX
  8
0
  5
3AD1
 10
117.814
 20
175.914
 30
0.000000
  70
    32
  0
VERTEX
  8
0
  5
3AD2
 10
117.823
 20
175.897
 30
0.000000
  70
    32
  0
VERTEX
  8
0
  5
3AD3
 10
117.831
 20
175.879
 30
0.000000
  70
    32
  0
VERTEX
  8
0
  5
3AD4
 10
117.840
 20
175.861
 30
0.000000
  70
    32
  0
VERTEX
  8
0
  5
3AD5
 10
117.848
 20
175.843
 30
0.000000
  70
    32
  0
VERTEX
  8
0
  5
3AD6
 10
117.856
 20
175.825
 30
0.000000
  70
    32
  0
VERTEX
  8
0
  5
3AD7
 10
117.864
 20
175.806
 30
0.000000
  70
    32
  0
VERTEX
  8
0
  5
3AD8
 10
117.872
 20
175.788
 30
0.000000
  70
    32
  0
VERTEX
  8
0
  5
3AD9
 10
117.880
 20
175.769
 30
0.000000
  70
    32
  0
VERTEX
  8
0
  5
3ADA
 10
117.888
 20
175.750
 30
0.000000
  70
    32
  0
VERTEX
  8
0
  5
3ADB
 10
117.896
 20
175.730
 30
0.000000
  70
    32
  0
VERTEX
  8
0
  5
3ADC
 10
117.903
 20
175.711
 30
0.000000
  70
    32
  0
VERTEX
  8
0
  5
3ADD
 10
117.910
 20
175.691
 30
0.000000
  70
    32
  0
VERTEX
  8
0
  5
3ADE
 10
117.918
 20
175.672
 30
0.000000
  70
    32
  0
VERTEX
  8
0
  5
3ADF
 10
117.925
 20
175.652
 30
0.000000
  70
    32
  0
VERTEX
  8
0
  5
3AE0
 10
117.932
 20
175.631
 30
0.000000
  70
    32
  0
VERTEX
  8
0
  5
3AE1
 10
117.939
 20
175.611
 30
0.000000
  70
    32
  0
VERTEX
  8
0
  5
3AE2
 10
117.945
 20
175.591
 30
0.000000
  70
    32
  0
VERTEX
  8
0
  5
3AE3
 10
117.952
 20
175.570
 30
0.000000
  70
    32
  0
VERTEX
  8
0
  5
3AE4
 10
117.959
 20
175.549
 30
0.000000
  70
    32
  0
VERTEX
  8
0
  5
3AE5
 10
117.965
 20
175.528
 30
0.000000
  70
    32
  0
VERTEX
  8
0
  5
3AE6
 10
117.971
 20
175.507
 30
0.000000
  70
    32
  0
VERTEX
  8
0
  5
3AE7
 10
117.977
 20
175.486
 30
0.000000
  70
    32
  0
VERTEX
  8
0
  5
3AE8
 10
117.983
 20
175.464
 30
0.000000
  70
    32
  0
VERTEX
  8
0
  5
3AE9
 10
117.989
 20
175.443
 30
0.000000
  70
    32
  0
VERTEX
  8
0
  5
3AEA
 10
117.995
 20
175.421
 30
0.000000
  70
    32
  0
VERTEX
  8
0
  5
3AEB
 10
118.000
 20
175.399
 30
0.000000
  70
    32
  0
VERTEX
  8
0
  5
3AEC
 10
118.006
 20
175.377
 30
0.000000
  70
    32
  0
VERTEX
  8
0
  5
3AED
 10
118.011
 20
175.355
 30
0.000000
  70
    32
  0
VERTEX
  8
0
  5
3AEE
 10
118.016
 20
175.333
 30
0.000000
  70
    32
  0
VERTEX
  8
0
  5
3AEF
 10
118.021
 20
175.310
 30
0.000000
  70
    32
  0
VERTEX
  8
0
  5
3AF0
 10
118.026
 20
175.288
 30
0.000000
  70
    32
  0
VERTEX
  8
0
  5
3AF1
 10
118.031
 20
175.265
 30
0.000000
  70
    32
  0
VERTEX
  8
0
  5
3AF2
 10
118.036
 20
175.243
 30
0.000000
  70
    32
  0
VERTEX
  8
0
  5
3AF3
 10
118.040
 20
175.220
 30
0.000000
  70
    32
  0
VERTEX
  8
0
  5
3AF4
 10
118.045
 20
175.197
 30
0.000000
  70
    32
  0
VERTEX
  8
0
  5
3AF5
 10
118.049
 20
175.174
 30
0.000000
  70
    32
  0
VERTEX
  8
0
  5
3AF6
 10
118.053
 20
175.151
 30
0.000000
  70
    32
  0
VERTEX
  8
0
  5
3AF7
 10
118.057
 20
175.127
 30
0.000000
  70
    32
  0
VERTEX
  8
0
  5
3AF8
 10
118.060
 20
175.104
 30
0.000000
  70
    32
  0
VERTEX
  8
0
  5
3AF9
 10
118.064
 20
175.081
 30
0.000000
  70
    32
  0
VERTEX
  8
0
  5
3AFA
 10
118.068
 20
175.057
 30
0.000000
  70
    32
  0
VERTEX
  8
0
  5
3AFB
 10
118.071
 20
175.033
 30
0.000000
  70
    32
  0
VERTEX
  8
0
  5
3AFC
 10
118.074
 20
175.010
 30
0.000000
  70
    32
  0
VERTEX
  8
0
  5
3AFD
 10
118.077
 20
174.986
 30
0.000000
  70
    32
  0
VERTEX
  8
0
  5
3AFE
 10
118.080
 20
174.962
 30
0.000000
  70
    32
  0
VERTEX
  8
0
  5
3AFF
 10
118.083
 20
174.938
 30
0.000000
  70
    32
  0
VERTEX
  8
0
  5
3B00
 10
118.086
 20
174.914
 30
0.000000
  70
    32
  0
VERTEX
  8
0
  5
3B01
 10
118.088
 20
174.890
 30
0.000000
  70
    32
  0
VERTEX
  8
0
  5
3B02
 10
118.090
 20
174.866
 30
0.000000
  70
    32
  0
VERTEX
  8
0
  5
3B03
 10
118.092
 20
174.842
 30
0.000000
  70
    32
  0
VERTEX
  8
0
  5
3B04
 10
118.094
 20
174.818
 30
0.000000
  70
    32
  0
VERTEX
  8
0
  5
3B05
 10
118.096
 20
174.793
 30
0.000000
  70
    32
  0
VERTEX
  8
0
  5
3B06
 10
118.098
 20
174.769
 30
0.000000
  70
    32
  0
VERTEX
  8
0
  5
3B07
 10
118.100
 20
174.745
 30
0.000000
  70
    32
  0
VERTEX
  8
0
  5
3B08
 10
118.101
 20
174.720
 30
0.000000
  70
    32
  0
VERTEX
  8
0
  5
3B09
 10
118.102
 20
174.696
 30
0.000000
  70
    32
  0
VERTEX
  8
0
  5
3B0A
 10
118.103
 20
174.672
 30
0.000000
  70
    32
  0
VERTEX
  8
0
  5
3B0B
 10
118.104
 20
174.647
 30
0.000000
  70
    32
  0
VERTEX
  8
0
  5
3B0C
 10
118.105
 20
174.623
 30
0.000000
  70
    32
  0
VERTEX
  8
0
  5
3B0D
 10
118.106
 20
174.598
 30
0.000000
  70
    32
  0
VERTEX
  8
0
  5
3B0E
 10
118.107
 20
174.574
 30
0.000000
  70
    32
  0
VERTEX
  8
0
  5
3B0F
 10
118.107
 20
174.549
 30
0.000000
  70
    32
  0
VERTEX
  8
0
  5
3B10
 10
118.107
 20
174.525
 30
0.000000
  70
    32
  0
VERTEX
  8
0
  5
3B11
 10
118.107
 20
174.500
 30
0.000000
  70
    32
  0
SEQEND
  8
0
  5
3B12
  0
POLYLINE
  5
326E
  8
0
 10
107.9928141639234
 20
176.50000000000091
 30
0.0
 66
     1
 70
     8
  0
VERTEX
  8
0
  5
3B13
 10
107.993
 20
176.500
 30
0.000000
  70
    32
  0
VERTEX
  8
0
  5
3B14
 10
107.981
 20
176.500
 30
0.000000
  70
    32
  0
VERTEX
  8
0
  5
3B15
 10
107.968
 20
176.499
 30
0.000000
  70
    32
  0
VERTEX
  8
0
  5
3B16
 10
107.956
 20
176.499
 30
0.000000
  70
    32
  0
VERTEX
  8
0
  5
3B17
 10
107.944
 20
176.498
 30
0.000000
  70
    32
  0
VERTEX
  8
0
  5
3B18
 10
107.931
 20
176.496
 30
0.000000
  70
    32
  0
VERTEX
  8
0
  5
3B19
 10
107.919
 20
176.495
 30
0.000000
  70
    32
  0
VERTEX
  8
0
  5
3B1A
 10
107.907
 20
176.493
 30
0.000000
  70
    32
  0
VERTEX
  8
0
  5
3B1B
 10
107.895
 20
176.490
 30
0.000000
  70
    32
  0
VERTEX
  8
0
  5
3B1C
 10
107.883
 20
176.488
 30
0.000000
  70
    32
  0
VERTEX
  8
0
  5
3B1D
 10
107.870
 20
176.485
 30
0.000000
  70
    32
  0
VERTEX
  8
0
  5
3B1E
 10
107.858
 20
176.482
 30
0.000000
  70
    32
  0
VERTEX
  8
0
  5
3B1F
 10
107.846
 20
176.478
 30
0.000000
  70
    32
  0
VERTEX
  8
0
  5
3B20
 10
107.834
 20
176.475
 30
0.000000
  70
    32
  0
VERTEX
  8
0
  5
3B21
 10
107.822
 20
176.471
 30
0.000000
  70
    32
  0
VERTEX
  8
0
  5
3B22
 10
107.810
 20
176.466
 30
0.000000
  70
    32
  0
VERTEX
  8
0
  5
3B23
 10
107.798
 20
176.462
 30
0.000000
  70
    32
  0
VERTEX
  8
0
  5
3B24
 10
107.786
 20
176.457
 30
0.000000
  70
    32
  0
VERTEX
  8
0
  5
3B25
 10
107.774
 20
176.451
 30
0.000000
  70
    32
  0
VERTEX
  8
0
  5
3B26
 10
107.762
 20
176.446
 30
0.000000
  70
    32
  0
VERTEX
  8
0
  5
3B27
 10
107.750
 20
176.440
 30
0.000000
  70
    32
  0
VERTEX
  8
0
  5
3B28
 10
107.738
 20
176.434
 30
0.000000
  70
    32
  0
VERTEX
  8
0
  5
3B29
 10
107.726
 20
176.428
 30
0.000000
  70
    32
  0
VERTEX
  8
0
  5
3B2A
 10
107.714
 20
176.421
 30
0.000000
  70
    32
  0
VERTEX
  8
0
  5
3B2B
 10
107.703
 20
176.414
 30
0.000000
  70
    32
  0
VERTEX
  8
0
  5
3B2C
 10
107.691
 20
176.407
 30
0.000000
  70
    32
  0
VERTEX
  8
0
  5
3B2D
 10
107.679
 20
176.399
 30
0.000000
  70
    32
  0
VERTEX
  8
0
  5
3B2E
 10
107.668
 20
176.391
 30
0.000000
  70
    32
  0
VERTEX
  8
0
  5
3B2F
 10
107.656
 20
176.383
 30
0.000000
  70
    32
  0
VERTEX
  8
0
  5
3B30
 10
107.644
 20
176.375
 30
0.000000
  70
    32
  0
VERTEX
  8
0
  5
3B31
 10
107.633
 20
176.366
 30
0.000000
  70
    32
  0
VERTEX
  8
0
  5
3B32
 10
107.621
 20
176.357
 30
0.000000
  70
    32
  0
VERTEX
  8
0
  5
3B33
 10
107.610
 20
176.348
 30
0.000000
  70
    32
  0
VERTEX
  8
0
  5
3B34
 10
107.599
 20
176.338
 30
0.000000
  70
    32
  0
VERTEX
  8
0
  5
3B35
 10
107.588
 20
176.328
 30
0.000000
  70
    32
  0
VERTEX
  8
0
  5
3B36
 10
107.576
 20
176.318
 30
0.000000
  70
    32
  0
VERTEX
  8
0
  5
3B37
 10
107.565
 20
176.308
 30
0.000000
  70
    32
  0
VERTEX
  8
0
  5
3B38
 10
107.554
 20
176.297
 30
0.000000
  70
    32
  0
VERTEX
  8
0
  5
3B39
 10
107.543
 20
176.286
 30
0.000000
  70
    32
  0
VERTEX
  8
0
  5
3B3A
 10
107.532
 20
176.275
 30
0.000000
  70
    32
  0
VERTEX
  8
0
  5
3B3B
 10
107.521
 20
176.264
 30
0.000000
  70
    32
  0
VERTEX
  8
0
  5
3B3C
 10
107.511
 20
176.252
 30
0.000000
  70
    32
  0
VERTEX
  8
0
  5
3B3D
 10
107.500
 20
176.240
 30
0.000000
  70
    32
  0
VERTEX
  8
0
  5
3B3E
 10
107.489
 20
176.228
 30
0.000000
  70
    32
  0
VERTEX
  8
0
  5
3B3F
 10
107.479
 20
176.215
 30
0.000000
  70
    32
  0
VERTEX
  8
0
  5
3B40
 10
107.468
 20
176.203
 30
0.000000
  70
    32
  0
VERTEX
  8
0
  5
3B41
 10
107.458
 20
176.190
 30
0.000000
  70
    32
  0
VERTEX
  8
0
  5
3B42
 10
107.447
 20
176.176
 30
0.000000
  70
    32
  0
VERTEX
  8
0
  5
3B43
 10
107.437
 20
176.163
 30
0.000000
  70
    32
  0
VERTEX
  8
0
  5
3B44
 10
107.427
 20
176.149
 30
0.000000
  70
    32
  0
VERTEX
  8
0
  5
3B45
 10
107.417
 20
176.135
 30
0.000000
  70
    32
  0
VERTEX
  8
0
  5
3B46
 10
107.407
 20
176.121
 30
0.000000
  70
    32
  0
VERTEX
  8
0
  5
3B47
 10
107.397
 20
176.106
 30
0.000000
  70
    32
  0
VERTEX
  8
0
  5
3B48
 10
107.387
 20
176.092
 30
0.000000
  70
    32
  0
VERTEX
  8
0
  5
3B49
 10
107.378
 20
176.077
 30
0.000000
  70
    32
  0
VERTEX
  8
0
  5
3B4A
 10
107.368
 20
176.061
 30
0.000000
  70
    32
  0
VERTEX
  8
0
  5
3B4B
 10
107.358
 20
176.046
 30
0.000000
  70
    32
  0
VERTEX
  8
0
  5
3B4C
 10
107.349
 20
176.030
 30
0.000000
  70
    32
  0
VERTEX
  8
0
  5
3B4D
 10
107.340
 20
176.014
 30
0.000000
  70
    32
  0
VERTEX
  8
0
  5
3B4E
 10
107.330
 20
175.998
 30
0.000000
  70
    32
  0
VERTEX
  8
0
  5
3B4F
 10
107.321
 20
175.982
 30
0.000000
  70
    32
  0
VERTEX
  8
0
  5
3B50
 10
107.312
 20
175.965
 30
0.000000
  70
    32
  0
VERTEX
  8
0
  5
3B51
 10
107.303
 20
175.948
 30
0.000000
  70
    32
  0
VERTEX
  8
0
  5
3B52
 10
107.294
 20
175.931
 30
0.000000
  70
    32
  0
VERTEX
  8
0
  5
3B53
 10
107.286
 20
175.914
 30
0.000000
  70
    32
  0
VERTEX
  8
0
  5
3B54
 10
107.277
 20
175.897
 30
0.000000
  70
    32
  0
VERTEX
  8
0
  5
3B55
 10
107.269
 20
175.879
 30
0.000000
  70
    32
  0
VERTEX
  8
0
  5
3B56
 10
107.260
 20
175.861
 30
0.000000
  70
    32
  0
VERTEX
  8
0
  5
3B57
 10
107.252
 20
175.843
 30
0.000000
  70
    32
  0
VERTEX
  8
0
  5
3B58
 10
107.244
 20
175.825
 30
0.000000
  70
    32
  0
VERTEX
  8
0
  5
3B59
 10
107.236
 20
175.806
 30
0.000000
  70
    32
  0
VERTEX
  8
0
  5
3B5A
 10
107.228
 20
175.788
 30
0.000000
  70
    32
  0
VERTEX
  8
0
  5
3B5B
 10
107.220
 20
175.769
 30
0.000000
  70
    32
  0
VERTEX
  8
0
  5
3B5C
 10
107.212
 20
175.750
 30
0.000000
  70
    32
  0
VERTEX
  8
0
  5
3B5D
 10
107.204
 20
175.730
 30
0.000000
  70
    32
  0
VERTEX
  8
0
  5
3B5E
 10
107.197
 20
175.711
 30
0.000000
  70
    32
  0
VERTEX
  8
0
  5
3B5F
 10
107.190
 20
175.691
 30
0.000000
  70
    32
  0
VERTEX
  8
0
  5
3B60
 10
107.182
 20
175.672
 30
0.000000
  70
    32
  0
VERTEX
  8
0
  5
3B61
 10
107.175
 20
175.652
 30
0.000000
  70
    32
  0
VERTEX
  8
0
  5
3B62
 10
107.168
 20
175.631
 30
0.000000
  70
    32
  0
VERTEX
  8
0
  5
3B63
 10
107.161
 20
175.611
 30
0.000000
  70
    32
  0
VERTEX
  8
0
  5
3B64
 10
107.155
 20
175.591
 30
0.000000
  70
    32
  0
VERTEX
  8
0
  5
3B65
 10
107.148
 20
175.570
 30
0.000000
  70
    32
  0
VERTEX
  8
0
  5
3B66
 10
107.141
 20
175.549
 30
0.000000
  70
    32
  0
VERTEX
  8
0
  5
3B67
 10
107.135
 20
175.528
 30
0.000000
  70
    32
  0
VERTEX
  8
0
  5
3B68
 10
107.129
 20
175.507
 30
0.000000
  70
    32
  0
VERTEX
  8
0
  5
3B69
 10
107.123
 20
175.486
 30
0.000000
  70
    32
  0
VERTEX
  8
0
  5
3B6A
 10
107.117
 20
175.464
 30
0.000000
  70
    32
  0
VERTEX
  8
0
  5
3B6B
 10
107.111
 20
175.443
 30
0.000000
  70
    32
  0
VERTEX
  8
0
  5
3B6C
 10
107.105
 20
175.421
 30
0.000000
  70
    32
  0
VERTEX
  8
0
  5
3B6D
 10
107.100
 20
175.399
 30
0.000000
  70
    32
  0
VERTEX
  8
0
  5
3B6E
 10
107.094
 20
175.377
 30
0.000000
  70
    32
  0
VERTEX
  8
0
  5
3B6F
 10
107.089
 20
175.355
 30
0.000000
  70
    32
  0
VERTEX
  8
0
  5
3B70
 10
107.084
 20
175.333
 30
0.000000
  70
    32
  0
VERTEX
  8
0
  5
3B71
 10
107.079
 20
175.310
 30
0.000000
  70
    32
  0
VERTEX
  8
0
  5
3B72
 10
107.074
 20
175.288
 30
0.000000
  70
    32
  0
VERTEX
  8
0
  5
3B73
 10
107.069
 20
175.265
 30
0.000000
  70
    32
  0
VERTEX
  8
0
  5
3B74
 10
107.064
 20
175.243
 30
0.000000
  70
    32
  0
VERTEX
  8
0
  5
3B75
 10
107.060
 20
175.220
 30
0.000000
  70
    32
  0
VERTEX
  8
0
  5
3B76
 10
107.055
 20
175.197
 30
0.000000
  70
    32
  0
VERTEX
  8
0
  5
3B77
 10
107.051
 20
175.174
 30
0.000000
  70
    32
  0
VERTEX
  8
0
  5
3B78
 10
107.047
 20
175.151
 30
0.000000
  70
    32
  0
VERTEX
  8
0
  5
3B79
 10
107.043
 20
175.127
 30
0.000000
  70
    32
  0
VERTEX
  8
0
  5
3B7A
 10
107.040
 20
175.104
 30
0.000000
  70
    32
  0
VERTEX
  8
0
  5
3B7B
 10
107.036
 20
175.081
 30
0.000000
  70
    32
  0
VERTEX
  8
0
  5
3B7C
 10
107.032
 20
175.057
 30
0.000000
  70
    32
  0
VERTEX
  8
0
  5
3B7D
 10
107.029
 20
175.033
 30
0.000000
  70
    32
  0
VERTEX
  8
0
  5
3B7E
 10
107.026
 20
175.010
 30
0.000000
  70
    32
  0
VERTEX
  8
0
  5
3B7F
 10
107.023
 20
174.986
 30
0.000000
  70
    32
  0
VERTEX
  8
0
  5
3B80
 10
107.020
 20
174.962
 30
0.000000
  70
    32
  0
VERTEX
  8
0
  5
3B81
 10
107.017
 20
174.938
 30
0.000000
  70
    32
  0
VERTEX
  8
0
  5
3B82
 10
107.014
 20
174.914
 30
0.000000
  70
    32
  0
VERTEX
  8
0
  5
3B83
 10
107.012
 20
174.890
 30
0.000000
  70
    32
  0
VERTEX
  8
0
  5
3B84
 10
107.010
 20
174.866
 30
0.000000
  70
    32
  0
VERTEX
  8
0
  5
3B85
 10
107.008
 20
174.842
 30
0.000000
  70
    32
  0
VERTEX
  8
0
  5
3B86
 10
107.006
 20
174.818
 30
0.000000
  70
    32
  0
VERTEX
  8
0
  5
3B87
 10
107.004
 20
174.793
 30
0.000000
  70
    32
  0
VERTEX
  8
0
  5
3B88
 10
107.002
 20
174.769
 30
0.000000
  70
    32
  0
VERTEX
  8
0
  5
3B89
 10
107.000
 20
174.745
 30
0.000000
  70
    32
  0
VERTEX
  8
0
  5
3B8A
 10
106.999
 20
174.720
 30
0.000000
  70
    32
  0
VERTEX
  8
0
  5
3B8B
 10
106.998
 20
174.696
 30
0.000000
  70
    32
  0
VERTEX
  8
0
  5
3B8C
 10
106.997
 20
174.672
 30
0.000000
  70
    32
  0
VERTEX
  8
0
  5
3B8D
 10
106.996
 20
174.647
 30
0.000000
  70
    32
  0
VERTEX
  8
0
  5
3B8E
 10
106.995
 20
174.623
 30
0.000000
  70
    32
  0
VERTEX
  8
0
  5
3B8F
 10
106.994
 20
174.598
 30
0.000000
  70
    32
  0
VERTEX
  8
0
  5
3B90
 10
106.993
 20
174.574
 30
0.000000
  70
    32
  0
VERTEX
  8
0
  5
3B91
 10
106.993
 20
174.549
 30
0.000000
  70
    32
  0
VERTEX
  8
0
  5
3B92
 10
106.993
 20
174.525
 30
0.000000
  70
    32
  0
VERTEX
  8
0
  5
3B93
 10
106.993
 20
174.500
 30
0.000000
  70
    32
  0
SEQEND
  8
0
  5
3B94
  0
ARC
  5
326F
  8
0
 10
109.52265745301619
 20
169.00000000000099
 30
0.0
 40
1.0
 50
180.0
 51
270.0
  0
LINE
  5
3270
  8
0
 10
108.52265745301619
 20
172.87951918345061
 30
0.0
 11
108.52265745301619
 21
169.00000000000099
 31
0.0
  0
POLYLINE
  5
3271
  8
0
 10
107.9928141639234
 20
165.50000000000091
 30
0.0
 66
     1
 70
     8
  0
VERTEX
  8
0
  5
3B95
 10
107.993
 20
165.500
 30
0.000000
  70
    32
  0
VERTEX
  8
0
  5
3B96
 10
107.981
 20
165.500
 30
0.000000
  70
    32
  0
VERTEX
  8
0
  5
3B97
 10
107.968
 20
165.501
 30
0.000000
  70
    32
  0
VERTEX
  8
0
  5
3B98
 10
107.956
 20
165.501
 30
0.000000
  70
    32
  0
VERTEX
  8
0
  5
3B99
 10
107.944
 20
165.502
 30
0.000000
  70
    32
  0
VERTEX
  8
0
  5
3B9A
 10
107.931
 20
165.504
 30
0.000000
  70
    32
  0
VERTEX
  8
0
  5
3B9B
 10
107.919
 20
165.505
 30
0.000000
  70
    32
  0
VERTEX
  8
0
  5
3B9C
 10
107.907
 20
165.507
 30
0.000000
  70
    32
  0
VERTEX
  8
0
  5
3B9D
 10
107.895
 20
165.510
 30
0.000000
  70
    32
  0
VERTEX
  8
0
  5
3B9E
 10
107.883
 20
165.512
 30
0.000000
  70
    32
  0
VERTEX
  8
0
  5
3B9F
 10
107.870
 20
165.515
 30
0.000000
  70
    32
  0
VERTEX
  8
0
  5
3BA0
 10
107.858
 20
165.518
 30
0.000000
  70
    32
  0
VERTEX
  8
0
  5
3BA1
 10
107.846
 20
165.522
 30
0.000000
  70
    32
  0
VERTEX
  8
0
  5
3BA2
 10
107.834
 20
165.525
 30
0.000000
  70
    32
  0
VERTEX
  8
0
  5
3BA3
 10
107.822
 20
165.529
 30
0.000000
  70
    32
  0
VERTEX
  8
0
  5
3BA4
 10
107.810
 20
165.534
 30
0.000000
  70
    32
  0
VERTEX
  8
0
  5
3BA5
 10
107.798
 20
165.538
 30
0.000000
  70
    32
  0
VERTEX
  8
0
  5
3BA6
 10
107.786
 20
165.543
 30
0.000000
  70
    32
  0
VERTEX
  8
0
  5
3BA7
 10
107.774
 20
165.549
 30
0.000000
  70
    32
  0
VERTEX
  8
0
  5
3BA8
 10
107.762
 20
165.554
 30
0.000000
  70
    32
  0
VERTEX
  8
0
  5
3BA9
 10
107.750
 20
165.560
 30
0.000000
  70
    32
  0
VERTEX
  8
0
  5
3BAA
 10
107.738
 20
165.566
 30
0.000000
  70
    32
  0
VERTEX
  8
0
  5
3BAB
 10
107.726
 20
165.572
 30
0.000000
  70
    32
  0
VERTEX
  8
0
  5
3BAC
 10
107.714
 20
165.579
 30
0.000000
  70
    32
  0
VERTEX
  8
0
  5
3BAD
 10
107.703
 20
165.586
 30
0.000000
  70
    32
  0
VERTEX
  8
0
  5
3BAE
 10
107.691
 20
165.593
 30
0.000000
  70
    32
  0
VERTEX
  8
0
  5
3BAF
 10
107.679
 20
165.601
 30
0.000000
  70
    32
  0
VERTEX
  8
0
  5
3BB0
 10
107.668
 20
165.609
 30
0.000000
  70
    32
  0
VERTEX
  8
0
  5
3BB1
 10
107.656
 20
165.617
 30
0.000000
  70
    32
  0
VERTEX
  8
0
  5
3BB2
 10
107.644
 20
165.625
 30
0.000000
  70
    32
  0
VERTEX
  8
0
  5
3BB3
 10
107.633
 20
165.634
 30
0.000000
  70
    32
  0
VERTEX
  8
0
  5
3BB4
 10
107.621
 20
165.643
 30
0.000000
  70
    32
  0
VERTEX
  8
0
  5
3BB5
 10
107.610
 20
165.652
 30
0.000000
  70
    32
  0
VERTEX
  8
0
  5
3BB6
 10
107.599
 20
165.662
 30
0.000000
  70
    32
  0
VERTEX
  8
0
  5
3BB7
 10
107.588
 20
165.672
 30
0.000000
  70
    32
  0
VERTEX
  8
0
  5
3BB8
 10
107.576
 20
165.682
 30
0.000000
  70
    32
  0
VERTEX
  8
0
  5
3BB9
 10
107.565
 20
165.692
 30
0.000000
  70
    32
  0
VERTEX
  8
0
  5
3BBA
 10
107.554
 20
165.703
 30
0.000000
  70
    32
  0
VERTEX
  8
0
  5
3BBB
 10
107.543
 20
165.714
 30
0.000000
  70
    32
  0
VERTEX
  8
0
  5
3BBC
 10
107.532
 20
165.725
 30
0.000000
  70
    32
  0
VERTEX
  8
0
  5
3BBD
 10
107.521
 20
165.736
 30
0.000000
  70
    32
  0
VERTEX
  8
0
  5
3BBE
 10
107.511
 20
165.748
 30
0.000000
  70
    32
  0
VERTEX
  8
0
  5
3BBF
 10
107.500
 20
165.760
 30
0.000000
  70
    32
  0
VERTEX
  8
0
  5
3BC0
 10
107.489
 20
165.772
 30
0.000000
  70
    32
  0
VERTEX
  8
0
  5
3BC1
 10
107.479
 20
165.785
 30
0.000000
  70
    32
  0
VERTEX
  8
0
  5
3BC2
 10
107.468
 20
165.797
 30
0.000000
  70
    32
  0
VERTEX
  8
0
  5
3BC3
 10
107.458
 20
165.810
 30
0.000000
  70
    32
  0
VERTEX
  8
0
  5
3BC4
 10
107.447
 20
165.824
 30
0.000000
  70
    32
  0
VERTEX
  8
0
  5
3BC5
 10
107.437
 20
165.837
 30
0.000000
  70
    32
  0
VERTEX
  8
0
  5
3BC6
 10
107.427
 20
165.851
 30
0.000000
  70
    32
  0
VERTEX
  8
0
  5
3BC7
 10
107.417
 20
165.865
 30
0.000000
  70
    32
  0
VERTEX
  8
0
  5
3BC8
 10
107.407
 20
165.879
 30
0.000000
  70
    32
  0
VERTEX
  8
0
  5
3BC9
 10
107.397
 20
165.894
 30
0.000000
  70
    32
  0
VERTEX
  8
0
  5
3BCA
 10
107.387
 20
165.908
 30
0.000000
  70
    32
  0
VERTEX
  8
0
  5
3BCB
 10
107.378
 20
165.923
 30
0.000000
  70
    32
  0
VERTEX
  8
0
  5
3BCC
 10
107.368
 20
165.939
 30
0.000000
  70
    32
  0
VERTEX
  8
0
  5
3BCD
 10
107.358
 20
165.954
 30
0.000000
  70
    32
  0
VERTEX
  8
0
  5
3BCE
 10
107.349
 20
165.970
 30
0.000000
  70
    32
  0
VERTEX
  8
0
  5
3BCF
 10
107.340
 20
165.986
 30
0.000000
  70
    32
  0
VERTEX
  8
0
  5
3BD0
 10
107.330
 20
166.002
 30
0.000000
  70
    32
  0
VERTEX
  8
0
  5
3BD1
 10
107.321
 20
166.018
 30
0.000000
  70
    32
  0
VERTEX
  8
0
  5
3BD2
 10
107.312
 20
166.035
 30
0.000000
  70
    32
  0
VERTEX
  8
0
  5
3BD3
 10
107.303
 20
166.052
 30
0.000000
  70
    32
  0
VERTEX
  8
0
  5
3BD4
 10
107.294
 20
166.069
 30
0.000000
  70
    32
  0
VERTEX
  8
0
  5
3BD5
 10
107.286
 20
166.086
 30
0.000000
  70
    32
  0
VERTEX
  8
0
  5
3BD6
 10
107.277
 20
166.103
 30
0.000000
  70
    32
  0
VERTEX
  8
0
  5
3BD7
 10
107.269
 20
166.121
 30
0.000000
  70
    32
  0
VERTEX
  8
0
  5
3BD8
 10
107.260
 20
166.139
 30
0.000000
  70
    32
  0
VERTEX
  8
0
  5
3BD9
 10
107.252
 20
166.157
 30
0.000000
  70
    32
  0
VERTEX
  8
0
  5
3BDA
 10
107.244
 20
166.175
 30
0.000000
  70
    32
  0
VERTEX
  8
0
  5
3BDB
 10
107.236
 20
166.194
 30
0.000000
  70
    32
  0
VERTEX
  8
0
  5
3BDC
 10
107.228
 20
166.212
 30
0.000000
  70
    32
  0
VERTEX
  8
0
  5
3BDD
 10
107.220
 20
166.231
 30
0.000000
  70
    32
  0
VERTEX
  8
0
  5
3BDE
 10
107.212
 20
166.250
 30
0.000000
  70
    32
  0
VERTEX
  8
0
  5
3BDF
 10
107.204
 20
166.270
 30
0.000000
  70
    32
  0
VERTEX
  8
0
  5
3BE0
 10
107.197
 20
166.289
 30
0.000000
  70
    32
  0
VERTEX
  8
0
  5
3BE1
 10
107.190
 20
166.309
 30
0.000000
  70
    32
  0
VERTEX
  8
0
  5
3BE2
 10
107.182
 20
166.328
 30
0.000000
  70
    32
  0
VERTEX
  8
0
  5
3BE3
 10
107.175
 20
166.348
 30
0.000000
  70
    32
  0
VERTEX
  8
0
  5
3BE4
 10
107.168
 20
166.369
 30
0.000000
  70
    32
  0
VERTEX
  8
0
  5
3BE5
 10
107.161
 20
166.389
 30
0.000000
  70
    32
  0
VERTEX
  8
0
  5
3BE6
 10
107.155
 20
166.409
 30
0.000000
  70
    32
  0
VERTEX
  8
0
  5
3BE7
 10
107.148
 20
166.430
 30
0.000000
  70
    32
  0
VERTEX
  8
0
  5
3BE8
 10
107.141
 20
166.451
 30
0.000000
  70
    32
  0
VERTEX
  8
0
  5
3BE9
 10
107.135
 20
166.472
 30
0.000000
  70
    32
  0
VERTEX
  8
0
  5
3BEA
 10
107.129
 20
166.493
 30
0.000000
  70
    32
  0
VERTEX
  8
0
  5
3BEB
 10
107.123
 20
166.514
 30
0.000000
  70
    32
  0
VERTEX
  8
0
  5
3BEC
 10
107.117
 20
166.536
 30
0.000000
  70
    32
  0
VERTEX
  8
0
  5
3BED
 10
107.111
 20
166.557
 30
0.000000
  70
    32
  0
VERTEX
  8
0
  5
3BEE
 10
107.105
 20
166.579
 30
0.000000
  70
    32
  0
VERTEX
  8
0
  5
3BEF
 10
107.100
 20
166.601
 30
0.000000
  70
    32
  0
VERTEX
  8
0
  5
3BF0
 10
107.094
 20
166.623
 30
0.000000
  70
    32
  0
VERTEX
  8
0
  5
3BF1
 10
107.089
 20
166.645
 30
0.000000
  70
    32
  0
VERTEX
  8
0
  5
3BF2
 10
107.084
 20
166.667
 30
0.000000
  70
    32
  0
VERTEX
  8
0
  5
3BF3
 10
107.079
 20
166.690
 30
0.000000
  70
    32
  0
VERTEX
  8
0
  5
3BF4
 10
107.074
 20
166.712
 30
0.000000
  70
    32
  0
VERTEX
  8
0
  5
3BF5
 10
107.069
 20
166.735
 30
0.000000
  70
    32
  0
VERTEX
  8
0
  5
3BF6
 10
107.064
 20
166.757
 30
0.000000
  70
    32
  0
VERTEX
  8
0
  5
3BF7
 10
107.060
 20
166.780
 30
0.000000
  70
    32
  0
VERTEX
  8
0
  5
3BF8
 10
107.055
 20
166.803
 30
0.000000
  70
    32
  0
VERTEX
  8
0
  5
3BF9
 10
107.051
 20
166.826
 30
0.000000
  70
    32
  0
VERTEX
  8
0
  5
3BFA
 10
107.047
 20
166.849
 30
0.000000
  70
    32
  0
VERTEX
  8
0
  5
3BFB
 10
107.043
 20
166.873
 30
0.000000
  70
    32
  0
VERTEX
  8
0
  5
3BFC
 10
107.040
 20
166.896
 30
0.000000
  70
    32
  0
VERTEX
  8
0
  5
3BFD
 10
107.036
 20
166.919
 30
0.000000
  70
    32
  0
VERTEX
  8
0
  5
3BFE
 10
107.032
 20
166.943
 30
0.000000
  70
    32
  0
VERTEX
  8
0
  5
3BFF
 10
107.029
 20
166.967
 30
0.000000
  70
    32
  0
VERTEX
  8
0
  5
3C00
 10
107.026
 20
166.990
 30
0.000000
  70
    32
  0
VERTEX
  8
0
  5
3C01
 10
107.023
 20
167.014
 30
0.000000
  70
    32
  0
VERTEX
  8
0
  5
3C02
 10
107.020
 20
167.038
 30
0.000000
  70
    32
  0
VERTEX
  8
0
  5
3C03
 10
107.017
 20
167.062
 30
0.000000
  70
    32
  0
VERTEX
  8
0
  5
3C04
 10
107.014
 20
167.086
 30
0.000000
  70
    32
  0
VERTEX
  8
0
  5
3C05
 10
107.012
 20
167.110
 30
0.000000
  70
    32
  0
VERTEX
  8
0
  5
3C06
 10
107.010
 20
167.134
 30
0.000000
  70
    32
  0
VERTEX
  8
0
  5
3C07
 10
107.008
 20
167.158
 30
0.000000
  70
    32
  0
VERTEX
  8
0
  5
3C08
 10
107.006
 20
167.182
 30
0.000000
  70
    32
  0
VERTEX
  8
0
  5
3C09
 10
107.004
 20
167.207
 30
0.000000
  70
    32
  0
VERTEX
  8
0
  5
3C0A
 10
107.002
 20
167.231
 30
0.000000
  70
    32
  0
VERTEX
  8
0
  5
3C0B
 10
107.000
 20
167.255
 30
0.000000
  70
    32
  0
VERTEX
  8
0
  5
3C0C
 10
106.999
 20
167.280
 30
0.000000
  70
    32
  0
VERTEX
  8
0
  5
3C0D
 10
106.998
 20
167.304
 30
0.000000
  70
    32
  0
VERTEX
  8
0
  5
3C0E
 10
106.997
 20
167.328
 30
0.000000
  70
    32
  0
VERTEX
  8
0
  5
3C0F
 10
106.996
 20
167.353
 30
0.000000
  70
    32
  0
VERTEX
  8
0
  5
3C10
 10
106.995
 20
167.377
 30
0.000000
  70
    32
  0
VERTEX
  8
0
  5
3C11
 10
106.994
 20
167.402
 30
0.000000
  70
    32
  0
VERTEX
  8
0
  5
3C12
 10
106.993
 20
167.426
 30
0.000000
  70
    32
  0
VERTEX
  8
0
  5
3C13
 10
106.993
 20
167.451
 30
0.000000
  70
    32
  0
VERTEX
  8
0
  5
3C14
 10
106.993
 20
167.475
 30
0.000000
  70
    32
  0
VERTEX
  8
0
  5
3C15
 10
106.993
 20
167.500
 30
0.000000
  70
    32
  0
SEQEND
  8
0
  5
3C16
  0
ARC
  5
3272
  8
0
 10
109.52265745301619
 20
172.87951918345061
 30
0.0
 40
1.0
 50
90.0
 51
180.0
  0
LINE
  5
3273
  8
0
 10
106.9928141639234
 20
174.50000000000091
 30
0.0
 11
106.9928141639234
 21
167.50000000000091
 31
0.0
  0
LINE
  5
3274
  8
0
 10
108.52265745301619
 20
169.00000000000099
 30
0.0
 11
106.9928141639234
 21
167.50000000000091
 31
0.0
  0
LINE
  5
3275
  8
0
 10
109.52265745301619
 20
168.00000000000091
 30
0.0
 11
107.9928141639234
 21
165.50000000000099
 31
0.0
  0
LINE
  5
3278
  8
0
 10
115.5773425469839
 20
168.00000000000091
 30
0.0
 11
117.1071858360767
 21
165.50000000000099
 31
0.0
  0
LINE
  5
3279
  8
0
 10
116.5773425469839
 20
169.00000000000099
 30
0.0
 11
118.1071858360767
 21
167.50000000000091
 31
0.0
  0
LINE
  5
327E
  8
0
 10
118.1071858360767
 20
174.50000000000091
 30
0.0
 11
116.5773425469839
 21
172.87951918345061
 31
0.0
  0
LINE
  5
327F
  8
0
 10
115.5773425469839
 20
173.87951918345061
 30
0.0
 11
117.1071858360767
 21
176.50000000000091
 31
0.0
  0
LINE
  5
3280
  8
0
 10
106.9928141639234
 20
174.50000000000091
 30
0.0
 11
108.52265745301619
 21
172.87951918345061
 31
0.0
  0
LINE
  5
3281
  8
0
 10
109.52265745301619
 20
173.87951918345061
 30
0.0
 11
107.9928141639234
 21
176.50000000000091
 31
0.0
  0
LINE
  5
3283
  8
0
 10
116.40000000000011
 20
179.50000000000091
 30
0.0
 11
116.40000000000011
 21
176.50000000000091
 31
0.0
  0
ARC
  5
3284
  8
0
 10
115.90000000000011
 20
179.50000000000091
 30
0.0
 40
0.5
 50
0.0
 51
90.0
  0
LINE
  5
3285
  8
0
 10
108.7
 20
179.50000000000091
 30
0.0
 11
116.40000000000011
 21
179.5000000000008
 31
0.0
  0
LINE
  5
3286
  8
0
 10
115.90000000000011
 20
180.00000000000091
 30
0.0
 11
109.2
 21
180.00000000000091
 31
0.0
  0
ARC
  5
3287
  8
0
 10
109.2
 20
179.50000000000091
 30
0.0
 40
0.5
 50
90.0
 51
180.0
  0
LINE
  5
3288
  8
0
 10
108.7
 20
179.50000000000091
 30
0.0
 11
108.7
 21
176.50000000000091
 31
0.0
  0
TEXT
  5
3357
  8
0
 62
     3
 10
0.0
 20
0.0
 30
0.0
 40
10.0
  1
BJ773-10100-SUS
  7
STANDARD1
  0
LINE
  5
33AE
  8
0
 10
42.950000000000003
 20
165.50000000000099
 30
0.0
 11
42.95000000000001
 21
144.00000000000091
 31
0.0
  0
LINE
  5
33B1
  8
0
 10
57.050000000000011
 20
165.50000000000099
 30
0.0
 11
57.050000000000011
 21
144.00000000000091
 31
0.0
  0
LINE
  5
33B2
  8
0
 10
119.59999999999999
 20
175.50000000000091
 30
0.0
 11
119.59999999999999
 21
144.00000000000091
 31
0.0
  0
LINE
  5
33B3
  8
0
 10
105.5000000000001
 20
175.50000000000091
 30
0.0
 11
105.5
 21
144.00000000000091
 31
0.0
  0
ARC
  5
34A9
  8
0
 10
50.0
 20
217.05000000000089
 30
0.0
 40
7.0499999999999989
 50
231.76770559408939
 51
308.23229440591041
  0
ARC
  5
34AA
  8
0
 10
50.0
 20
217.05000000000089
 30
0.0
 40
7.0499999999999989
 50
51.7677055940893
 51
128.23229440591069
  0
ARC
  5
34AB
  8
0
 10
44.70882189458888
 20
210.333904835635
 30
0.0
 40
1.5
 50
51.767705594090053
 51
86.391580273524823
  0
ARC
  5
34AC
  8
0
 10
55.29117810541112
 20
210.333904835635
 30
0.0
 40
1.5
 50
93.608419726474764
 51
128.23229440591081
  0
ARC
  5
34AD
  8
0
 10
55.291178105411163
 20
223.76609516436679
 30
0.0
 40
1.5
 50
231.7677055940888
 51
266.39158027352522
  0
ARC
  5
34AF
  8
0
 10
44.70882189458883
 20
223.76609516436679
 30
0.0
 40
1.5
 50
273.60841972647478
 51
308.23229440591109
  0
ARC
  5
3511
  8
0
 10
45.836110210726709
 20
175.48639039698639
 30
0.0
 40
1.032972345589376
 50
101.1080032871142
 51
179.24449688501869
  0
LINE
  5
3513
  8
0
 10
44.803227705455591
 20
175.50029232817519
 30
0.0
 11
44.803227705455619
 21
168.00000000000091
 31
0.0
  0
LINE
  5
3514
  8
0
 10
44.803227705455619
 20
168.00000000000091
 30
0.0
 11
25.500000000000028
 21
168.00000000000091
 31
0.0
  0
ARC
  5
3515
  8
0
 10
38.061929458672722
 20
168.07204476741799
 30
0.0
 40
6.7416832097474311
 50
337.5725213127086
 51
359.38769895411218
  0
ENDSEC
  0
EOF
