  0
SECTION
  2
HEADER
  9
$ACADVER
  1
AC1009
  9
$INSBASE
 10
0.0
 20
0.0
 30
0.0
  9
$EXTMIN
 10
0.0
 20
-2.960436562073669
 30
0.0
  9
$EXTMAX
 10
116.4870395634379
 20
220.99999998805021
 30
0.0
  9
$LIMMIN
 10
0.0
 20
0.0
  9
$LIMMAX
 10
12.0
 20
9.0
  9
$ORTHOMODE
 70
     1
  9
$REGENMODE
 70
     1
  9
$FILLMODE
 70
     1
  9
$QTEXTMODE
 70
     0
  9
$MIRRTEXT
 70
     0
  9
$DRAGMODE
 70
     2
  9
$LTSCALE
 40
10.0
  9
$OSMODE
 70
    37
  9
$ATTMODE
 70
     1
  9
$TEXTSIZE
 40
0.2
  9
$TRACEWID
 40
0.05
  9
$TEXTSTYLE
  7
STANDARD
  9
$CLAYER
  8
0
  9
$CELTYPE
  6
BYLAYER
  9
$CECOLOR
 62
   256
  9
$DIMSCALE
 40
1.0
  9
$DIMASZ
 40
0.18
  9
$DIMEXO
 40
0.0625
  9
$DIMDLI
 40
0.38
  9
$DIMRND
 40
0.0
  9
$DIMDLE
 40
0.0
  9
$DIMEXE
 40
0.18
  9
$DIMTP
 40
0.0
  9
$DIMTM
 40
0.0
  9
$DIMTXT
 40
0.18
  9
$DIMCEN
 40
0.09
  9
$DIMTSZ
 40
0.0
  9
$DIMTOL
 70
     0
  9
$DIMLIM
 70
     0
  9
$DIMTIH
 70
     1
  9
$DIMTOH
 70
     1
  9
$DIMSE1
 70
     0
  9
$DIMSE2
 70
     0
  9
$DIMTAD
 70
     0
  9
$DIMZIN
 70
     0
  9
$DIMBLK
  1

  9
$DIMASO
 70
     1
  9
$DIMSHO
 70
     1
  9
$DIMPOST
  1

  9
$DIMAPOST
  1

  9
$DIMALT
 70
     0
  9
$DIMALTD
 70
     2
  9
$DIMALTF
 40
25.399999999999999
  9
$DIMLFAC
 40
1.0
  9
$DIMTOFL
 70
     0
  9
$DIMTVP
 40
0.0
  9
$DIMTIX
 70
     0
  9
$DIMSOXD
 70
     0
  9
$DIMSAH
 70
     0
  9
$DIMBLK1
  1

  9
$DIMBLK2
  1

  9
$DIMSTYLE
  2
STANDARD
  9
$DIMCLRD
 70
     0
  9
$DIMCLRE
 70
     0
  9
$DIMCLRT
 70
     0
  9
$DIMTFAC
 40
1.0
  9
$DIMGAP
 40
0.09
  9
$LUNITS
 70
     2
  9
$LUPREC
 70
     4
  9
$SKETCHINC
 40
0.1
  9
$FILLETRAD
 40
1.5
  9
$AUNITS
 70
     0
  9
$AUPREC
 70
     0
  9
$MENU
  1
.
  9
$ELEVATION
 40
0.0
  9
$PELEVATION
 40
0.0
  9
$THICKNESS
 40
0.0
  9
$LIMCHECK
 70
     0
  9
$BLIPMODE
 70
     0
  9
$CHAMFERA
 40
0.0
  9
$CHAMFERB
 40
0.0
  9
$SKPOLY
 70
     0
  9
$TDCREATE
 40
2453083.4120647679
  9
$TDUPDATE
 40
2457497.647155046
  9
$TDINDWG
 40
0.3865844676
  9
$TDUSRTIMER
 40
0.3865843519
  9
$USRTIMER
 70
     1
  9
$ANGBASE
 50
0.0
  9
$ANGDIR
 70
     0
  9
$PDMODE
 70
     0
  9
$PDSIZE
 40
0.0
  9
$PLINEWID
 40
0.0
  9
$COORDS
 70
     1
  9
$SPLFRAME
 70
     0
  9
$SPLINETYPE
 70
     6
  9
$SPLINESEGS
 70
     8
  9
$ATTDIA
 70
     0
  9
$ATTREQ
 70
     1
  9
$HANDLING
 70
     1
  9
$HANDSEED
  5
2CF5
  9
$SURFTAB1
 70
     6
  9
$SURFTAB2
 70
     6
  9
$SURFTYPE
 70
     6
  9
$SURFU
 70
     6
  9
$SURFV
 70
     6
  9
$UCSNAME
  2

  9
$UCSORG
 10
0.0
 20
0.0
 30
0.0
  9
$UCSXDIR
 10
1.0
 20
0.0
 30
0.0
  9
$UCSYDIR
 10
0.0
 20
1.0
 30
0.0
  9
$PUCSNAME
  2

  9
$PUCSORG
 10
0.0
 20
0.0
 30
0.0
  9
$PUCSXDIR
 10
1.0
 20
0.0
 30
0.0
  9
$PUCSYDIR
 10
0.0
 20
1.0
 30
0.0
  9
$USERI1
 70
     0
  9
$USERI2
 70
     1
  9
$USERI3
 70
     0
  9
$USERI4
 70
     0
  9
$USERI5
 70
     0
  9
$USERR1
 40
0.0
  9
$USERR2
 40
0.0
  9
$USERR3
 40
0.0
  9
$USERR4
 40
0.0
  9
$USERR5
 40
0.0
  9
$WORLDVIEW
 70
     1
  9
$SHADEDGE
 70
     3
  9
$SHADEDIF
 70
    70
  9
$TILEMODE
 70
     1
  9
$MAXACTVP
 70
    64
  9
$PLIMCHECK
 70
     0
  9
$PEXTMIN
 10
0.0
 20
0.0
 30
0.0
  9
$PEXTMAX
 10
0.0
 20
0.0
 30
0.0
  9
$PLIMMIN
 10
0.0
 20
0.0
  9
$PLIMMAX
 10
12.0
 20
9.0
  9
$UNITMODE
 70
     0
  9
$VISRETAIN
 70
     1
  9
$PLINEGEN
 70
     0
  9
$PSLTSCALE
 70
     1
  0
ENDSEC
  0
SECTION
  2
TABLES
  0
TABLE
  2
VPORT
 70
     1
  0
VPORT
  2
*ACTIVE
 70
     0
 10
0.0
 20
0.0
 11
1.0
 21
1.0
 12
172.38954548667911
 22
109.0161396063893
 13
0.0
 23
0.0
 14
0.5
 24
0.5
 15
0.5
 25
0.5
 16
0.0
 26
0.0
 36
1.0
 17
0.0
 27
0.0
 37
0.0
 40
225.93996961304859
 41
2.6019575856443709
 42
50.0
 43
0.0
 44
0.0
 50
0.0
 51
0.0
 71
     0
 72
  1000
 73
     1
 74
     2
 75
     0
 76
     0
 77
     0
 78
     0
  0
ENDTAB
  0
TABLE
  2
LTYPE
 70
     3
  0
LTYPE
  2
CONTINUOUS
 70
     0
  3
Solid Line
 72
    65
 73
     0
 40
0.0
  0
LTYPE
  2
CENTER
 70
     0
  3
____ _ ____ _ ____ _ ____ _ ____ _ ____ _ ____
 72
    65
 73
     4
 40
2.0
 49
1.25
 49
-0.25
 49
0.25
 49
-0.25
  0
LTYPE
  2
PHANTOM2
 70
     0
  3
___ _ _ ___ _ _ ___ _ _ ___ _ _
 72
    65
 73
     6
 40
1.25
 49
0.625
 49
-0.125
 49
0.125
 49
-0.125
 49
0.125
 49
-0.125
  0
ENDTAB
  0
TABLE
  2
LAYER
 70
     2
  0
LAYER
  2
0
 70
     0
 62
     7
  6
CONTINUOUS
  0
LAYER
  2
1
 70
     0
 62
     1
  6
CENTER
  0
ENDTAB
  0
TABLE
  2
STYLE
 70
     2
  0
STYLE
  2
STANDARD
 70
     0
 40
0.0
 41
1.0
 50
0.0
 71
     0
 42
0.2
  3
simplex.shx
  4
bigfont.shx
  0
STYLE
  2
STANDARD1
 70
     0
 40
0.0
 41
1.0
 50
0.0
 71
     0
 42
3.0
  3
txt
  4

  0
ENDTAB
  0
TABLE
  2
VIEW
 70
     0
  0
ENDTAB
  0
TABLE
  2
UCS
 70
     0
  0
ENDTAB
  0
TABLE
  2
APPID
 70
     5
  0
APPID
  2
ACAD
 70
     0
  0
APPID
  2
DCO15
 70
     0
  0
APPID
  2
ACAD_MLEADERVER
 70
     0
  0
APPID
  2
ACAD_NAV_VCDISPLAY
 70
     0
  0
APPID
  2
ACAD_EXEMPT_FROM_CAD_STANDARDS
 70
     0
  0
ENDTAB
  0
TABLE
  2
DIMSTYLE
 70
     1
  0
DIMSTYLE
  2
STANDARD
 70
     0
  3

  4

  5

  6

  7

 40
1.0
 41
0.18
 42
0.0625
 43
0.38
 44
0.18
 45
0.0
 46
0.0
 47
0.0
 48
0.0
140
0.18
141
0.09
142
0.0
143
25.399999999999999
144
1.0
145
0.0
146
1.0
147
0.09
 71
     0
 72
     0
 73
     1
 74
     1
 75
     0
 76
     0
 77
     0
 78
     0
170
     0
171
     2
172
     0
173
     0
174
     0
175
     0
176
     0
177
     0
178
     0
  0
ENDTAB
  0
ENDSEC
  0
SECTION
  2
BLOCKS
  0
BLOCK
  8
0
  2
$MODEL_SPACE
 70
     0
 10
0.0
 20
0.0
 30
0.0
  3
$MODEL_SPACE
  1

  0
ENDBLK
  5
21
  8
0
  0
BLOCK
 67
     1
  8
0
  2
$PAPER_SPACE
 70
     0
 10
0.0
 20
0.0
 30
0.0
  3
$PAPER_SPACE
  1

  0
ENDBLK
  5
5B
 67
     1
  8
0
  0
ENDSEC
  0
SECTION
  2
ENTITIES
  0
LINE
  5
13CF
  8
0
 10
27.957898029330462
 20
214.03500845076309
 30
0.0
 11
46.143626673920757
 21
214.80134295906231
 31
0.0
  0
LINE
  5
144E
  8
0
 10
44.700237415958171
 20
162.0
 30
0.0
 11
44.499999999999979
 21
162.0
 31
0.0
  0
LINE
  5
1456
  8
0
 10
52.749999999999943
 20
175.0
 30
0.0
 11
47.249999999999929
 21
175.00000000000011
 31
0.0
  0
LINE
  5
1469
  8
0
 10
44.499999999999979
 20
143.0
 30
0.0
 11
55.499999999999979
 21
143.0
 31
0.0
  0
LINE
  5
146B
  8
0
 10
44.499999999999979
 20
144.6509999999999
 30
0.0
 11
55.5
 21
144.6509999999999
 31
0.0
  0
LINE
  5
147B
  8
0
 10
46.749999999999929
 20
174.5
 30
0.0
 11
46.749999999999929
 21
171.9510884613922
 31
0.0
  0
LINE
  5
1485
  8
1
 10
50.0
 20
30.0
 30
0.0
 11
49.999999999999957
 21
180.00000000000011
 31
0.0
  0
ARC
  5
14CF
  8
0
 10
40.132704598304862
 20
158.69905689745741
 30
0.0
 40
5.4744401076175118
 50
37.083167419832563
 51
75.53669752820764
  0
ARC
  5
14E1
  8
0
 10
50.000000000106581
 20
64.000000000000057
 30
0.0
 40
108.0
 50
78.134937542536775
 51
101.86506245757479
  0
LINE
  5
14E3
  8
0
 10
26.999999999999989
 20
165.0
 30
0.0
 11
26.999999999999989
 21
168.71389592597211
 31
0.0
  0
ARC
  5
14E4
  8
0
 10
27.999999999999989
 20
165.0
 30
0.0
 40
1.0
 50
180.0
 51
270.0
  0
ARC
  5
14E5
  8
0
 10
28.000000000000021
 20
168.71389592597211
 30
0.0
 40
1.0
 50
101.8650624575735
 51
180.0
  0
ARC
  5
14E6
  8
0
 10
72.000000000000085
 20
168.71389592597211
 30
0.0
 40
1.0
 50
0.0
 51
78.134937542426457
  0
ARC
  5
14E7
  8
0
 10
72.000000000000057
 20
165.0
 30
0.0
 40
1.0
 50
270.0
 51
0.0
  0
LINE
  5
14E8
  8
0
 10
73.000000000000057
 20
165.0
 30
0.0
 11
73.000000000000028
 21
168.71389592597211
 31
0.0
  0
ARC
  5
14E9
  8
0
 10
52.791284195732977
 20
170.93106966659681
 30
0.0
 40
1.064631737088876
 50
1.392525263353187
 51
74.324047354315852
  0
LINE
  5
14EA
  8
0
 10
53.855601513710482
 20
164.0
 30
0.0
 11
53.855601513710504
 21
170.95694208956181
 31
0.0
  0
POLYLINE
  5
14EB
  8
0
 10
55.299762584041851
 20
161.99999999999989
 30
0.0
 66
     1
 70
     8
  0
VERTEX
  8
0
  5
29E9
 10
55.2998
 20
162.000
 30
0.000000
  70
    32
  0
VERTEX
  8
0
  5
29EA
 10
55.3000
 20
162.025
 30
0.000000
  70
    32
  0
VERTEX
  8
0
  5
29EB
 10
55.3005
 20
162.049
 30
0.000000
  70
    32
  0
VERTEX
  8
0
  5
29EC
 10
55.3015
 20
162.074
 30
0.000000
  70
    32
  0
VERTEX
  8
0
  5
29ED
 10
55.3028
 20
162.098
 30
0.000000
  70
    32
  0
VERTEX
  8
0
  5
29EE
 10
55.3045
 20
162.123
 30
0.000000
  70
    32
  0
VERTEX
  8
0
  5
29EF
 10
55.3066
 20
162.147
 30
0.000000
  70
    32
  0
VERTEX
  8
0
  5
29F0
 10
55.3090
 20
162.172
 30
0.000000
  70
    32
  0
VERTEX
  8
0
  5
29F1
 10
55.3118
 20
162.196
 30
0.000000
  70
    32
  0
VERTEX
  8
0
  5
29F2
 10
55.3150
 20
162.220
 30
0.000000
  70
    32
  0
VERTEX
  8
0
  5
29F3
 10
55.3186
 20
162.245
 30
0.000000
  70
    32
  0
VERTEX
  8
0
  5
29F4
 10
55.3226
 20
162.269
 30
0.000000
  70
    32
  0
VERTEX
  8
0
  5
29F5
 10
55.3269
 20
162.293
 30
0.000000
  70
    32
  0
VERTEX
  8
0
  5
29F6
 10
55.3316
 20
162.318
 30
0.000000
  70
    32
  0
VERTEX
  8
0
  5
29F7
 10
55.3367
 20
162.342
 30
0.000000
  70
    32
  0
VERTEX
  8
0
  5
29F8
 10
55.3421
 20
162.366
 30
0.000000
  70
    32
  0
VERTEX
  8
0
  5
29F9
 10
55.3480
 20
162.390
 30
0.000000
  70
    32
  0
VERTEX
  8
0
  5
29FA
 10
55.3541
 20
162.414
 30
0.000000
  70
    32
  0
VERTEX
  8
0
  5
29FB
 10
55.3607
 20
162.438
 30
0.000000
  70
    32
  0
VERTEX
  8
0
  5
29FC
 10
55.3676
 20
162.462
 30
0.000000
  70
    32
  0
VERTEX
  8
0
  5
29FD
 10
55.3749
 20
162.486
 30
0.000000
  70
    32
  0
VERTEX
  8
0
  5
29FE
 10
55.3826
 20
162.510
 30
0.000000
  70
    32
  0
VERTEX
  8
0
  5
29FF
 10
55.3906
 20
162.533
 30
0.000000
  70
    32
  0
VERTEX
  8
0
  5
2A00
 10
55.3990
 20
162.557
 30
0.000000
  70
    32
  0
VERTEX
  8
0
  5
2A01
 10
55.4078
 20
162.581
 30
0.000000
  70
    32
  0
VERTEX
  8
0
  5
2A02
 10
55.4169
 20
162.604
 30
0.000000
  70
    32
  0
VERTEX
  8
0
  5
2A03
 10
55.4263
 20
162.627
 30
0.000000
  70
    32
  0
VERTEX
  8
0
  5
2A04
 10
55.4362
 20
162.651
 30
0.000000
  70
    32
  0
VERTEX
  8
0
  5
2A05
 10
55.4464
 20
162.674
 30
0.000000
  70
    32
  0
VERTEX
  8
0
  5
2A06
 10
55.4569
 20
162.697
 30
0.000000
  70
    32
  0
VERTEX
  8
0
  5
2A07
 10
55.4678
 20
162.720
 30
0.000000
  70
    32
  0
VERTEX
  8
0
  5
2A08
 10
55.4791
 20
162.743
 30
0.000000
  70
    32
  0
VERTEX
  8
0
  5
2A09
 10
55.4907
 20
162.765
 30
0.000000
  70
    32
  0
VERTEX
  8
0
  5
2A0A
 10
55.5026
 20
162.788
 30
0.000000
  70
    32
  0
VERTEX
  8
0
  5
2A0B
 10
55.5149
 20
162.810
 30
0.000000
  70
    32
  0
VERTEX
  8
0
  5
2A0C
 10
55.5276
 20
162.833
 30
0.000000
  70
    32
  0
VERTEX
  8
0
  5
2A0D
 10
55.5406
 20
162.855
 30
0.000000
  70
    32
  0
VERTEX
  8
0
  5
2A0E
 10
55.5539
 20
162.877
 30
0.000000
  70
    32
  0
VERTEX
  8
0
  5
2A0F
 10
55.5676
 20
162.899
 30
0.000000
  70
    32
  0
VERTEX
  8
0
  5
2A10
 10
55.5816
 20
162.921
 30
0.000000
  70
    32
  0
VERTEX
  8
0
  5
2A11
 10
55.5959
 20
162.943
 30
0.000000
  70
    32
  0
VERTEX
  8
0
  5
2A12
 10
55.6106
 20
162.964
 30
0.000000
  70
    32
  0
VERTEX
  8
0
  5
2A13
 10
55.6256
 20
162.986
 30
0.000000
  70
    32
  0
VERTEX
  8
0
  5
2A14
 10
55.6409
 20
163.007
 30
0.000000
  70
    32
  0
VERTEX
  8
0
  5
2A15
 10
55.6566
 20
163.028
 30
0.000000
  70
    32
  0
VERTEX
  8
0
  5
2A16
 10
55.6726
 20
163.049
 30
0.000000
  70
    32
  0
VERTEX
  8
0
  5
2A17
 10
55.6889
 20
163.070
 30
0.000000
  70
    32
  0
VERTEX
  8
0
  5
2A18
 10
55.7055
 20
163.091
 30
0.000000
  70
    32
  0
VERTEX
  8
0
  5
2A19
 10
55.7224
 20
163.111
 30
0.000000
  70
    32
  0
VERTEX
  8
0
  5
2A1A
 10
55.7397
 20
163.131
 30
0.000000
  70
    32
  0
VERTEX
  8
0
  5
2A1B
 10
55.7573
 20
163.152
 30
0.000000
  70
    32
  0
VERTEX
  8
0
  5
2A1C
 10
55.7751
 20
163.172
 30
0.000000
  70
    32
  0
VERTEX
  8
0
  5
2A1D
 10
55.7933
 20
163.191
 30
0.000000
  70
    32
  0
VERTEX
  8
0
  5
2A1E
 10
55.8118
 20
163.211
 30
0.000000
  70
    32
  0
VERTEX
  8
0
  5
2A1F
 10
55.8306
 20
163.230
 30
0.000000
  70
    32
  0
VERTEX
  8
0
  5
2A20
 10
55.8497
 20
163.250
 30
0.000000
  70
    32
  0
VERTEX
  8
0
  5
2A21
 10
55.8690
 20
163.269
 30
0.000000
  70
    32
  0
VERTEX
  8
0
  5
2A22
 10
55.8887
 20
163.288
 30
0.000000
  70
    32
  0
VERTEX
  8
0
  5
2A23
 10
55.9087
 20
163.306
 30
0.000000
  70
    32
  0
VERTEX
  8
0
  5
2A24
 10
55.9289
 20
163.325
 30
0.000000
  70
    32
  0
VERTEX
  8
0
  5
2A25
 10
55.9495
 20
163.343
 30
0.000000
  70
    32
  0
VERTEX
  8
0
  5
2A26
 10
55.9703
 20
163.361
 30
0.000000
  70
    32
  0
VERTEX
  8
0
  5
2A27
 10
55.9913
 20
163.379
 30
0.000000
  70
    32
  0
VERTEX
  8
0
  5
2A28
 10
56.0127
 20
163.397
 30
0.000000
  70
    32
  0
VERTEX
  8
0
  5
2A29
 10
56.0343
 20
163.414
 30
0.000000
  70
    32
  0
VERTEX
  8
0
  5
2A2A
 10
56.0562
 20
163.431
 30
0.000000
  70
    32
  0
VERTEX
  8
0
  5
2A2B
 10
56.0784
 20
163.448
 30
0.000000
  70
    32
  0
VERTEX
  8
0
  5
2A2C
 10
56.1008
 20
163.465
 30
0.000000
  70
    32
  0
VERTEX
  8
0
  5
2A2D
 10
56.1235
 20
163.482
 30
0.000000
  70
    32
  0
VERTEX
  8
0
  5
2A2E
 10
56.1464
 20
163.498
 30
0.000000
  70
    32
  0
VERTEX
  8
0
  5
2A2F
 10
56.1696
 20
163.514
 30
0.000000
  70
    32
  0
VERTEX
  8
0
  5
2A30
 10
56.1930
 20
163.530
 30
0.000000
  70
    32
  0
VERTEX
  8
0
  5
2A31
 10
56.2167
 20
163.546
 30
0.000000
  70
    32
  0
VERTEX
  8
0
  5
2A32
 10
56.2406
 20
163.561
 30
0.000000
  70
    32
  0
VERTEX
  8
0
  5
2A33
 10
56.2648
 20
163.577
 30
0.000000
  70
    32
  0
VERTEX
  8
0
  5
2A34
 10
56.2891
 20
163.592
 30
0.000000
  70
    32
  0
VERTEX
  8
0
  5
2A35
 10
56.3137
 20
163.606
 30
0.000000
  70
    32
  0
VERTEX
  8
0
  5
2A36
 10
56.3386
 20
163.621
 30
0.000000
  70
    32
  0
VERTEX
  8
0
  5
2A37
 10
56.3636
 20
163.635
 30
0.000000
  70
    32
  0
VERTEX
  8
0
  5
2A38
 10
56.3889
 20
163.649
 30
0.000000
  70
    32
  0
VERTEX
  8
0
  5
2A39
 10
56.4144
 20
163.663
 30
0.000000
  70
    32
  0
VERTEX
  8
0
  5
2A3A
 10
56.4401
 20
163.676
 30
0.000000
  70
    32
  0
VERTEX
  8
0
  5
2A3B
 10
56.4660
 20
163.690
 30
0.000000
  70
    32
  0
VERTEX
  8
0
  5
2A3C
 10
56.4921
 20
163.703
 30
0.000000
  70
    32
  0
VERTEX
  8
0
  5
2A3D
 10
56.5184
 20
163.715
 30
0.000000
  70
    32
  0
VERTEX
  8
0
  5
2A3E
 10
56.5449
 20
163.728
 30
0.000000
  70
    32
  0
VERTEX
  8
0
  5
2A3F
 10
56.5716
 20
163.740
 30
0.000000
  70
    32
  0
VERTEX
  8
0
  5
2A40
 10
56.5984
 20
163.752
 30
0.000000
  70
    32
  0
VERTEX
  8
0
  5
2A41
 10
56.6255
 20
163.764
 30
0.000000
  70
    32
  0
VERTEX
  8
0
  5
2A42
 10
56.6527
 20
163.775
 30
0.000000
  70
    32
  0
VERTEX
  8
0
  5
2A43
 10
56.6801
 20
163.786
 30
0.000000
  70
    32
  0
VERTEX
  8
0
  5
2A44
 10
56.7077
 20
163.797
 30
0.000000
  70
    32
  0
VERTEX
  8
0
  5
2A45
 10
56.7354
 20
163.808
 30
0.000000
  70
    32
  0
VERTEX
  8
0
  5
2A46
 10
56.7633
 20
163.818
 30
0.000000
  70
    32
  0
VERTEX
  8
0
  5
2A47
 10
56.7914
 20
163.828
 30
0.000000
  70
    32
  0
VERTEX
  8
0
  5
2A48
 10
56.8196
 20
163.838
 30
0.000000
  70
    32
  0
VERTEX
  8
0
  5
2A49
 10
56.8480
 20
163.848
 30
0.000000
  70
    32
  0
VERTEX
  8
0
  5
2A4A
 10
56.8765
 20
163.857
 30
0.000000
  70
    32
  0
VERTEX
  8
0
  5
2A4B
 10
56.9051
 20
163.866
 30
0.000000
  70
    32
  0
VERTEX
  8
0
  5
2A4C
 10
56.9339
 20
163.875
 30
0.000000
  70
    32
  0
VERTEX
  8
0
  5
2A4D
 10
56.9628
 20
163.883
 30
0.000000
  70
    32
  0
VERTEX
  8
0
  5
2A4E
 10
56.9919
 20
163.891
 30
0.000000
  70
    32
  0
VERTEX
  8
0
  5
2A4F
 10
57.0210
 20
163.899
 30
0.000000
  70
    32
  0
VERTEX
  8
0
  5
2A50
 10
57.0503
 20
163.907
 30
0.000000
  70
    32
  0
VERTEX
  8
0
  5
2A51
 10
57.0797
 20
163.914
 30
0.000000
  70
    32
  0
VERTEX
  8
0
  5
2A52
 10
57.1092
 20
163.921
 30
0.000000
  70
    32
  0
VERTEX
  8
0
  5
2A53
 10
57.1388
 20
163.928
 30
0.000000
  70
    32
  0
VERTEX
  8
0
  5
2A54
 10
57.1685
 20
163.934
 30
0.000000
  70
    32
  0
VERTEX
  8
0
  5
2A55
 10
57.1984
 20
163.940
 30
0.000000
  70
    32
  0
VERTEX
  8
0
  5
2A56
 10
57.2283
 20
163.946
 30
0.000000
  70
    32
  0
VERTEX
  8
0
  5
2A57
 10
57.2582
 20
163.951
 30
0.000000
  70
    32
  0
VERTEX
  8
0
  5
2A58
 10
57.2883
 20
163.957
 30
0.000000
  70
    32
  0
VERTEX
  8
0
  5
2A59
 10
57.3185
 20
163.962
 30
0.000000
  70
    32
  0
VERTEX
  8
0
  5
2A5A
 10
57.3487
 20
163.966
 30
0.000000
  70
    32
  0
VERTEX
  8
0
  5
2A5B
 10
57.3790
 20
163.971
 30
0.000000
  70
    32
  0
VERTEX
  8
0
  5
2A5C
 10
57.4093
 20
163.975
 30
0.000000
  70
    32
  0
VERTEX
  8
0
  5
2A5D
 10
57.4398
 20
163.978
 30
0.000000
  70
    32
  0
VERTEX
  8
0
  5
2A5E
 10
57.4702
 20
163.982
 30
0.000000
  70
    32
  0
VERTEX
  8
0
  5
2A5F
 10
57.5007
 20
163.985
 30
0.000000
  70
    32
  0
VERTEX
  8
0
  5
2A60
 10
57.5313
 20
163.988
 30
0.000000
  70
    32
  0
VERTEX
  8
0
  5
2A61
 10
57.5619
 20
163.990
 30
0.000000
  70
    32
  0
VERTEX
  8
0
  5
2A62
 10
57.5926
 20
163.993
 30
0.000000
  70
    32
  0
VERTEX
  8
0
  5
2A63
 10
57.6233
 20
163.995
 30
0.000000
  70
    32
  0
VERTEX
  8
0
  5
2A64
 10
57.6540
 20
163.996
 30
0.000000
  70
    32
  0
VERTEX
  8
0
  5
2A65
 10
57.6847
 20
163.998
 30
0.000000
  70
    32
  0
VERTEX
  8
0
  5
2A66
 10
57.7154
 20
163.999
 30
0.000000
  70
    32
  0
VERTEX
  8
0
  5
2A67
 10
57.7462
 20
163.999
 30
0.000000
  70
    32
  0
VERTEX
  8
0
  5
2A68
 10
57.7770
 20
164.000
 30
0.000000
  70
    32
  0
VERTEX
  8
0
  5
2A69
 10
57.8077
 20
164.000
 30
0.000000
  70
    32
  0
SEQEND
  8
0
  5
2A6A
  0
ARC
  5
14EC
  8
0
 10
59.867295401695301
 20
158.69905689745701
 30
0.0
 40
5.4744401076179008
 50
104.4633024717928
 51
142.91683258016559
  0
LINE
  5
14ED
  8
0
 10
72.000000000000057
 20
164.0
 30
0.0
 11
53.855601513710468
 21
164.0000000000002
 31
0.0
  0
LINE
  5
14EE
  8
0
 10
55.299762584041829
 20
162.0
 30
0.0
 11
55.499999999999972
 21
162.0
 31
0.0
  0
LINE
  5
14F9
  8
0
 10
53.249999999999929
 20
174.5
 30
0.0
 11
46.749999999999929
 21
174.5
 31
0.0
  0
ARC
  5
14FB
  8
0
 10
47.249999999999929
 20
174.5
 30
0.0
 40
0.5
 50
90.0
 51
180.0000000000006
  0
ARC
  5
14FF
  8
0
 10
52.749999999999943
 20
174.5
 30
0.0
 40
0.5
 50
359.99999999999932
 51
90.0
  0
LINE
  5
1500
  8
0
 10
53.249999999999929
 20
174.5
 30
0.0
 11
53.249999999999929
 21
171.9510884613922
 31
0.0
  0
LINE
  5
151D
  8
0
 10
105.96499154918961
 20
164.0
 30
0.0
 11
111.0350084508102
 21
164.0
 31
0.0
  0
LINE
  5
153B
  8
0
 10
105.96499154918961
 20
169.69253046737961
 30
0.0
 11
111.0350084508102
 21
169.6925304673795
 31
0.0
  0
LINE
  5
1546
  8
0
 10
112.1555749250759
 20
161.99999999999849
 30
0.0
 11
104.8444250749239
 21
161.99999999999849
 31
0.0
  0
LINE
  5
1678
  8
1
 10
108.5
 20
30.000000000000028
 30
0.0
 11
108.4999999999999
 21
180.0
 31
0.0
  0
LINE
  5
167D
  8
0
 10
103.0
 20
144.6509999999999
 30
0.0
 11
114.0
 21
144.6509999999999
 31
0.0
  0
LINE
  5
167E
  8
0
 10
102.9999999999999
 20
143.0
 30
0.0
 11
113.9999999999999
 21
143.0
 31
0.0
  0
LINE
  5
1685
  8
0
 10
111.7499999999999
 20
174.5
 30
0.0
 11
111.7499999999998
 21
172.0
 31
0.0
  0
ARC
  5
1686
  8
0
 10
111.2499999999999
 20
174.5
 30
0.0
 40
0.5
 50
359.99999999999932
 51
90.0
  0
LINE
  5
1687
  8
0
 10
111.7499999999999
 20
174.5
 30
0.0
 11
105.2499999999999
 21
174.5
 31
0.0
  0
LINE
  5
1688
  8
0
 10
111.2499999999999
 20
175.0
 30
0.0
 11
105.7499999999998
 21
175.00000000000011
 31
0.0
  0
ARC
  5
1689
  8
0
 10
105.7499999999998
 20
174.5
 30
0.0
 40
0.5
 50
90.0
 51
180.0000000000006
  0
LINE
  5
168A
  8
0
 10
105.2499999999999
 20
174.5
 30
0.0
 11
105.2499999999999
 21
172.0
 31
0.0
  0
LINE
  5
168D
  8
1
 10
21.999999999999972
 20
210.49999999995271
 30
0.0
 11
77.999999999999972
 21
210.49999999995271
 31
0.0
  0
LINE
  5
168E
  8
1
 10
49.999999999999957
 20
200.00000000000011
 30
0.0
 11
49.999999999999957
 21
220.99999998805021
 31
0.0
  0
LINE
  5
1694
  8
0
 10
26.999999999999972
 20
207.96410486807349
 30
0.0
 11
26.999999999999972
 21
213.03589513183189
 31
0.0
  0
ARC
  5
1695
  8
0
 10
27.999999999999972
 20
213.03589513183189
 30
0.0
 40
1.0
 50
92.412978451483923
 51
180.0
  0
ARC
  5
169C
  8
0
 10
27.999999999999972
 20
207.96410486807349
 30
0.0
 40
1.0
 50
180.0
 51
267.58702154851602
  0
LINE
  5
169D
  8
0
 10
27.957898029330462
 20
206.9649915491423
 30
0.0
 11
46.143626673920743
 21
206.19865704084319
 31
0.0
  0
LINE
  5
16A8
  8
0
 10
72.042101970669478
 20
206.9649915491423
 30
0.0
 11
53.855601513710504
 21
206.19862451718339
 31
0.0
  0
ARC
  5
16A9
  8
0
 10
71.999999999999972
 20
207.96410486807349
 30
0.0
 40
1.0
 50
272.41297845148398
 51
0.0
  0
LINE
  5
16AA
  8
0
 10
72.999999999999972
 20
207.96410486807349
 30
0.0
 11
72.999999999999972
 21
213.03589513183189
 31
0.0
  0
ARC
  5
16AB
  8
0
 10
71.999999999999972
 20
213.03589513183189
 30
0.0
 40
1.0
 50
0.0
 51
87.587021548516034
  0
LINE
  5
16AC
  8
0
 10
72.042101970669478
 20
214.03500845076309
 30
0.0
 11
53.85560151371056
 21
214.80137548272211
 31
0.0
  0
CIRCLE
  5
16B5
  8
0
 10
49.999999999999957
 20
210.49999999995271
 30
0.0
 40
2.7499999999999711
  0
CIRCLE
  5
16B6
  8
0
 10
49.999999999999957
 20
210.49999999995271
 30
0.0
 40
3.2499999999999711
  0
CIRCLE
  5
16B8
  8
0
 10
68.761085088233727
 20
210.5000773436696
 30
0.0
 40
1.6000000000000001
  0
CIRCLE
  5
16B9
  8
0
 10
68.761085088233727
 20
210.5000773436696
 30
0.0
 40
1.75
  0
LINE
  5
16D4
  8
0
 10
103.9999999999999
 20
172.0
 30
0.0
 11
113.0
 21
172.0
 31
0.0
  0
ARC
  5
16D6
  8
0
 10
103.9999999999999
 20
171.0
 30
0.0
 40
1.0
 50
90.0
 51
180.0
  0
ARC
  5
16D7
  8
0
 10
113.0
 20
171.0
 30
0.0
 40
1.0
 50
0.0
 51
90.0
  0
LINE
  5
1924
  8
0
 10
111.9270113598387
 20
172.0
 30
0.0
 11
105.0729886401612
 21
172.0
 31
0.0
  0
LINE
  5
1925
  8
0
 10
112.0350084508103
 20
168.6925304673795
 30
0.0
 11
112.0350084508103
 21
165.0
 31
0.0
  0
ARC
  5
1926
  8
0
 10
111.0350084508102
 20
168.6925304673795
 30
0.0
 40
1.0
 50
0.0
 51
89.999999999999474
  0
LINE
  5
1927
  8
0
 10
113.1555749250758
 20
170.5
 30
0.0
 11
113.1555749250758
 21
163.49999999999849
 31
0.0
  0
POLYLINE
  5
192B
  8
0
 10
113.1555749250759
 20
170.5
 30
0.0
 66
     1
 70
     8
  0
VERTEX
  8
0
  5
2A6B
 10
113.156
 20
170.500
 30
0.000000
  70
    32
  0
VERTEX
  8
0
  5
2A6C
 10
113.155
 20
170.518
 30
0.000000
  70
    32
  0
VERTEX
  8
0
  5
2A6D
 10
113.155
 20
170.537
 30
0.000000
  70
    32
  0
VERTEX
  8
0
  5
2A6E
 10
113.155
 20
170.555
 30
0.000000
  70
    32
  0
VERTEX
  8
0
  5
2A6F
 10
113.154
 20
170.574
 30
0.000000
  70
    32
  0
VERTEX
  8
0
  5
2A70
 10
113.154
 20
170.592
 30
0.000000
  70
    32
  0
VERTEX
  8
0
  5
2A71
 10
113.153
 20
170.610
 30
0.000000
  70
    32
  0
VERTEX
  8
0
  5
2A72
 10
113.152
 20
170.629
 30
0.000000
  70
    32
  0
VERTEX
  8
0
  5
2A73
 10
113.151
 20
170.647
 30
0.000000
  70
    32
  0
VERTEX
  8
0
  5
2A74
 10
113.149
 20
170.665
 30
0.000000
  70
    32
  0
VERTEX
  8
0
  5
2A75
 10
113.148
 20
170.684
 30
0.000000
  70
    32
  0
VERTEX
  8
0
  5
2A76
 10
113.146
 20
170.702
 30
0.000000
  70
    32
  0
VERTEX
  8
0
  5
2A77
 10
113.145
 20
170.720
 30
0.000000
  70
    32
  0
VERTEX
  8
0
  5
2A78
 10
113.143
 20
170.738
 30
0.000000
  70
    32
  0
VERTEX
  8
0
  5
2A79
 10
113.141
 20
170.756
 30
0.000000
  70
    32
  0
VERTEX
  8
0
  5
2A7A
 10
113.139
 20
170.775
 30
0.000000
  70
    32
  0
VERTEX
  8
0
  5
2A7B
 10
113.136
 20
170.793
 30
0.000000
  70
    32
  0
VERTEX
  8
0
  5
2A7C
 10
113.134
 20
170.811
 30
0.000000
  70
    32
  0
VERTEX
  8
0
  5
2A7D
 10
113.131
 20
170.829
 30
0.000000
  70
    32
  0
VERTEX
  8
0
  5
2A7E
 10
113.129
 20
170.847
 30
0.000000
  70
    32
  0
VERTEX
  8
0
  5
2A7F
 10
113.126
 20
170.864
 30
0.000000
  70
    32
  0
VERTEX
  8
0
  5
2A80
 10
113.123
 20
170.882
 30
0.000000
  70
    32
  0
VERTEX
  8
0
  5
2A81
 10
113.119
 20
170.900
 30
0.000000
  70
    32
  0
VERTEX
  8
0
  5
2A82
 10
113.116
 20
170.918
 30
0.000000
  70
    32
  0
VERTEX
  8
0
  5
2A83
 10
113.113
 20
170.935
 30
0.000000
  70
    32
  0
VERTEX
  8
0
  5
2A84
 10
113.109
 20
170.953
 30
0.000000
  70
    32
  0
VERTEX
  8
0
  5
2A85
 10
113.105
 20
170.971
 30
0.000000
  70
    32
  0
VERTEX
  8
0
  5
2A86
 10
113.101
 20
170.988
 30
0.000000
  70
    32
  0
VERTEX
  8
0
  5
2A87
 10
113.097
 20
171.005
 30
0.000000
  70
    32
  0
VERTEX
  8
0
  5
2A88
 10
113.093
 20
171.023
 30
0.000000
  70
    32
  0
VERTEX
  8
0
  5
2A89
 10
113.089
 20
171.040
 30
0.000000
  70
    32
  0
VERTEX
  8
0
  5
2A8A
 10
113.084
 20
171.057
 30
0.000000
  70
    32
  0
VERTEX
  8
0
  5
2A8B
 10
113.079
 20
171.074
 30
0.000000
  70
    32
  0
VERTEX
  8
0
  5
2A8C
 10
113.075
 20
171.091
 30
0.000000
  70
    32
  0
VERTEX
  8
0
  5
2A8D
 10
113.070
 20
171.108
 30
0.000000
  70
    32
  0
VERTEX
  8
0
  5
2A8E
 10
113.065
 20
171.125
 30
0.000000
  70
    32
  0
VERTEX
  8
0
  5
2A8F
 10
113.060
 20
171.141
 30
0.000000
  70
    32
  0
VERTEX
  8
0
  5
2A90
 10
113.054
 20
171.158
 30
0.000000
  70
    32
  0
VERTEX
  8
0
  5
2A91
 10
113.049
 20
171.174
 30
0.000000
  70
    32
  0
VERTEX
  8
0
  5
2A92
 10
113.043
 20
171.191
 30
0.000000
  70
    32
  0
VERTEX
  8
0
  5
2A93
 10
113.037
 20
171.207
 30
0.000000
  70
    32
  0
VERTEX
  8
0
  5
2A94
 10
113.032
 20
171.223
 30
0.000000
  70
    32
  0
VERTEX
  8
0
  5
2A95
 10
113.026
 20
171.239
 30
0.000000
  70
    32
  0
VERTEX
  8
0
  5
2A96
 10
113.020
 20
171.255
 30
0.000000
  70
    32
  0
VERTEX
  8
0
  5
2A97
 10
113.013
 20
171.271
 30
0.000000
  70
    32
  0
VERTEX
  8
0
  5
2A98
 10
113.007
 20
171.287
 30
0.000000
  70
    32
  0
VERTEX
  8
0
  5
2A99
 10
113.000
 20
171.302
 30
0.000000
  70
    32
  0
VERTEX
  8
0
  5
2A9A
 10
112.994
 20
171.318
 30
0.000000
  70
    32
  0
VERTEX
  8
0
  5
2A9B
 10
112.987
 20
171.333
 30
0.000000
  70
    32
  0
VERTEX
  8
0
  5
2A9C
 10
112.980
 20
171.349
 30
0.000000
  70
    32
  0
VERTEX
  8
0
  5
2A9D
 10
112.973
 20
171.364
 30
0.000000
  70
    32
  0
VERTEX
  8
0
  5
2A9E
 10
112.966
 20
171.379
 30
0.000000
  70
    32
  0
VERTEX
  8
0
  5
2A9F
 10
112.959
 20
171.394
 30
0.000000
  70
    32
  0
VERTEX
  8
0
  5
2AA0
 10
112.951
 20
171.408
 30
0.000000
  70
    32
  0
VERTEX
  8
0
  5
2AA1
 10
112.944
 20
171.423
 30
0.000000
  70
    32
  0
VERTEX
  8
0
  5
2AA2
 10
112.936
 20
171.437
 30
0.000000
  70
    32
  0
VERTEX
  8
0
  5
2AA3
 10
112.929
 20
171.452
 30
0.000000
  70
    32
  0
VERTEX
  8
0
  5
2AA4
 10
112.921
 20
171.466
 30
0.000000
  70
    32
  0
VERTEX
  8
0
  5
2AA5
 10
112.913
 20
171.480
 30
0.000000
  70
    32
  0
VERTEX
  8
0
  5
2AA6
 10
112.905
 20
171.494
 30
0.000000
  70
    32
  0
VERTEX
  8
0
  5
2AA7
 10
112.897
 20
171.507
 30
0.000000
  70
    32
  0
VERTEX
  8
0
  5
2AA8
 10
112.888
 20
171.521
 30
0.000000
  70
    32
  0
VERTEX
  8
0
  5
2AA9
 10
112.880
 20
171.534
 30
0.000000
  70
    32
  0
VERTEX
  8
0
  5
2AAA
 10
112.871
 20
171.548
 30
0.000000
  70
    32
  0
VERTEX
  8
0
  5
2AAB
 10
112.863
 20
171.561
 30
0.000000
  70
    32
  0
VERTEX
  8
0
  5
2AAC
 10
112.854
 20
171.574
 30
0.000000
  70
    32
  0
VERTEX
  8
0
  5
2AAD
 10
112.845
 20
171.586
 30
0.000000
  70
    32
  0
VERTEX
  8
0
  5
2AAE
 10
112.836
 20
171.599
 30
0.000000
  70
    32
  0
VERTEX
  8
0
  5
2AAF
 10
112.827
 20
171.611
 30
0.000000
  70
    32
  0
VERTEX
  8
0
  5
2AB0
 10
112.818
 20
171.624
 30
0.000000
  70
    32
  0
VERTEX
  8
0
  5
2AB1
 10
112.809
 20
171.636
 30
0.000000
  70
    32
  0
VERTEX
  8
0
  5
2AB2
 10
112.799
 20
171.648
 30
0.000000
  70
    32
  0
VERTEX
  8
0
  5
2AB3
 10
112.790
 20
171.660
 30
0.000000
  70
    32
  0
VERTEX
  8
0
  5
2AB4
 10
112.780
 20
171.671
 30
0.000000
  70
    32
  0
VERTEX
  8
0
  5
2AB5
 10
112.771
 20
171.683
 30
0.000000
  70
    32
  0
VERTEX
  8
0
  5
2AB6
 10
112.761
 20
171.694
 30
0.000000
  70
    32
  0
VERTEX
  8
0
  5
2AB7
 10
112.751
 20
171.705
 30
0.000000
  70
    32
  0
VERTEX
  8
0
  5
2AB8
 10
112.741
 20
171.716
 30
0.000000
  70
    32
  0
VERTEX
  8
0
  5
2AB9
 10
112.731
 20
171.726
 30
0.000000
  70
    32
  0
VERTEX
  8
0
  5
2ABA
 10
112.721
 20
171.737
 30
0.000000
  70
    32
  0
VERTEX
  8
0
  5
2ABB
 10
112.711
 20
171.747
 30
0.000000
  70
    32
  0
VERTEX
  8
0
  5
2ABC
 10
112.701
 20
171.757
 30
0.000000
  70
    32
  0
VERTEX
  8
0
  5
2ABD
 10
112.691
 20
171.767
 30
0.000000
  70
    32
  0
VERTEX
  8
0
  5
2ABE
 10
112.680
 20
171.777
 30
0.000000
  70
    32
  0
VERTEX
  8
0
  5
2ABF
 10
112.670
 20
171.787
 30
0.000000
  70
    32
  0
VERTEX
  8
0
  5
2AC0
 10
112.659
 20
171.796
 30
0.000000
  70
    32
  0
VERTEX
  8
0
  5
2AC1
 10
112.648
 20
171.805
 30
0.000000
  70
    32
  0
VERTEX
  8
0
  5
2AC2
 10
112.638
 20
171.814
 30
0.000000
  70
    32
  0
VERTEX
  8
0
  5
2AC3
 10
112.627
 20
171.823
 30
0.000000
  70
    32
  0
VERTEX
  8
0
  5
2AC4
 10
112.616
 20
171.831
 30
0.000000
  70
    32
  0
VERTEX
  8
0
  5
2AC5
 10
112.605
 20
171.840
 30
0.000000
  70
    32
  0
VERTEX
  8
0
  5
2AC6
 10
112.594
 20
171.848
 30
0.000000
  70
    32
  0
VERTEX
  8
0
  5
2AC7
 10
112.583
 20
171.856
 30
0.000000
  70
    32
  0
VERTEX
  8
0
  5
2AC8
 10
112.572
 20
171.864
 30
0.000000
  70
    32
  0
VERTEX
  8
0
  5
2AC9
 10
112.561
 20
171.871
 30
0.000000
  70
    32
  0
VERTEX
  8
0
  5
2ACA
 10
112.550
 20
171.879
 30
0.000000
  70
    32
  0
VERTEX
  8
0
  5
2ACB
 10
112.538
 20
171.886
 30
0.000000
  70
    32
  0
VERTEX
  8
0
  5
2ACC
 10
112.527
 20
171.893
 30
0.000000
  70
    32
  0
VERTEX
  8
0
  5
2ACD
 10
112.515
 20
171.899
 30
0.000000
  70
    32
  0
VERTEX
  8
0
  5
2ACE
 10
112.504
 20
171.906
 30
0.000000
  70
    32
  0
VERTEX
  8
0
  5
2ACF
 10
112.492
 20
171.912
 30
0.000000
  70
    32
  0
VERTEX
  8
0
  5
2AD0
 10
112.481
 20
171.918
 30
0.000000
  70
    32
  0
VERTEX
  8
0
  5
2AD1
 10
112.469
 20
171.924
 30
0.000000
  70
    32
  0
VERTEX
  8
0
  5
2AD2
 10
112.458
 20
171.930
 30
0.000000
  70
    32
  0
VERTEX
  8
0
  5
2AD3
 10
112.446
 20
171.935
 30
0.000000
  70
    32
  0
VERTEX
  8
0
  5
2AD4
 10
112.434
 20
171.941
 30
0.000000
  70
    32
  0
VERTEX
  8
0
  5
2AD5
 10
112.422
 20
171.946
 30
0.000000
  70
    32
  0
VERTEX
  8
0
  5
2AD6
 10
112.410
 20
171.950
 30
0.000000
  70
    32
  0
VERTEX
  8
0
  5
2AD7
 10
112.399
 20
171.955
 30
0.000000
  70
    32
  0
VERTEX
  8
0
  5
2AD8
 10
112.387
 20
171.959
 30
0.000000
  70
    32
  0
VERTEX
  8
0
  5
2AD9
 10
112.375
 20
171.964
 30
0.000000
  70
    32
  0
VERTEX
  8
0
  5
2ADA
 10
112.363
 20
171.967
 30
0.000000
  70
    32
  0
VERTEX
  8
0
  5
2ADB
 10
112.351
 20
171.971
 30
0.000000
  70
    32
  0
VERTEX
  8
0
  5
2ADC
 10
112.339
 20
171.975
 30
0.000000
  70
    32
  0
VERTEX
  8
0
  5
2ADD
 10
112.327
 20
171.978
 30
0.000000
  70
    32
  0
VERTEX
  8
0
  5
2ADE
 10
112.314
 20
171.981
 30
0.000000
  70
    32
  0
VERTEX
  8
0
  5
2ADF
 10
112.302
 20
171.984
 30
0.000000
  70
    32
  0
VERTEX
  8
0
  5
2AE0
 10
112.290
 20
171.986
 30
0.000000
  70
    32
  0
VERTEX
  8
0
  5
2AE1
 10
112.278
 20
171.989
 30
0.000000
  70
    32
  0
VERTEX
  8
0
  5
2AE2
 10
112.266
 20
171.991
 30
0.000000
  70
    32
  0
VERTEX
  8
0
  5
2AE3
 10
112.254
 20
171.993
 30
0.000000
  70
    32
  0
VERTEX
  8
0
  5
2AE4
 10
112.241
 20
171.994
 30
0.000000
  70
    32
  0
VERTEX
  8
0
  5
2AE5
 10
112.229
 20
171.996
 30
0.000000
  70
    32
  0
VERTEX
  8
0
  5
2AE6
 10
112.217
 20
171.997
 30
0.000000
  70
    32
  0
VERTEX
  8
0
  5
2AE7
 10
112.205
 20
171.998
 30
0.000000
  70
    32
  0
VERTEX
  8
0
  5
2AE8
 10
112.192
 20
171.999
 30
0.000000
  70
    32
  0
VERTEX
  8
0
  5
2AE9
 10
112.180
 20
172.000
 30
0.000000
  70
    32
  0
VERTEX
  8
0
  5
2AEA
 10
112.168
 20
172.000
 30
0.000000
  70
    32
  0
VERTEX
  8
0
  5
2AEB
 10
112.156
 20
172.000
 30
0.000000
  70
    32
  0
SEQEND
  8
0
  5
2AEC
  0
POLYLINE
  5
192D
  8
0
 10
113.1555749250759
 20
163.49999999999852
 30
0.0
 66
     1
 70
     8
  0
VERTEX
  8
0
  5
2AED
 10
113.156
 20
163.500
 30
0.000000
  70
    32
  0
VERTEX
  8
0
  5
2AEE
 10
113.155
 20
163.482
 30
0.000000
  70
    32
  0
VERTEX
  8
0
  5
2AEF
 10
113.155
 20
163.463
 30
0.000000
  70
    32
  0
VERTEX
  8
0
  5
2AF0
 10
113.155
 20
163.445
 30
0.000000
  70
    32
  0
VERTEX
  8
0
  5
2AF1
 10
113.154
 20
163.426
 30
0.000000
  70
    32
  0
VERTEX
  8
0
  5
2AF2
 10
113.154
 20
163.408
 30
0.000000
  70
    32
  0
VERTEX
  8
0
  5
2AF3
 10
113.153
 20
163.390
 30
0.000000
  70
    32
  0
VERTEX
  8
0
  5
2AF4
 10
113.152
 20
163.371
 30
0.000000
  70
    32
  0
VERTEX
  8
0
  5
2AF5
 10
113.151
 20
163.353
 30
0.000000
  70
    32
  0
VERTEX
  8
0
  5
2AF6
 10
113.149
 20
163.335
 30
0.000000
  70
    32
  0
VERTEX
  8
0
  5
2AF7
 10
113.148
 20
163.316
 30
0.000000
  70
    32
  0
VERTEX
  8
0
  5
2AF8
 10
113.146
 20
163.298
 30
0.000000
  70
    32
  0
VERTEX
  8
0
  5
2AF9
 10
113.145
 20
163.280
 30
0.000000
  70
    32
  0
VERTEX
  8
0
  5
2AFA
 10
113.143
 20
163.262
 30
0.000000
  70
    32
  0
VERTEX
  8
0
  5
2AFB
 10
113.141
 20
163.244
 30
0.000000
  70
    32
  0
VERTEX
  8
0
  5
2AFC
 10
113.139
 20
163.225
 30
0.000000
  70
    32
  0
VERTEX
  8
0
  5
2AFD
 10
113.136
 20
163.207
 30
0.000000
  70
    32
  0
VERTEX
  8
0
  5
2AFE
 10
113.134
 20
163.189
 30
0.000000
  70
    32
  0
VERTEX
  8
0
  5
2AFF
 10
113.131
 20
163.171
 30
0.000000
  70
    32
  0
VERTEX
  8
0
  5
2B00
 10
113.129
 20
163.153
 30
0.000000
  70
    32
  0
VERTEX
  8
0
  5
2B01
 10
113.126
 20
163.136
 30
0.000000
  70
    32
  0
VERTEX
  8
0
  5
2B02
 10
113.123
 20
163.118
 30
0.000000
  70
    32
  0
VERTEX
  8
0
  5
2B03
 10
113.119
 20
163.100
 30
0.000000
  70
    32
  0
VERTEX
  8
0
  5
2B04
 10
113.116
 20
163.082
 30
0.000000
  70
    32
  0
VERTEX
  8
0
  5
2B05
 10
113.113
 20
163.065
 30
0.000000
  70
    32
  0
VERTEX
  8
0
  5
2B06
 10
113.109
 20
163.047
 30
0.000000
  70
    32
  0
VERTEX
  8
0
  5
2B07
 10
113.105
 20
163.029
 30
0.000000
  70
    32
  0
VERTEX
  8
0
  5
2B08
 10
113.101
 20
163.012
 30
0.000000
  70
    32
  0
VERTEX
  8
0
  5
2B09
 10
113.097
 20
162.995
 30
0.000000
  70
    32
  0
VERTEX
  8
0
  5
2B0A
 10
113.093
 20
162.977
 30
0.000000
  70
    32
  0
VERTEX
  8
0
  5
2B0B
 10
113.089
 20
162.960
 30
0.000000
  70
    32
  0
VERTEX
  8
0
  5
2B0C
 10
113.084
 20
162.943
 30
0.000000
  70
    32
  0
VERTEX
  8
0
  5
2B0D
 10
113.079
 20
162.926
 30
0.000000
  70
    32
  0
VERTEX
  8
0
  5
2B0E
 10
113.075
 20
162.909
 30
0.000000
  70
    32
  0
VERTEX
  8
0
  5
2B0F
 10
113.070
 20
162.892
 30
0.000000
  70
    32
  0
VERTEX
  8
0
  5
2B10
 10
113.065
 20
162.875
 30
0.000000
  70
    32
  0
VERTEX
  8
0
  5
2B11
 10
113.060
 20
162.859
 30
0.000000
  70
    32
  0
VERTEX
  8
0
  5
2B12
 10
113.054
 20
162.842
 30
0.000000
  70
    32
  0
VERTEX
  8
0
  5
2B13
 10
113.049
 20
162.826
 30
0.000000
  70
    32
  0
VERTEX
  8
0
  5
2B14
 10
113.043
 20
162.809
 30
0.000000
  70
    32
  0
VERTEX
  8
0
  5
2B15
 10
113.037
 20
162.793
 30
0.000000
  70
    32
  0
VERTEX
  8
0
  5
2B16
 10
113.032
 20
162.777
 30
0.000000
  70
    32
  0
VERTEX
  8
0
  5
2B17
 10
113.026
 20
162.761
 30
0.000000
  70
    32
  0
VERTEX
  8
0
  5
2B18
 10
113.020
 20
162.745
 30
0.000000
  70
    32
  0
VERTEX
  8
0
  5
2B19
 10
113.013
 20
162.729
 30
0.000000
  70
    32
  0
VERTEX
  8
0
  5
2B1A
 10
113.007
 20
162.713
 30
0.000000
  70
    32
  0
VERTEX
  8
0
  5
2B1B
 10
113.000
 20
162.698
 30
0.000000
  70
    32
  0
VERTEX
  8
0
  5
2B1C
 10
112.994
 20
162.682
 30
0.000000
  70
    32
  0
VERTEX
  8
0
  5
2B1D
 10
112.987
 20
162.667
 30
0.000000
  70
    32
  0
VERTEX
  8
0
  5
2B1E
 10
112.980
 20
162.651
 30
0.000000
  70
    32
  0
VERTEX
  8
0
  5
2B1F
 10
112.973
 20
162.636
 30
0.000000
  70
    32
  0
VERTEX
  8
0
  5
2B20
 10
112.966
 20
162.621
 30
0.000000
  70
    32
  0
VERTEX
  8
0
  5
2B21
 10
112.959
 20
162.606
 30
0.000000
  70
    32
  0
VERTEX
  8
0
  5
2B22
 10
112.951
 20
162.592
 30
0.000000
  70
    32
  0
VERTEX
  8
0
  5
2B23
 10
112.944
 20
162.577
 30
0.000000
  70
    32
  0
VERTEX
  8
0
  5
2B24
 10
112.936
 20
162.563
 30
0.000000
  70
    32
  0
VERTEX
  8
0
  5
2B25
 10
112.929
 20
162.548
 30
0.000000
  70
    32
  0
VERTEX
  8
0
  5
2B26
 10
112.921
 20
162.534
 30
0.000000
  70
    32
  0
VERTEX
  8
0
  5
2B27
 10
112.913
 20
162.520
 30
0.000000
  70
    32
  0
VERTEX
  8
0
  5
2B28
 10
112.905
 20
162.506
 30
0.000000
  70
    32
  0
VERTEX
  8
0
  5
2B29
 10
112.897
 20
162.493
 30
0.000000
  70
    32
  0
VERTEX
  8
0
  5
2B2A
 10
112.888
 20
162.479
 30
0.000000
  70
    32
  0
VERTEX
  8
0
  5
2B2B
 10
112.880
 20
162.466
 30
0.000000
  70
    32
  0
VERTEX
  8
0
  5
2B2C
 10
112.871
 20
162.452
 30
0.000000
  70
    32
  0
VERTEX
  8
0
  5
2B2D
 10
112.863
 20
162.439
 30
0.000000
  70
    32
  0
VERTEX
  8
0
  5
2B2E
 10
112.854
 20
162.426
 30
0.000000
  70
    32
  0
VERTEX
  8
0
  5
2B2F
 10
112.845
 20
162.414
 30
0.000000
  70
    32
  0
VERTEX
  8
0
  5
2B30
 10
112.836
 20
162.401
 30
0.000000
  70
    32
  0
VERTEX
  8
0
  5
2B31
 10
112.827
 20
162.389
 30
0.000000
  70
    32
  0
VERTEX
  8
0
  5
2B32
 10
112.818
 20
162.376
 30
0.000000
  70
    32
  0
VERTEX
  8
0
  5
2B33
 10
112.809
 20
162.364
 30
0.000000
  70
    32
  0
VERTEX
  8
0
  5
2B34
 10
112.799
 20
162.352
 30
0.000000
  70
    32
  0
VERTEX
  8
0
  5
2B35
 10
112.790
 20
162.340
 30
0.000000
  70
    32
  0
VERTEX
  8
0
  5
2B36
 10
112.780
 20
162.329
 30
0.000000
  70
    32
  0
VERTEX
  8
0
  5
2B37
 10
112.771
 20
162.317
 30
0.000000
  70
    32
  0
VERTEX
  8
0
  5
2B38
 10
112.761
 20
162.306
 30
0.000000
  70
    32
  0
VERTEX
  8
0
  5
2B39
 10
112.751
 20
162.295
 30
0.000000
  70
    32
  0
VERTEX
  8
0
  5
2B3A
 10
112.741
 20
162.284
 30
0.000000
  70
    32
  0
VERTEX
  8
0
  5
2B3B
 10
112.731
 20
162.274
 30
0.000000
  70
    32
  0
VERTEX
  8
0
  5
2B3C
 10
112.721
 20
162.263
 30
0.000000
  70
    32
  0
VERTEX
  8
0
  5
2B3D
 10
112.711
 20
162.253
 30
0.000000
  70
    32
  0
VERTEX
  8
0
  5
2B3E
 10
112.701
 20
162.243
 30
0.000000
  70
    32
  0
VERTEX
  8
0
  5
2B3F
 10
112.691
 20
162.233
 30
0.000000
  70
    32
  0
VERTEX
  8
0
  5
2B40
 10
112.680
 20
162.223
 30
0.000000
  70
    32
  0
VERTEX
  8
0
  5
2B41
 10
112.670
 20
162.213
 30
0.000000
  70
    32
  0
VERTEX
  8
0
  5
2B42
 10
112.659
 20
162.204
 30
0.000000
  70
    32
  0
VERTEX
  8
0
  5
2B43
 10
112.648
 20
162.195
 30
0.000000
  70
    32
  0
VERTEX
  8
0
  5
2B44
 10
112.638
 20
162.186
 30
0.000000
  70
    32
  0
VERTEX
  8
0
  5
2B45
 10
112.627
 20
162.177
 30
0.000000
  70
    32
  0
VERTEX
  8
0
  5
2B46
 10
112.616
 20
162.169
 30
0.000000
  70
    32
  0
VERTEX
  8
0
  5
2B47
 10
112.605
 20
162.160
 30
0.000000
  70
    32
  0
VERTEX
  8
0
  5
2B48
 10
112.594
 20
162.152
 30
0.000000
  70
    32
  0
VERTEX
  8
0
  5
2B49
 10
112.583
 20
162.144
 30
0.000000
  70
    32
  0
VERTEX
  8
0
  5
2B4A
 10
112.572
 20
162.136
 30
0.000000
  70
    32
  0
VERTEX
  8
0
  5
2B4B
 10
112.561
 20
162.129
 30
0.000000
  70
    32
  0
VERTEX
  8
0
  5
2B4C
 10
112.550
 20
162.121
 30
0.000000
  70
    32
  0
VERTEX
  8
0
  5
2B4D
 10
112.538
 20
162.114
 30
0.000000
  70
    32
  0
VERTEX
  8
0
  5
2B4E
 10
112.527
 20
162.107
 30
0.000000
  70
    32
  0
VERTEX
  8
0
  5
2B4F
 10
112.515
 20
162.101
 30
0.000000
  70
    32
  0
VERTEX
  8
0
  5
2B50
 10
112.504
 20
162.094
 30
0.000000
  70
    32
  0
VERTEX
  8
0
  5
2B51
 10
112.492
 20
162.088
 30
0.000000
  70
    32
  0
VERTEX
  8
0
  5
2B52
 10
112.481
 20
162.082
 30
0.000000
  70
    32
  0
VERTEX
  8
0
  5
2B53
 10
112.469
 20
162.076
 30
0.000000
  70
    32
  0
VERTEX
  8
0
  5
2B54
 10
112.458
 20
162.070
 30
0.000000
  70
    32
  0
VERTEX
  8
0
  5
2B55
 10
112.446
 20
162.065
 30
0.000000
  70
    32
  0
VERTEX
  8
0
  5
2B56
 10
112.434
 20
162.059
 30
0.000000
  70
    32
  0
VERTEX
  8
0
  5
2B57
 10
112.422
 20
162.054
 30
0.000000
  70
    32
  0
VERTEX
  8
0
  5
2B58
 10
112.410
 20
162.050
 30
0.000000
  70
    32
  0
VERTEX
  8
0
  5
2B59
 10
112.399
 20
162.045
 30
0.000000
  70
    32
  0
VERTEX
  8
0
  5
2B5A
 10
112.387
 20
162.041
 30
0.000000
  70
    32
  0
VERTEX
  8
0
  5
2B5B
 10
112.375
 20
162.036
 30
0.000000
  70
    32
  0
VERTEX
  8
0
  5
2B5C
 10
112.363
 20
162.033
 30
0.000000
  70
    32
  0
VERTEX
  8
0
  5
2B5D
 10
112.351
 20
162.029
 30
0.000000
  70
    32
  0
VERTEX
  8
0
  5
2B5E
 10
112.339
 20
162.025
 30
0.000000
  70
    32
  0
VERTEX
  8
0
  5
2B5F
 10
112.327
 20
162.022
 30
0.000000
  70
    32
  0
VERTEX
  8
0
  5
2B60
 10
112.314
 20
162.019
 30
0.000000
  70
    32
  0
VERTEX
  8
0
  5
2B61
 10
112.302
 20
162.016
 30
0.000000
  70
    32
  0
VERTEX
  8
0
  5
2B62
 10
112.290
 20
162.014
 30
0.000000
  70
    32
  0
VERTEX
  8
0
  5
2B63
 10
112.278
 20
162.011
 30
0.000000
  70
    32
  0
VERTEX
  8
0
  5
2B64
 10
112.266
 20
162.009
 30
0.000000
  70
    32
  0
VERTEX
  8
0
  5
2B65
 10
112.254
 20
162.007
 30
0.000000
  70
    32
  0
VERTEX
  8
0
  5
2B66
 10
112.241
 20
162.006
 30
0.000000
  70
    32
  0
VERTEX
  8
0
  5
2B67
 10
112.229
 20
162.004
 30
0.000000
  70
    32
  0
VERTEX
  8
0
  5
2B68
 10
112.217
 20
162.003
 30
0.000000
  70
    32
  0
VERTEX
  8
0
  5
2B69
 10
112.205
 20
162.002
 30
0.000000
  70
    32
  0
VERTEX
  8
0
  5
2B6A
 10
112.192
 20
162.001
 30
0.000000
  70
    32
  0
VERTEX
  8
0
  5
2B6B
 10
112.180
 20
162.000
 30
0.000000
  70
    32
  0
VERTEX
  8
0
  5
2B6C
 10
112.168
 20
162.000
 30
0.000000
  70
    32
  0
VERTEX
  8
0
  5
2B6D
 10
112.156
 20
162.000
 30
0.000000
  70
    32
  0
SEQEND
  8
0
  5
2B6E
  0
ARC
  5
192E
  8
0
 10
111.0350084508102
 20
165.0
 30
0.0
 40
1.0
 50
270.00000000000051
 51
0.0
  0
ARC
  5
1972
  8
0
 10
105.96499154918961
 20
165.0
 30
0.0
 40
1.0
 50
180.0
 51
269.99999999999949
  0
POLYLINE
  5
1973
  8
0
 10
103.8444250749239
 20
163.49999999999852
 30
0.0
 66
     1
 70
     8
  0
VERTEX
  8
0
  5
2B6F
 10
103.844
 20
163.500
 30
0.000000
  70
    32
  0
VERTEX
  8
0
  5
2B70
 10
103.845
 20
163.482
 30
0.000000
  70
    32
  0
VERTEX
  8
0
  5
2B71
 10
103.845
 20
163.463
 30
0.000000
  70
    32
  0
VERTEX
  8
0
  5
2B72
 10
103.845
 20
163.445
 30
0.000000
  70
    32
  0
VERTEX
  8
0
  5
2B73
 10
103.846
 20
163.426
 30
0.000000
  70
    32
  0
VERTEX
  8
0
  5
2B74
 10
103.846
 20
163.408
 30
0.000000
  70
    32
  0
VERTEX
  8
0
  5
2B75
 10
103.847
 20
163.390
 30
0.000000
  70
    32
  0
VERTEX
  8
0
  5
2B76
 10
103.848
 20
163.371
 30
0.000000
  70
    32
  0
VERTEX
  8
0
  5
2B77
 10
103.849
 20
163.353
 30
0.000000
  70
    32
  0
VERTEX
  8
0
  5
2B78
 10
103.851
 20
163.335
 30
0.000000
  70
    32
  0
VERTEX
  8
0
  5
2B79
 10
103.852
 20
163.316
 30
0.000000
  70
    32
  0
VERTEX
  8
0
  5
2B7A
 10
103.854
 20
163.298
 30
0.000000
  70
    32
  0
VERTEX
  8
0
  5
2B7B
 10
103.855
 20
163.280
 30
0.000000
  70
    32
  0
VERTEX
  8
0
  5
2B7C
 10
103.857
 20
163.262
 30
0.000000
  70
    32
  0
VERTEX
  8
0
  5
2B7D
 10
103.859
 20
163.244
 30
0.000000
  70
    32
  0
VERTEX
  8
0
  5
2B7E
 10
103.861
 20
163.225
 30
0.000000
  70
    32
  0
VERTEX
  8
0
  5
2B7F
 10
103.864
 20
163.207
 30
0.000000
  70
    32
  0
VERTEX
  8
0
  5
2B80
 10
103.866
 20
163.189
 30
0.000000
  70
    32
  0
VERTEX
  8
0
  5
2B81
 10
103.869
 20
163.171
 30
0.000000
  70
    32
  0
VERTEX
  8
0
  5
2B82
 10
103.871
 20
163.153
 30
0.000000
  70
    32
  0
VERTEX
  8
0
  5
2B83
 10
103.874
 20
163.136
 30
0.000000
  70
    32
  0
VERTEX
  8
0
  5
2B84
 10
103.877
 20
163.118
 30
0.000000
  70
    32
  0
VERTEX
  8
0
  5
2B85
 10
103.881
 20
163.100
 30
0.000000
  70
    32
  0
VERTEX
  8
0
  5
2B86
 10
103.884
 20
163.082
 30
0.000000
  70
    32
  0
VERTEX
  8
0
  5
2B87
 10
103.887
 20
163.065
 30
0.000000
  70
    32
  0
VERTEX
  8
0
  5
2B88
 10
103.891
 20
163.047
 30
0.000000
  70
    32
  0
VERTEX
  8
0
  5
2B89
 10
103.895
 20
163.029
 30
0.000000
  70
    32
  0
VERTEX
  8
0
  5
2B8A
 10
103.899
 20
163.012
 30
0.000000
  70
    32
  0
VERTEX
  8
0
  5
2B8B
 10
103.903
 20
162.995
 30
0.000000
  70
    32
  0
VERTEX
  8
0
  5
2B8C
 10
103.907
 20
162.977
 30
0.000000
  70
    32
  0
VERTEX
  8
0
  5
2B8D
 10
103.911
 20
162.960
 30
0.000000
  70
    32
  0
VERTEX
  8
0
  5
2B8E
 10
103.916
 20
162.943
 30
0.000000
  70
    32
  0
VERTEX
  8
0
  5
2B8F
 10
103.921
 20
162.926
 30
0.000000
  70
    32
  0
VERTEX
  8
0
  5
2B90
 10
103.925
 20
162.909
 30
0.000000
  70
    32
  0
VERTEX
  8
0
  5
2B91
 10
103.930
 20
162.892
 30
0.000000
  70
    32
  0
VERTEX
  8
0
  5
2B92
 10
103.935
 20
162.875
 30
0.000000
  70
    32
  0
VERTEX
  8
0
  5
2B93
 10
103.940
 20
162.859
 30
0.000000
  70
    32
  0
VERTEX
  8
0
  5
2B94
 10
103.946
 20
162.842
 30
0.000000
  70
    32
  0
VERTEX
  8
0
  5
2B95
 10
103.951
 20
162.826
 30
0.000000
  70
    32
  0
VERTEX
  8
0
  5
2B96
 10
103.957
 20
162.809
 30
0.000000
  70
    32
  0
VERTEX
  8
0
  5
2B97
 10
103.963
 20
162.793
 30
0.000000
  70
    32
  0
VERTEX
  8
0
  5
2B98
 10
103.968
 20
162.777
 30
0.000000
  70
    32
  0
VERTEX
  8
0
  5
2B99
 10
103.974
 20
162.761
 30
0.000000
  70
    32
  0
VERTEX
  8
0
  5
2B9A
 10
103.980
 20
162.745
 30
0.000000
  70
    32
  0
VERTEX
  8
0
  5
2B9B
 10
103.987
 20
162.729
 30
0.000000
  70
    32
  0
VERTEX
  8
0
  5
2B9C
 10
103.993
 20
162.713
 30
0.000000
  70
    32
  0
VERTEX
  8
0
  5
2B9D
 10
104.000
 20
162.698
 30
0.000000
  70
    32
  0
VERTEX
  8
0
  5
2B9E
 10
104.006
 20
162.682
 30
0.000000
  70
    32
  0
VERTEX
  8
0
  5
2B9F
 10
104.013
 20
162.667
 30
0.000000
  70
    32
  0
VERTEX
  8
0
  5
2BA0
 10
104.020
 20
162.651
 30
0.000000
  70
    32
  0
VERTEX
  8
0
  5
2BA1
 10
104.027
 20
162.636
 30
0.000000
  70
    32
  0
VERTEX
  8
0
  5
2BA2
 10
104.034
 20
162.621
 30
0.000000
  70
    32
  0
VERTEX
  8
0
  5
2BA3
 10
104.041
 20
162.606
 30
0.000000
  70
    32
  0
VERTEX
  8
0
  5
2BA4
 10
104.049
 20
162.592
 30
0.000000
  70
    32
  0
VERTEX
  8
0
  5
2BA5
 10
104.056
 20
162.577
 30
0.000000
  70
    32
  0
VERTEX
  8
0
  5
2BA6
 10
104.064
 20
162.563
 30
0.000000
  70
    32
  0
VERTEX
  8
0
  5
2BA7
 10
104.071
 20
162.548
 30
0.000000
  70
    32
  0
VERTEX
  8
0
  5
2BA8
 10
104.079
 20
162.534
 30
0.000000
  70
    32
  0
VERTEX
  8
0
  5
2BA9
 10
104.087
 20
162.520
 30
0.000000
  70
    32
  0
VERTEX
  8
0
  5
2BAA
 10
104.095
 20
162.506
 30
0.000000
  70
    32
  0
VERTEX
  8
0
  5
2BAB
 10
104.103
 20
162.493
 30
0.000000
  70
    32
  0
VERTEX
  8
0
  5
2BAC
 10
104.112
 20
162.479
 30
0.000000
  70
    32
  0
VERTEX
  8
0
  5
2BAD
 10
104.120
 20
162.466
 30
0.000000
  70
    32
  0
VERTEX
  8
0
  5
2BAE
 10
104.129
 20
162.452
 30
0.000000
  70
    32
  0
VERTEX
  8
0
  5
2BAF
 10
104.137
 20
162.439
 30
0.000000
  70
    32
  0
VERTEX
  8
0
  5
2BB0
 10
104.146
 20
162.426
 30
0.000000
  70
    32
  0
VERTEX
  8
0
  5
2BB1
 10
104.155
 20
162.414
 30
0.000000
  70
    32
  0
VERTEX
  8
0
  5
2BB2
 10
104.164
 20
162.401
 30
0.000000
  70
    32
  0
VERTEX
  8
0
  5
2BB3
 10
104.173
 20
162.389
 30
0.000000
  70
    32
  0
VERTEX
  8
0
  5
2BB4
 10
104.182
 20
162.376
 30
0.000000
  70
    32
  0
VERTEX
  8
0
  5
2BB5
 10
104.191
 20
162.364
 30
0.000000
  70
    32
  0
VERTEX
  8
0
  5
2BB6
 10
104.201
 20
162.352
 30
0.000000
  70
    32
  0
VERTEX
  8
0
  5
2BB7
 10
104.210
 20
162.340
 30
0.000000
  70
    32
  0
VERTEX
  8
0
  5
2BB8
 10
104.220
 20
162.329
 30
0.000000
  70
    32
  0
VERTEX
  8
0
  5
2BB9
 10
104.229
 20
162.317
 30
0.000000
  70
    32
  0
VERTEX
  8
0
  5
2BBA
 10
104.239
 20
162.306
 30
0.000000
  70
    32
  0
VERTEX
  8
0
  5
2BBB
 10
104.249
 20
162.295
 30
0.000000
  70
    32
  0
VERTEX
  8
0
  5
2BBC
 10
104.259
 20
162.284
 30
0.000000
  70
    32
  0
VERTEX
  8
0
  5
2BBD
 10
104.269
 20
162.274
 30
0.000000
  70
    32
  0
VERTEX
  8
0
  5
2BBE
 10
104.279
 20
162.263
 30
0.000000
  70
    32
  0
VERTEX
  8
0
  5
2BBF
 10
104.289
 20
162.253
 30
0.000000
  70
    32
  0
VERTEX
  8
0
  5
2BC0
 10
104.299
 20
162.243
 30
0.000000
  70
    32
  0
VERTEX
  8
0
  5
2BC1
 10
104.309
 20
162.233
 30
0.000000
  70
    32
  0
VERTEX
  8
0
  5
2BC2
 10
104.320
 20
162.223
 30
0.000000
  70
    32
  0
VERTEX
  8
0
  5
2BC3
 10
104.330
 20
162.213
 30
0.000000
  70
    32
  0
VERTEX
  8
0
  5
2BC4
 10
104.341
 20
162.204
 30
0.000000
  70
    32
  0
VERTEX
  8
0
  5
2BC5
 10
104.352
 20
162.195
 30
0.000000
  70
    32
  0
VERTEX
  8
0
  5
2BC6
 10
104.362
 20
162.186
 30
0.000000
  70
    32
  0
VERTEX
  8
0
  5
2BC7
 10
104.373
 20
162.177
 30
0.000000
  70
    32
  0
VERTEX
  8
0
  5
2BC8
 10
104.384
 20
162.169
 30
0.000000
  70
    32
  0
VERTEX
  8
0
  5
2BC9
 10
104.395
 20
162.160
 30
0.000000
  70
    32
  0
VERTEX
  8
0
  5
2BCA
 10
104.406
 20
162.152
 30
0.000000
  70
    32
  0
VERTEX
  8
0
  5
2BCB
 10
104.417
 20
162.144
 30
0.000000
  70
    32
  0
VERTEX
  8
0
  5
2BCC
 10
104.428
 20
162.136
 30
0.000000
  70
    32
  0
VERTEX
  8
0
  5
2BCD
 10
104.439
 20
162.129
 30
0.000000
  70
    32
  0
VERTEX
  8
0
  5
2BCE
 10
104.450
 20
162.121
 30
0.000000
  70
    32
  0
VERTEX
  8
0
  5
2BCF
 10
104.462
 20
162.114
 30
0.000000
  70
    32
  0
VERTEX
  8
0
  5
2BD0
 10
104.473
 20
162.107
 30
0.000000
  70
    32
  0
VERTEX
  8
0
  5
2BD1
 10
104.485
 20
162.101
 30
0.000000
  70
    32
  0
VERTEX
  8
0
  5
2BD2
 10
104.496
 20
162.094
 30
0.000000
  70
    32
  0
VERTEX
  8
0
  5
2BD3
 10
104.508
 20
162.088
 30
0.000000
  70
    32
  0
VERTEX
  8
0
  5
2BD4
 10
104.519
 20
162.082
 30
0.000000
  70
    32
  0
VERTEX
  8
0
  5
2BD5
 10
104.531
 20
162.076
 30
0.000000
  70
    32
  0
VERTEX
  8
0
  5
2BD6
 10
104.542
 20
162.070
 30
0.000000
  70
    32
  0
VERTEX
  8
0
  5
2BD7
 10
104.554
 20
162.065
 30
0.000000
  70
    32
  0
VERTEX
  8
0
  5
2BD8
 10
104.566
 20
162.059
 30
0.000000
  70
    32
  0
VERTEX
  8
0
  5
2BD9
 10
104.578
 20
162.054
 30
0.000000
  70
    32
  0
VERTEX
  8
0
  5
2BDA
 10
104.590
 20
162.050
 30
0.000000
  70
    32
  0
VERTEX
  8
0
  5
2BDB
 10
104.601
 20
162.045
 30
0.000000
  70
    32
  0
VERTEX
  8
0
  5
2BDC
 10
104.613
 20
162.041
 30
0.000000
  70
    32
  0
VERTEX
  8
0
  5
2BDD
 10
104.625
 20
162.036
 30
0.000000
  70
    32
  0
VERTEX
  8
0
  5
2BDE
 10
104.637
 20
162.033
 30
0.000000
  70
    32
  0
VERTEX
  8
0
  5
2BDF
 10
104.649
 20
162.029
 30
0.000000
  70
    32
  0
VERTEX
  8
0
  5
2BE0
 10
104.661
 20
162.025
 30
0.000000
  70
    32
  0
VERTEX
  8
0
  5
2BE1
 10
104.673
 20
162.022
 30
0.000000
  70
    32
  0
VERTEX
  8
0
  5
2BE2
 10
104.686
 20
162.019
 30
0.000000
  70
    32
  0
VERTEX
  8
0
  5
2BE3
 10
104.698
 20
162.016
 30
0.000000
  70
    32
  0
VERTEX
  8
0
  5
2BE4
 10
104.710
 20
162.014
 30
0.000000
  70
    32
  0
VERTEX
  8
0
  5
2BE5
 10
104.722
 20
162.011
 30
0.000000
  70
    32
  0
VERTEX
  8
0
  5
2BE6
 10
104.734
 20
162.009
 30
0.000000
  70
    32
  0
VERTEX
  8
0
  5
2BE7
 10
104.746
 20
162.007
 30
0.000000
  70
    32
  0
VERTEX
  8
0
  5
2BE8
 10
104.759
 20
162.006
 30
0.000000
  70
    32
  0
VERTEX
  8
0
  5
2BE9
 10
104.771
 20
162.004
 30
0.000000
  70
    32
  0
VERTEX
  8
0
  5
2BEA
 10
104.783
 20
162.003
 30
0.000000
  70
    32
  0
VERTEX
  8
0
  5
2BEB
 10
104.795
 20
162.002
 30
0.000000
  70
    32
  0
VERTEX
  8
0
  5
2BEC
 10
104.808
 20
162.001
 30
0.000000
  70
    32
  0
VERTEX
  8
0
  5
2BED
 10
104.820
 20
162.000
 30
0.000000
  70
    32
  0
VERTEX
  8
0
  5
2BEE
 10
104.832
 20
162.000
 30
0.000000
  70
    32
  0
VERTEX
  8
0
  5
2BEF
 10
104.844
 20
162.000
 30
0.000000
  70
    32
  0
SEQEND
  8
0
  5
2BF0
  0
POLYLINE
  5
1974
  8
0
 10
103.844425074924
 20
170.5
 30
0.0
 66
     1
 70
     8
  0
VERTEX
  8
0
  5
2BF1
 10
103.844
 20
170.500
 30
0.000000
  70
    32
  0
VERTEX
  8
0
  5
2BF2
 10
103.845
 20
170.518
 30
0.000000
  70
    32
  0
VERTEX
  8
0
  5
2BF3
 10
103.845
 20
170.537
 30
0.000000
  70
    32
  0
VERTEX
  8
0
  5
2BF4
 10
103.845
 20
170.555
 30
0.000000
  70
    32
  0
VERTEX
  8
0
  5
2BF5
 10
103.846
 20
170.574
 30
0.000000
  70
    32
  0
VERTEX
  8
0
  5
2BF6
 10
103.846
 20
170.592
 30
0.000000
  70
    32
  0
VERTEX
  8
0
  5
2BF7
 10
103.847
 20
170.610
 30
0.000000
  70
    32
  0
VERTEX
  8
0
  5
2BF8
 10
103.848
 20
170.629
 30
0.000000
  70
    32
  0
VERTEX
  8
0
  5
2BF9
 10
103.849
 20
170.647
 30
0.000000
  70
    32
  0
VERTEX
  8
0
  5
2BFA
 10
103.851
 20
170.665
 30
0.000000
  70
    32
  0
VERTEX
  8
0
  5
2BFB
 10
103.852
 20
170.684
 30
0.000000
  70
    32
  0
VERTEX
  8
0
  5
2BFC
 10
103.854
 20
170.702
 30
0.000000
  70
    32
  0
VERTEX
  8
0
  5
2BFD
 10
103.855
 20
170.720
 30
0.000000
  70
    32
  0
VERTEX
  8
0
  5
2BFE
 10
103.857
 20
170.738
 30
0.000000
  70
    32
  0
VERTEX
  8
0
  5
2BFF
 10
103.859
 20
170.756
 30
0.000000
  70
    32
  0
VERTEX
  8
0
  5
2C00
 10
103.861
 20
170.775
 30
0.000000
  70
    32
  0
VERTEX
  8
0
  5
2C01
 10
103.864
 20
170.793
 30
0.000000
  70
    32
  0
VERTEX
  8
0
  5
2C02
 10
103.866
 20
170.811
 30
0.000000
  70
    32
  0
VERTEX
  8
0
  5
2C03
 10
103.869
 20
170.829
 30
0.000000
  70
    32
  0
VERTEX
  8
0
  5
2C04
 10
103.871
 20
170.847
 30
0.000000
  70
    32
  0
VERTEX
  8
0
  5
2C05
 10
103.874
 20
170.864
 30
0.000000
  70
    32
  0
VERTEX
  8
0
  5
2C06
 10
103.877
 20
170.882
 30
0.000000
  70
    32
  0
VERTEX
  8
0
  5
2C07
 10
103.881
 20
170.900
 30
0.000000
  70
    32
  0
VERTEX
  8
0
  5
2C08
 10
103.884
 20
170.918
 30
0.000000
  70
    32
  0
VERTEX
  8
0
  5
2C09
 10
103.887
 20
170.935
 30
0.000000
  70
    32
  0
VERTEX
  8
0
  5
2C0A
 10
103.891
 20
170.953
 30
0.000000
  70
    32
  0
VERTEX
  8
0
  5
2C0B
 10
103.895
 20
170.971
 30
0.000000
  70
    32
  0
VERTEX
  8
0
  5
2C0C
 10
103.899
 20
170.988
 30
0.000000
  70
    32
  0
VERTEX
  8
0
  5
2C0D
 10
103.903
 20
171.005
 30
0.000000
  70
    32
  0
VERTEX
  8
0
  5
2C0E
 10
103.907
 20
171.023
 30
0.000000
  70
    32
  0
VERTEX
  8
0
  5
2C0F
 10
103.911
 20
171.040
 30
0.000000
  70
    32
  0
VERTEX
  8
0
  5
2C10
 10
103.916
 20
171.057
 30
0.000000
  70
    32
  0
VERTEX
  8
0
  5
2C11
 10
103.921
 20
171.074
 30
0.000000
  70
    32
  0
VERTEX
  8
0
  5
2C12
 10
103.925
 20
171.091
 30
0.000000
  70
    32
  0
VERTEX
  8
0
  5
2C13
 10
103.930
 20
171.108
 30
0.000000
  70
    32
  0
VERTEX
  8
0
  5
2C14
 10
103.935
 20
171.125
 30
0.000000
  70
    32
  0
VERTEX
  8
0
  5
2C15
 10
103.940
 20
171.141
 30
0.000000
  70
    32
  0
VERTEX
  8
0
  5
2C16
 10
103.946
 20
171.158
 30
0.000000
  70
    32
  0
VERTEX
  8
0
  5
2C17
 10
103.951
 20
171.174
 30
0.000000
  70
    32
  0
VERTEX
  8
0
  5
2C18
 10
103.957
 20
171.191
 30
0.000000
  70
    32
  0
VERTEX
  8
0
  5
2C19
 10
103.963
 20
171.207
 30
0.000000
  70
    32
  0
VERTEX
  8
0
  5
2C1A
 10
103.968
 20
171.223
 30
0.000000
  70
    32
  0
VERTEX
  8
0
  5
2C1B
 10
103.974
 20
171.239
 30
0.000000
  70
    32
  0
VERTEX
  8
0
  5
2C1C
 10
103.980
 20
171.255
 30
0.000000
  70
    32
  0
VERTEX
  8
0
  5
2C1D
 10
103.987
 20
171.271
 30
0.000000
  70
    32
  0
VERTEX
  8
0
  5
2C1E
 10
103.993
 20
171.287
 30
0.000000
  70
    32
  0
VERTEX
  8
0
  5
2C1F
 10
104.000
 20
171.302
 30
0.000000
  70
    32
  0
VERTEX
  8
0
  5
2C20
 10
104.006
 20
171.318
 30
0.000000
  70
    32
  0
VERTEX
  8
0
  5
2C21
 10
104.013
 20
171.333
 30
0.000000
  70
    32
  0
VERTEX
  8
0
  5
2C22
 10
104.020
 20
171.349
 30
0.000000
  70
    32
  0
VERTEX
  8
0
  5
2C23
 10
104.027
 20
171.364
 30
0.000000
  70
    32
  0
VERTEX
  8
0
  5
2C24
 10
104.034
 20
171.379
 30
0.000000
  70
    32
  0
VERTEX
  8
0
  5
2C25
 10
104.041
 20
171.394
 30
0.000000
  70
    32
  0
VERTEX
  8
0
  5
2C26
 10
104.049
 20
171.408
 30
0.000000
  70
    32
  0
VERTEX
  8
0
  5
2C27
 10
104.056
 20
171.423
 30
0.000000
  70
    32
  0
VERTEX
  8
0
  5
2C28
 10
104.064
 20
171.437
 30
0.000000
  70
    32
  0
VERTEX
  8
0
  5
2C29
 10
104.071
 20
171.452
 30
0.000000
  70
    32
  0
VERTEX
  8
0
  5
2C2A
 10
104.079
 20
171.466
 30
0.000000
  70
    32
  0
VERTEX
  8
0
  5
2C2B
 10
104.087
 20
171.480
 30
0.000000
  70
    32
  0
VERTEX
  8
0
  5
2C2C
 10
104.095
 20
171.494
 30
0.000000
  70
    32
  0
VERTEX
  8
0
  5
2C2D
 10
104.103
 20
171.507
 30
0.000000
  70
    32
  0
VERTEX
  8
0
  5
2C2E
 10
104.112
 20
171.521
 30
0.000000
  70
    32
  0
VERTEX
  8
0
  5
2C2F
 10
104.120
 20
171.534
 30
0.000000
  70
    32
  0
VERTEX
  8
0
  5
2C30
 10
104.129
 20
171.548
 30
0.000000
  70
    32
  0
VERTEX
  8
0
  5
2C31
 10
104.137
 20
171.561
 30
0.000000
  70
    32
  0
VERTEX
  8
0
  5
2C32
 10
104.146
 20
171.574
 30
0.000000
  70
    32
  0
VERTEX
  8
0
  5
2C33
 10
104.155
 20
171.586
 30
0.000000
  70
    32
  0
VERTEX
  8
0
  5
2C34
 10
104.164
 20
171.599
 30
0.000000
  70
    32
  0
VERTEX
  8
0
  5
2C35
 10
104.173
 20
171.611
 30
0.000000
  70
    32
  0
VERTEX
  8
0
  5
2C36
 10
104.182
 20
171.624
 30
0.000000
  70
    32
  0
VERTEX
  8
0
  5
2C37
 10
104.191
 20
171.636
 30
0.000000
  70
    32
  0
VERTEX
  8
0
  5
2C38
 10
104.201
 20
171.648
 30
0.000000
  70
    32
  0
VERTEX
  8
0
  5
2C39
 10
104.210
 20
171.660
 30
0.000000
  70
    32
  0
VERTEX
  8
0
  5
2C3A
 10
104.220
 20
171.671
 30
0.000000
  70
    32
  0
VERTEX
  8
0
  5
2C3B
 10
104.229
 20
171.683
 30
0.000000
  70
    32
  0
VERTEX
  8
0
  5
2C3C
 10
104.239
 20
171.694
 30
0.000000
  70
    32
  0
VERTEX
  8
0
  5
2C3D
 10
104.249
 20
171.705
 30
0.000000
  70
    32
  0
VERTEX
  8
0
  5
2C3E
 10
104.259
 20
171.716
 30
0.000000
  70
    32
  0
VERTEX
  8
0
  5
2C3F
 10
104.269
 20
171.726
 30
0.000000
  70
    32
  0
VERTEX
  8
0
  5
2C40
 10
104.279
 20
171.737
 30
0.000000
  70
    32
  0
VERTEX
  8
0
  5
2C41
 10
104.289
 20
171.747
 30
0.000000
  70
    32
  0
VERTEX
  8
0
  5
2C42
 10
104.299
 20
171.757
 30
0.000000
  70
    32
  0
VERTEX
  8
0
  5
2C43
 10
104.309
 20
171.767
 30
0.000000
  70
    32
  0
VERTEX
  8
0
  5
2C44
 10
104.320
 20
171.777
 30
0.000000
  70
    32
  0
VERTEX
  8
0
  5
2C45
 10
104.330
 20
171.787
 30
0.000000
  70
    32
  0
VERTEX
  8
0
  5
2C46
 10
104.341
 20
171.796
 30
0.000000
  70
    32
  0
VERTEX
  8
0
  5
2C47
 10
104.352
 20
171.805
 30
0.000000
  70
    32
  0
VERTEX
  8
0
  5
2C48
 10
104.362
 20
171.814
 30
0.000000
  70
    32
  0
VERTEX
  8
0
  5
2C49
 10
104.373
 20
171.823
 30
0.000000
  70
    32
  0
VERTEX
  8
0
  5
2C4A
 10
104.384
 20
171.831
 30
0.000000
  70
    32
  0
VERTEX
  8
0
  5
2C4B
 10
104.395
 20
171.840
 30
0.000000
  70
    32
  0
VERTEX
  8
0
  5
2C4C
 10
104.406
 20
171.848
 30
0.000000
  70
    32
  0
VERTEX
  8
0
  5
2C4D
 10
104.417
 20
171.856
 30
0.000000
  70
    32
  0
VERTEX
  8
0
  5
2C4E
 10
104.428
 20
171.864
 30
0.000000
  70
    32
  0
VERTEX
  8
0
  5
2C4F
 10
104.439
 20
171.871
 30
0.000000
  70
    32
  0
VERTEX
  8
0
  5
2C50
 10
104.450
 20
171.879
 30
0.000000
  70
    32
  0
VERTEX
  8
0
  5
2C51
 10
104.462
 20
171.886
 30
0.000000
  70
    32
  0
VERTEX
  8
0
  5
2C52
 10
104.473
 20
171.893
 30
0.000000
  70
    32
  0
VERTEX
  8
0
  5
2C53
 10
104.485
 20
171.899
 30
0.000000
  70
    32
  0
VERTEX
  8
0
  5
2C54
 10
104.496
 20
171.906
 30
0.000000
  70
    32
  0
VERTEX
  8
0
  5
2C55
 10
104.508
 20
171.912
 30
0.000000
  70
    32
  0
VERTEX
  8
0
  5
2C56
 10
104.519
 20
171.918
 30
0.000000
  70
    32
  0
VERTEX
  8
0
  5
2C57
 10
104.531
 20
171.924
 30
0.000000
  70
    32
  0
VERTEX
  8
0
  5
2C58
 10
104.542
 20
171.930
 30
0.000000
  70
    32
  0
VERTEX
  8
0
  5
2C59
 10
104.554
 20
171.935
 30
0.000000
  70
    32
  0
VERTEX
  8
0
  5
2C5A
 10
104.566
 20
171.941
 30
0.000000
  70
    32
  0
VERTEX
  8
0
  5
2C5B
 10
104.578
 20
171.946
 30
0.000000
  70
    32
  0
VERTEX
  8
0
  5
2C5C
 10
104.590
 20
171.950
 30
0.000000
  70
    32
  0
VERTEX
  8
0
  5
2C5D
 10
104.601
 20
171.955
 30
0.000000
  70
    32
  0
VERTEX
  8
0
  5
2C5E
 10
104.613
 20
171.959
 30
0.000000
  70
    32
  0
VERTEX
  8
0
  5
2C5F
 10
104.625
 20
171.964
 30
0.000000
  70
    32
  0
VERTEX
  8
0
  5
2C60
 10
104.637
 20
171.967
 30
0.000000
  70
    32
  0
VERTEX
  8
0
  5
2C61
 10
104.649
 20
171.971
 30
0.000000
  70
    32
  0
VERTEX
  8
0
  5
2C62
 10
104.661
 20
171.975
 30
0.000000
  70
    32
  0
VERTEX
  8
0
  5
2C63
 10
104.673
 20
171.978
 30
0.000000
  70
    32
  0
VERTEX
  8
0
  5
2C64
 10
104.686
 20
171.981
 30
0.000000
  70
    32
  0
VERTEX
  8
0
  5
2C65
 10
104.698
 20
171.984
 30
0.000000
  70
    32
  0
VERTEX
  8
0
  5
2C66
 10
104.710
 20
171.986
 30
0.000000
  70
    32
  0
VERTEX
  8
0
  5
2C67
 10
104.722
 20
171.989
 30
0.000000
  70
    32
  0
VERTEX
  8
0
  5
2C68
 10
104.734
 20
171.991
 30
0.000000
  70
    32
  0
VERTEX
  8
0
  5
2C69
 10
104.746
 20
171.993
 30
0.000000
  70
    32
  0
VERTEX
  8
0
  5
2C6A
 10
104.759
 20
171.994
 30
0.000000
  70
    32
  0
VERTEX
  8
0
  5
2C6B
 10
104.771
 20
171.996
 30
0.000000
  70
    32
  0
VERTEX
  8
0
  5
2C6C
 10
104.783
 20
171.997
 30
0.000000
  70
    32
  0
VERTEX
  8
0
  5
2C6D
 10
104.795
 20
171.998
 30
0.000000
  70
    32
  0
VERTEX
  8
0
  5
2C6E
 10
104.808
 20
171.999
 30
0.000000
  70
    32
  0
VERTEX
  8
0
  5
2C6F
 10
104.820
 20
172.000
 30
0.000000
  70
    32
  0
VERTEX
  8
0
  5
2C70
 10
104.832
 20
172.000
 30
0.000000
  70
    32
  0
VERTEX
  8
0
  5
2C71
 10
104.844
 20
172.000
 30
0.000000
  70
    32
  0
SEQEND
  8
0
  5
2C72
  0
LINE
  5
1975
  8
0
 10
103.844425074924
 20
170.5
 30
0.0
 11
103.844425074924
 21
163.49999999999849
 31
0.0
  0
ARC
  5
1976
  8
0
 10
105.96499154918961
 20
168.6925304673795
 30
0.0
 40
1.0
 50
90.000000000000483
 51
180.0
  0
LINE
  5
1977
  8
0
 10
104.96499154918961
 20
168.6925304673795
 30
0.0
 11
104.96499154918961
 21
165.0
 31
0.0
  0
LINE
  5
1978
  8
0
 10
112.1555749250759
 20
172.0
 30
0.0
 11
111.3558911457271
 21
169.63964941244549
 31
0.0
  0
LINE
  5
1979
  8
0
 10
112.0350084508103
 20
168.6925304673795
 30
0.0
 11
113.1555749250758
 21
170.5
 31
0.0
  0
LINE
  5
197B
  8
0
 10
103.844425074924
 20
170.5
 30
0.0
 11
104.96499154918961
 21
168.6925304673795
 31
0.0
  0
LINE
  5
197C
  8
0
 10
104.844425074924
 20
172.0
 30
0.0
 11
105.96499154918961
 21
169.69253046737961
 31
0.0
  0
LINE
  5
1982
  8
0
 10
104.96499154918961
 20
165.0
 30
0.0
 11
103.8444250749239
 21
163.49999999999849
 31
0.0
  0
LINE
  5
1983
  8
0
 10
105.96499154918961
 20
164.0
 30
0.0
 11
104.8444250749239
 21
161.99999999999849
 31
0.0
  0
LINE
  5
1985
  8
0
 10
112.0350084508103
 20
165.0
 30
0.0
 11
113.1555749250759
 21
163.49999999999849
 31
0.0
  0
LINE
  5
1986
  8
0
 10
111.0350084508103
 20
164.0
 30
0.0
 11
112.1555749250759
 21
161.99999999999849
 31
0.0
  0
LINE
  5
2461
  8
0
 10
54.000000000000028
 20
36.999464410607992
 30
0.0
 11
54.000000000000028
 21
40.354248688935527
 31
0.0
  0
ARC
  5
2462
  8
0
 10
53.099999999999973
 20
41.677124344467778
 30
0.0
 40
1.6000000000000001
 50
304.2288663278153
 51
55.771133672182287
  0
ARC
  5
2463
  8
0
 10
57.240370349204028
 20
41.677124344467792
 30
0.0
 40
3.5
 50
157.7923457014038
 51
202.2076542985933
  0
LINE
  5
2464
  8
0
 10
54.000000000000092
 20
43.00000000000005
 30
0.0
 11
54.000000000000007
 21
143.0
 31
0.0
  0
LINE
  5
2465
  8
0
 10
45.999999999999922
 20
37.000000000000007
 30
0.0
 11
54.000000000000028
 21
37.000000000000007
 31
0.0
  0
ARC
  5
2467
  8
0
 10
42.759629650795922
 20
41.677124344467792
 30
0.0
 40
3.5
 50
337.7923457014067
 51
22.20765429859614
  0
ARC
  5
2468
  8
0
 10
46.899999999999977
 20
41.677124344467778
 30
0.0
 40
1.6000000000000001
 50
124.2288663278177
 51
235.77113367218459
  0
LINE
  5
2469
  8
0
 10
45.999999999999858
 20
43.00000000000005
 30
0.0
 11
45.99999999999995
 21
143.0
 31
0.0
  0
LINE
  5
246A
  8
0
 10
45.999999999999922
 20
37.000000000000007
 30
0.0
 11
45.999999999999922
 21
40.354248688935527
 31
0.0
  0
LINE
  5
246B
  8
0
 10
45.999999999999922
 20
37.000000000000007
 30
0.0
 11
46.700052584629738
 21
35.0
 31
0.0
  0
LINE
  5
2479
  8
0
 10
112.5000000000001
 20
37.000000000000021
 30
0.0
 11
112.5
 21
143.00000000000011
 31
0.0
  0
LINE
  5
247A
  8
0
 10
104.4999999999998
 20
37.000000000000028
 30
0.0
 11
104.4999999999999
 21
143.00000000000011
 31
0.0
  0
CIRCLE
  5
247E
  8
0
 10
108.4999999999999
 20
41.677124344467749
 30
0.0
 40
1.322875655532378
  0
TEXT
  5
2550
  8
0
 62
     3
 10
0.0
 20
0.0
 30
0.0
 40
10.0
  1
BJ773-08100-SUS
  7
STANDARD1
  0
LINE
  5
25E4
  8
0
 10
44.499999999999979
 20
143.0
 30
0.0
 11
44.499999999999979
 21
162.0
 31
0.0
  0
LINE
  5
25E7
  8
0
 10
55.499999999999993
 20
143.0
 30
0.0
 11
55.499999999999979
 21
162.0
 31
0.0
  0
LINE
  5
25EF
  8
0
 10
113.9999999999999
 20
143.0
 30
0.0
 11
113.9999999999999
 21
171.0
 31
0.0
  0
LINE
  5
25F0
  8
0
 10
103.0
 20
143.0
 30
0.0
 11
102.9999999999999
 21
171.0
 31
0.0
  0
LINE
  5
261B
  8
0
 10
54.000000000000043
 20
36.999999999999979
 30
0.0
 11
53.299947415370212
 21
34.999999999999972
 31
0.0
  0
LINE
  5
261C
  8
0
 10
46.700052584629738
 20
35.0
 30
0.0
 11
53.299947415370212
 21
34.999999999999972
 31
0.0
  0
LINE
  5
262A
  8
0
 10
104.4999999999998
 20
37.000000000000028
 30
0.0
 11
112.4999999999999
 21
37.000000000000028
 31
0.0
  0
LINE
  5
262B
  8
0
 10
104.4999999999998
 20
37.000000000000028
 30
0.0
 11
105.2000525846296
 21
35.000000000000028
 31
0.0
  0
LINE
  5
262C
  8
0
 10
112.4999999999999
 20
37.0
 30
0.0
 11
111.7999474153701
 21
35.0
 31
0.0
  0
LINE
  5
262D
  8
0
 10
105.2000525846296
 20
35.000000000000028
 30
0.0
 11
111.7999474153701
 21
35.0
 31
0.0
  0
ARC
  5
269E
  8
0
 10
49.999638160085098
 20
210.49999999995271
 30
0.0
 40
5.5
 50
235.9524567679515
 51
304.0470677531768
  0
ARC
  5
269F
  8
0
 10
49.999638160085098
 20
210.49999999995271
 30
0.0
 40
5.5
 50
55.952932246822542
 51
124.0475432320485
  0
ARC
  5
26A0
  8
0
 10
53.918754469714777
 20
204.6999545387865
 30
0.0
 40
1.5
 50
92.412978451484065
 51
124.0470677531769
  0
ARC
  5
26A1
  8
0
 10
46.080473717916483
 20
204.69998706244641
 30
0.0
 40
1.5
 50
55.952456767951652
 51
87.587021548516148
  0
ARC
  5
26A2
  8
0
 10
46.08047371791649
 20
216.30001293745909
 30
0.0
 40
1.5
 50
272.41297845148409
 51
304.04754323204833
  0
ARC
  5
26A3
  8
0
 10
53.918754469714841
 20
216.30004546111891
 30
0.0
 40
1.5
 50
235.9529322468224
 51
267.58702154851591
  0
ARC
  5
26B4
  8
0
 10
57.711264145277113
 20
165.26223951224929
 30
0.0
 40
4.0570165041249862
 50
198.1270450416672
 51
233.52324947234391
  0
POLYLINE
  5
26B9
  8
0
 10
44.700237415958014
 20
161.99999999999989
 30
0.0
 66
     1
 70
     8
  0
VERTEX
  8
0
  5
2C73
 10
44.7002
 20
162.000
 30
0.000000
  70
    32
  0
VERTEX
  8
0
  5
2C74
 10
44.7000
 20
162.025
 30
0.000000
  70
    32
  0
VERTEX
  8
0
  5
2C75
 10
44.6995
 20
162.049
 30
0.000000
  70
    32
  0
VERTEX
  8
0
  5
2C76
 10
44.6985
 20
162.074
 30
0.000000
  70
    32
  0
VERTEX
  8
0
  5
2C77
 10
44.6972
 20
162.098
 30
0.000000
  70
    32
  0
VERTEX
  8
0
  5
2C78
 10
44.6955
 20
162.123
 30
0.000000
  70
    32
  0
VERTEX
  8
0
  5
2C79
 10
44.6934
 20
162.147
 30
0.000000
  70
    32
  0
VERTEX
  8
0
  5
2C7A
 10
44.6910
 20
162.172
 30
0.000000
  70
    32
  0
VERTEX
  8
0
  5
2C7B
 10
44.6882
 20
162.196
 30
0.000000
  70
    32
  0
VERTEX
  8
0
  5
2C7C
 10
44.6850
 20
162.220
 30
0.000000
  70
    32
  0
VERTEX
  8
0
  5
2C7D
 10
44.6814
 20
162.245
 30
0.000000
  70
    32
  0
VERTEX
  8
0
  5
2C7E
 10
44.6774
 20
162.269
 30
0.000000
  70
    32
  0
VERTEX
  8
0
  5
2C7F
 10
44.6731
 20
162.293
 30
0.000000
  70
    32
  0
VERTEX
  8
0
  5
2C80
 10
44.6684
 20
162.318
 30
0.000000
  70
    32
  0
VERTEX
  8
0
  5
2C81
 10
44.6633
 20
162.342
 30
0.000000
  70
    32
  0
VERTEX
  8
0
  5
2C82
 10
44.6579
 20
162.366
 30
0.000000
  70
    32
  0
VERTEX
  8
0
  5
2C83
 10
44.6520
 20
162.390
 30
0.000000
  70
    32
  0
VERTEX
  8
0
  5
2C84
 10
44.6459
 20
162.414
 30
0.000000
  70
    32
  0
VERTEX
  8
0
  5
2C85
 10
44.6393
 20
162.438
 30
0.000000
  70
    32
  0
VERTEX
  8
0
  5
2C86
 10
44.6324
 20
162.462
 30
0.000000
  70
    32
  0
VERTEX
  8
0
  5
2C87
 10
44.6251
 20
162.486
 30
0.000000
  70
    32
  0
VERTEX
  8
0
  5
2C88
 10
44.6174
 20
162.510
 30
0.000000
  70
    32
  0
VERTEX
  8
0
  5
2C89
 10
44.6094
 20
162.533
 30
0.000000
  70
    32
  0
VERTEX
  8
0
  5
2C8A
 10
44.6010
 20
162.557
 30
0.000000
  70
    32
  0
VERTEX
  8
0
  5
2C8B
 10
44.5922
 20
162.581
 30
0.000000
  70
    32
  0
VERTEX
  8
0
  5
2C8C
 10
44.5831
 20
162.604
 30
0.000000
  70
    32
  0
VERTEX
  8
0
  5
2C8D
 10
44.5737
 20
162.627
 30
0.000000
  70
    32
  0
VERTEX
  8
0
  5
2C8E
 10
44.5638
 20
162.651
 30
0.000000
  70
    32
  0
VERTEX
  8
0
  5
2C8F
 10
44.5536
 20
162.674
 30
0.000000
  70
    32
  0
VERTEX
  8
0
  5
2C90
 10
44.5431
 20
162.697
 30
0.000000
  70
    32
  0
VERTEX
  8
0
  5
2C91
 10
44.5322
 20
162.720
 30
0.000000
  70
    32
  0
VERTEX
  8
0
  5
2C92
 10
44.5209
 20
162.743
 30
0.000000
  70
    32
  0
VERTEX
  8
0
  5
2C93
 10
44.5093
 20
162.765
 30
0.000000
  70
    32
  0
VERTEX
  8
0
  5
2C94
 10
44.4974
 20
162.788
 30
0.000000
  70
    32
  0
VERTEX
  8
0
  5
2C95
 10
44.4851
 20
162.810
 30
0.000000
  70
    32
  0
VERTEX
  8
0
  5
2C96
 10
44.4724
 20
162.833
 30
0.000000
  70
    32
  0
VERTEX
  8
0
  5
2C97
 10
44.4594
 20
162.855
 30
0.000000
  70
    32
  0
VERTEX
  8
0
  5
2C98
 10
44.4461
 20
162.877
 30
0.000000
  70
    32
  0
VERTEX
  8
0
  5
2C99
 10
44.4324
 20
162.899
 30
0.000000
  70
    32
  0
VERTEX
  8
0
  5
2C9A
 10
44.4184
 20
162.921
 30
0.000000
  70
    32
  0
VERTEX
  8
0
  5
2C9B
 10
44.4041
 20
162.943
 30
0.000000
  70
    32
  0
VERTEX
  8
0
  5
2C9C
 10
44.3894
 20
162.964
 30
0.000000
  70
    32
  0
VERTEX
  8
0
  5
2C9D
 10
44.3744
 20
162.986
 30
0.000000
  70
    32
  0
VERTEX
  8
0
  5
2C9E
 10
44.3591
 20
163.007
 30
0.000000
  70
    32
  0
VERTEX
  8
0
  5
2C9F
 10
44.3434
 20
163.028
 30
0.000000
  70
    32
  0
VERTEX
  8
0
  5
2CA0
 10
44.3274
 20
163.049
 30
0.000000
  70
    32
  0
VERTEX
  8
0
  5
2CA1
 10
44.3111
 20
163.070
 30
0.000000
  70
    32
  0
VERTEX
  8
0
  5
2CA2
 10
44.2945
 20
163.091
 30
0.000000
  70
    32
  0
VERTEX
  8
0
  5
2CA3
 10
44.2776
 20
163.111
 30
0.000000
  70
    32
  0
VERTEX
  8
0
  5
2CA4
 10
44.2603
 20
163.131
 30
0.000000
  70
    32
  0
VERTEX
  8
0
  5
2CA5
 10
44.2427
 20
163.152
 30
0.000000
  70
    32
  0
VERTEX
  8
0
  5
2CA6
 10
44.2249
 20
163.172
 30
0.000000
  70
    32
  0
VERTEX
  8
0
  5
2CA7
 10
44.2067
 20
163.191
 30
0.000000
  70
    32
  0
VERTEX
  8
0
  5
2CA8
 10
44.1882
 20
163.211
 30
0.000000
  70
    32
  0
VERTEX
  8
0
  5
2CA9
 10
44.1694
 20
163.230
 30
0.000000
  70
    32
  0
VERTEX
  8
0
  5
2CAA
 10
44.1503
 20
163.250
 30
0.000000
  70
    32
  0
VERTEX
  8
0
  5
2CAB
 10
44.1310
 20
163.269
 30
0.000000
  70
    32
  0
VERTEX
  8
0
  5
2CAC
 10
44.1113
 20
163.288
 30
0.000000
  70
    32
  0
VERTEX
  8
0
  5
2CAD
 10
44.0913
 20
163.306
 30
0.000000
  70
    32
  0
VERTEX
  8
0
  5
2CAE
 10
44.0711
 20
163.325
 30
0.000000
  70
    32
  0
VERTEX
  8
0
  5
2CAF
 10
44.0505
 20
163.343
 30
0.000000
  70
    32
  0
VERTEX
  8
0
  5
2CB0
 10
44.0297
 20
163.361
 30
0.000000
  70
    32
  0
VERTEX
  8
0
  5
2CB1
 10
44.0087
 20
163.379
 30
0.000000
  70
    32
  0
VERTEX
  8
0
  5
2CB2
 10
43.9873
 20
163.397
 30
0.000000
  70
    32
  0
VERTEX
  8
0
  5
2CB3
 10
43.9657
 20
163.414
 30
0.000000
  70
    32
  0
VERTEX
  8
0
  5
2CB4
 10
43.9438
 20
163.431
 30
0.000000
  70
    32
  0
VERTEX
  8
0
  5
2CB5
 10
43.9216
 20
163.448
 30
0.000000
  70
    32
  0
VERTEX
  8
0
  5
2CB6
 10
43.8992
 20
163.465
 30
0.000000
  70
    32
  0
VERTEX
  8
0
  5
2CB7
 10
43.8765
 20
163.482
 30
0.000000
  70
    32
  0
VERTEX
  8
0
  5
2CB8
 10
43.8536
 20
163.498
 30
0.000000
  70
    32
  0
VERTEX
  8
0
  5
2CB9
 10
43.8304
 20
163.514
 30
0.000000
  70
    32
  0
VERTEX
  8
0
  5
2CBA
 10
43.8070
 20
163.530
 30
0.000000
  70
    32
  0
VERTEX
  8
0
  5
2CBB
 10
43.7833
 20
163.546
 30
0.000000
  70
    32
  0
VERTEX
  8
0
  5
2CBC
 10
43.7594
 20
163.561
 30
0.000000
  70
    32
  0
VERTEX
  8
0
  5
2CBD
 10
43.7352
 20
163.577
 30
0.000000
  70
    32
  0
VERTEX
  8
0
  5
2CBE
 10
43.7109
 20
163.592
 30
0.000000
  70
    32
  0
VERTEX
  8
0
  5
2CBF
 10
43.6863
 20
163.606
 30
0.000000
  70
    32
  0
VERTEX
  8
0
  5
2CC0
 10
43.6614
 20
163.621
 30
0.000000
  70
    32
  0
VERTEX
  8
0
  5
2CC1
 10
43.6364
 20
163.635
 30
0.000000
  70
    32
  0
VERTEX
  8
0
  5
2CC2
 10
43.6111
 20
163.649
 30
0.000000
  70
    32
  0
VERTEX
  8
0
  5
2CC3
 10
43.5856
 20
163.663
 30
0.000000
  70
    32
  0
VERTEX
  8
0
  5
2CC4
 10
43.5599
 20
163.676
 30
0.000000
  70
    32
  0
VERTEX
  8
0
  5
2CC5
 10
43.5340
 20
163.690
 30
0.000000
  70
    32
  0
VERTEX
  8
0
  5
2CC6
 10
43.5079
 20
163.703
 30
0.000000
  70
    32
  0
VERTEX
  8
0
  5
2CC7
 10
43.4816
 20
163.715
 30
0.000000
  70
    32
  0
VERTEX
  8
0
  5
2CC8
 10
43.4551
 20
163.728
 30
0.000000
  70
    32
  0
VERTEX
  8
0
  5
2CC9
 10
43.4284
 20
163.740
 30
0.000000
  70
    32
  0
VERTEX
  8
0
  5
2CCA
 10
43.4016
 20
163.752
 30
0.000000
  70
    32
  0
VERTEX
  8
0
  5
2CCB
 10
43.3745
 20
163.764
 30
0.000000
  70
    32
  0
VERTEX
  8
0
  5
2CCC
 10
43.3473
 20
163.775
 30
0.000000
  70
    32
  0
VERTEX
  8
0
  5
2CCD
 10
43.3199
 20
163.786
 30
0.000000
  70
    32
  0
VERTEX
  8
0
  5
2CCE
 10
43.2923
 20
163.797
 30
0.000000
  70
    32
  0
VERTEX
  8
0
  5
2CCF
 10
43.2646
 20
163.808
 30
0.000000
  70
    32
  0
VERTEX
  8
0
  5
2CD0
 10
43.2367
 20
163.818
 30
0.000000
  70
    32
  0
VERTEX
  8
0
  5
2CD1
 10
43.2086
 20
163.828
 30
0.000000
  70
    32
  0
VERTEX
  8
0
  5
2CD2
 10
43.1804
 20
163.838
 30
0.000000
  70
    32
  0
VERTEX
  8
0
  5
2CD3
 10
43.1520
 20
163.848
 30
0.000000
  70
    32
  0
VERTEX
  8
0
  5
2CD4
 10
43.1235
 20
163.857
 30
0.000000
  70
    32
  0
VERTEX
  8
0
  5
2CD5
 10
43.0949
 20
163.866
 30
0.000000
  70
    32
  0
VERTEX
  8
0
  5
2CD6
 10
43.0661
 20
163.875
 30
0.000000
  70
    32
  0
VERTEX
  8
0
  5
2CD7
 10
43.0372
 20
163.883
 30
0.000000
  70
    32
  0
VERTEX
  8
0
  5
2CD8
 10
43.0081
 20
163.891
 30
0.000000
  70
    32
  0
VERTEX
  8
0
  5
2CD9
 10
42.9790
 20
163.899
 30
0.000000
  70
    32
  0
VERTEX
  8
0
  5
2CDA
 10
42.9497
 20
163.907
 30
0.000000
  70
    32
  0
VERTEX
  8
0
  5
2CDB
 10
42.9203
 20
163.914
 30
0.000000
  70
    32
  0
VERTEX
  8
0
  5
2CDC
 10
42.8908
 20
163.921
 30
0.000000
  70
    32
  0
VERTEX
  8
0
  5
2CDD
 10
42.8612
 20
163.928
 30
0.000000
  70
    32
  0
VERTEX
  8
0
  5
2CDE
 10
42.8315
 20
163.934
 30
0.000000
  70
    32
  0
VERTEX
  8
0
  5
2CDF
 10
42.8016
 20
163.940
 30
0.000000
  70
    32
  0
VERTEX
  8
0
  5
2CE0
 10
42.7717
 20
163.946
 30
0.000000
  70
    32
  0
VERTEX
  8
0
  5
2CE1
 10
42.7418
 20
163.951
 30
0.000000
  70
    32
  0
VERTEX
  8
0
  5
2CE2
 10
42.7117
 20
163.957
 30
0.000000
  70
    32
  0
VERTEX
  8
0
  5
2CE3
 10
42.6815
 20
163.962
 30
0.000000
  70
    32
  0
VERTEX
  8
0
  5
2CE4
 10
42.6513
 20
163.966
 30
0.000000
  70
    32
  0
VERTEX
  8
0
  5
2CE5
 10
42.6210
 20
163.971
 30
0.000000
  70
    32
  0
VERTEX
  8
0
  5
2CE6
 10
42.5907
 20
163.975
 30
0.000000
  70
    32
  0
VERTEX
  8
0
  5
2CE7
 10
42.5602
 20
163.978
 30
0.000000
  70
    32
  0
VERTEX
  8
0
  5
2CE8
 10
42.5298
 20
163.982
 30
0.000000
  70
    32
  0
VERTEX
  8
0
  5
2CE9
 10
42.4993
 20
163.985
 30
0.000000
  70
    32
  0
VERTEX
  8
0
  5
2CEA
 10
42.4687
 20
163.988
 30
0.000000
  70
    32
  0
VERTEX
  8
0
  5
2CEB
 10
42.4381
 20
163.990
 30
0.000000
  70
    32
  0
VERTEX
  8
0
  5
2CEC
 10
42.4074
 20
163.993
 30
0.000000
  70
    32
  0
VERTEX
  8
0
  5
2CED
 10
42.3767
 20
163.995
 30
0.000000
  70
    32
  0
VERTEX
  8
0
  5
2CEE
 10
42.3460
 20
163.996
 30
0.000000
  70
    32
  0
VERTEX
  8
0
  5
2CEF
 10
42.3153
 20
163.998
 30
0.000000
  70
    32
  0
VERTEX
  8
0
  5
2CF0
 10
42.2846
 20
163.999
 30
0.000000
  70
    32
  0
VERTEX
  8
0
  5
2CF1
 10
42.2538
 20
163.999
 30
0.000000
  70
    32
  0
VERTEX
  8
0
  5
2CF2
 10
42.2230
 20
164.000
 30
0.000000
  70
    32
  0
VERTEX
  8
0
  5
2CF3
 10
42.1923
 20
164.000
 30
0.000000
  70
    32
  0
SEQEND
  8
0
  5
2CF4
  0
ARC
  5
270A
  8
0
 10
47.208715804266937
 20
170.93106966659681
 30
0.0
 40
1.064631737088876
 50
105.67595264568421
 51
178.60747473664679
  0
LINE
  5
270B
  8
0
 10
46.144398486289447
 20
164.0
 30
0.0
 11
46.144398486289433
 21
170.95694208956181
 31
0.0
  0
LINE
  5
270C
  8
0
 10
27.999999999999869
 20
164.0
 30
0.0
 11
46.144398486289461
 21
164.0000000000002
 31
0.0
  0
ARC
  5
270D
  8
0
 10
42.288735854722809
 20
165.26223951224929
 30
0.0
 40
4.0570165041249862
 50
306.47675052765601
 51
341.87295495833268
  0
ENDSEC
  0
EOF
