  0
SECTION
  2
HEADER
  9
$ACADVER
  1
AC1009
  9
$INSBASE
 10
0.0
 20
0.0
 30
0.0
  9
$EXTMIN
 10
0.0
 20
-2.960436562073669
 30
0.0
  9
$EXTMAX
 10
116.4870395634379
 20
160.99999998805021
 30
0.0
  9
$LIMMIN
 10
0.0
 20
0.0
  9
$LIMMAX
 10
12.0
 20
9.0
  9
$ORTHOMODE
 70
     1
  9
$REGENMODE
 70
     1
  9
$FILLMODE
 70
     1
  9
$QTEXTMODE
 70
     0
  9
$MIRRTEXT
 70
     0
  9
$DRAGMODE
 70
     2
  9
$LTSCALE
 40
10.0
  9
$OSMODE
 70
    37
  9
$ATTMODE
 70
     1
  9
$TEXTSIZE
 40
0.2
  9
$TRACEWID
 40
0.05
  9
$TEXTSTYLE
  7
STANDARD
  9
$CLAYER
  8
0
  9
$CELTYPE
  6
BYLAYER
  9
$CECOLOR
 62
   256
  9
$DIMSCALE
 40
1.0
  9
$DIMASZ
 40
0.18
  9
$DIMEXO
 40
0.0625
  9
$DIMDLI
 40
0.38
  9
$DIMRND
 40
0.0
  9
$DIMDLE
 40
0.0
  9
$DIMEXE
 40
0.18
  9
$DIMTP
 40
0.0
  9
$DIMTM
 40
0.0
  9
$DIMTXT
 40
0.18
  9
$DIMCEN
 40
0.09
  9
$DIMTSZ
 40
0.0
  9
$DIMTOL
 70
     0
  9
$DIMLIM
 70
     0
  9
$DIMTIH
 70
     1
  9
$DIMTOH
 70
     1
  9
$DIMSE1
 70
     0
  9
$DIMSE2
 70
     0
  9
$DIMTAD
 70
     0
  9
$DIMZIN
 70
     0
  9
$DIMBLK
  1

  9
$DIMASO
 70
     1
  9
$DIMSHO
 70
     1
  9
$DIMPOST
  1

  9
$DIMAPOST
  1

  9
$DIMALT
 70
     0
  9
$DIMALTD
 70
     2
  9
$DIMALTF
 40
25.399999999999999
  9
$DIMLFAC
 40
1.0
  9
$DIMTOFL
 70
     0
  9
$DIMTVP
 40
0.0
  9
$DIMTIX
 70
     0
  9
$DIMSOXD
 70
     0
  9
$DIMSAH
 70
     0
  9
$DIMBLK1
  1

  9
$DIMBLK2
  1

  9
$DIMSTYLE
  2
STANDARD
  9
$DIMCLRD
 70
     0
  9
$DIMCLRE
 70
     0
  9
$DIMCLRT
 70
     0
  9
$DIMTFAC
 40
1.0
  9
$DIMGAP
 40
0.09
  9
$LUNITS
 70
     2
  9
$LUPREC
 70
     4
  9
$SKETCHINC
 40
0.1
  9
$FILLETRAD
 40
1.5
  9
$AUNITS
 70
     0
  9
$AUPREC
 70
     0
  9
$MENU
  1
.
  9
$ELEVATION
 40
0.0
  9
$PELEVATION
 40
0.0
  9
$THICKNESS
 40
0.0
  9
$LIMCHECK
 70
     0
  9
$BLIPMODE
 70
     0
  9
$CHAMFERA
 40
0.0
  9
$CHAMFERB
 40
0.0
  9
$SKPOLY
 70
     0
  9
$TDCREATE
 40
2453083.4120647679
  9
$TDUPDATE
 40
2457497.6471182061
  9
$TDINDWG
 40
0.3831237269
  9
$TDUSRTIMER
 40
0.3831236111
  9
$USRTIMER
 70
     1
  9
$ANGBASE
 50
0.0
  9
$ANGDIR
 70
     0
  9
$PDMODE
 70
     0
  9
$PDSIZE
 40
0.0
  9
$PLINEWID
 40
0.0
  9
$COORDS
 70
     1
  9
$SPLFRAME
 70
     0
  9
$SPLINETYPE
 70
     6
  9
$SPLINESEGS
 70
     8
  9
$ATTDIA
 70
     0
  9
$ATTREQ
 70
     1
  9
$HANDLING
 70
     1
  9
$HANDSEED
  5
2BB1
  9
$SURFTAB1
 70
     6
  9
$SURFTAB2
 70
     6
  9
$SURFTYPE
 70
     6
  9
$SURFU
 70
     6
  9
$SURFV
 70
     6
  9
$UCSNAME
  2

  9
$UCSORG
 10
0.0
 20
0.0
 30
0.0
  9
$UCSXDIR
 10
1.0
 20
0.0
 30
0.0
  9
$UCSYDIR
 10
0.0
 20
1.0
 30
0.0
  9
$PUCSNAME
  2

  9
$PUCSORG
 10
0.0
 20
0.0
 30
0.0
  9
$PUCSXDIR
 10
1.0
 20
0.0
 30
0.0
  9
$PUCSYDIR
 10
0.0
 20
1.0
 30
0.0
  9
$USERI1
 70
     0
  9
$USERI2
 70
     1
  9
$USERI3
 70
     0
  9
$USERI4
 70
     0
  9
$USERI5
 70
     0
  9
$USERR1
 40
0.0
  9
$USERR2
 40
0.0
  9
$USERR3
 40
0.0
  9
$USERR4
 40
0.0
  9
$USERR5
 40
0.0
  9
$WORLDVIEW
 70
     1
  9
$SHADEDGE
 70
     3
  9
$SHADEDIF
 70
    70
  9
$TILEMODE
 70
     1
  9
$MAXACTVP
 70
    64
  9
$PLIMCHECK
 70
     0
  9
$PEXTMIN
 10
0.0
 20
0.0
 30
0.0
  9
$PEXTMAX
 10
0.0
 20
0.0
 30
0.0
  9
$PLIMMIN
 10
0.0
 20
0.0
  9
$PLIMMAX
 10
12.0
 20
9.0
  9
$UNITMODE
 70
     0
  9
$VISRETAIN
 70
     1
  9
$PLINEGEN
 70
     0
  9
$PSLTSCALE
 70
     1
  0
ENDSEC
  0
SECTION
  2
TABLES
  0
TABLE
  2
VPORT
 70
     1
  0
VPORT
  2
*ACTIVE
 70
     0
 10
0.0
 20
0.0
 11
1.0
 21
1.0
 12
141.80893013189919
 22
79.01494115730398
 13
0.0
 23
0.0
 14
0.5
 24
0.5
 15
0.5
 25
0.5
 16
0.0
 26
0.0
 36
1.0
 17
0.0
 27
0.0
 37
0.0
 40
165.41123589998159
 41
2.6019575856443709
 42
50.0
 43
0.0
 44
0.0
 50
0.0
 51
0.0
 71
     0
 72
  1000
 73
     1
 74
     2
 75
     0
 76
     0
 77
     0
 78
     0
  0
ENDTAB
  0
TABLE
  2
LTYPE
 70
     3
  0
LTYPE
  2
CONTINUOUS
 70
     0
  3
Solid Line
 72
    65
 73
     0
 40
0.0
  0
LTYPE
  2
CENTER
 70
     0
  3
____ _ ____ _ ____ _ ____ _ ____ _ ____ _ ____
 72
    65
 73
     4
 40
2.0
 49
1.25
 49
-0.25
 49
0.25
 49
-0.25
  0
LTYPE
  2
PHANTOM2
 70
     0
  3
___ _ _ ___ _ _ ___ _ _ ___ _ _
 72
    65
 73
     6
 40
1.25
 49
0.625
 49
-0.125
 49
0.125
 49
-0.125
 49
0.125
 49
-0.125
  0
ENDTAB
  0
TABLE
  2
LAYER
 70
     2
  0
LAYER
  2
0
 70
     0
 62
     7
  6
CONTINUOUS
  0
LAYER
  2
1
 70
     0
 62
     1
  6
CENTER
  0
ENDTAB
  0
TABLE
  2
STYLE
 70
     2
  0
STYLE
  2
STANDARD
 70
     0
 40
0.0
 41
1.0
 50
0.0
 71
     0
 42
0.2
  3
simplex.shx
  4
bigfont.shx
  0
STYLE
  2
STANDARD1
 70
     0
 40
0.0
 41
1.0
 50
0.0
 71
     0
 42
3.0
  3
txt
  4

  0
ENDTAB
  0
TABLE
  2
VIEW
 70
     0
  0
ENDTAB
  0
TABLE
  2
UCS
 70
     0
  0
ENDTAB
  0
TABLE
  2
APPID
 70
     5
  0
APPID
  2
ACAD
 70
     0
  0
APPID
  2
DCO15
 70
     0
  0
APPID
  2
ACAD_MLEADERVER
 70
     0
  0
APPID
  2
ACAD_NAV_VCDISPLAY
 70
     0
  0
APPID
  2
ACAD_EXEMPT_FROM_CAD_STANDARDS
 70
     0
  0
ENDTAB
  0
TABLE
  2
DIMSTYLE
 70
     1
  0
DIMSTYLE
  2
STANDARD
 70
     0
  3

  4

  5

  6

  7

 40
1.0
 41
0.18
 42
0.0625
 43
0.38
 44
0.18
 45
0.0
 46
0.0
 47
0.0
 48
0.0
140
0.18
141
0.09
142
0.0
143
25.399999999999999
144
1.0
145
0.0
146
1.0
147
0.09
 71
     0
 72
     0
 73
     1
 74
     1
 75
     0
 76
     0
 77
     0
 78
     0
170
     0
171
     2
172
     0
173
     0
174
     0
175
     0
176
     0
177
     0
178
     0
  0
ENDTAB
  0
ENDSEC
  0
SECTION
  2
BLOCKS
  0
BLOCK
  8
0
  2
$MODEL_SPACE
 70
     0
 10
0.0
 20
0.0
 30
0.0
  3
$MODEL_SPACE
  1

  0
ENDBLK
  5
21
  8
0
  0
BLOCK
 67
     1
  8
0
  2
$PAPER_SPACE
 70
     0
 10
0.0
 20
0.0
 30
0.0
  3
$PAPER_SPACE
  1

  0
ENDBLK
  5
5B
 67
     1
  8
0
  0
ENDSEC
  0
SECTION
  2
ENTITIES
  0
LINE
  5
13CF
  8
0
 10
27.957898029330462
 20
154.03500845076309
 30
0.0
 11
46.143626673920757
 21
154.80134295906231
 31
0.0
  0
LINE
  5
144E
  8
0
 10
44.700237415958171
 20
102.0
 30
0.0
 11
44.499999999999979
 21
102.0
 31
0.0
  0
LINE
  5
1456
  8
0
 10
52.749999999999943
 20
115.0
 30
0.0
 11
47.249999999999929
 21
115.0000000000001
 31
0.0
  0
LINE
  5
1469
  8
0
 10
44.499999999999979
 20
83.000000000000057
 30
0.0
 11
55.499999999999979
 21
83.000000000000043
 31
0.0
  0
LINE
  5
146B
  8
0
 10
44.499999999999979
 20
84.650999999999925
 30
0.0
 11
55.5
 21
84.650999999999925
 31
0.0
  0
LINE
  5
147B
  8
0
 10
46.749999999999929
 20
114.5
 30
0.0
 11
46.749999999999929
 21
111.9510884613921
 31
0.0
  0
LINE
  5
1485
  8
1
 10
50.0
 20
30.0
 30
0.0
 11
49.999999999999957
 21
120.0000000000001
 31
0.0
  0
ARC
  5
14CF
  8
0
 10
40.132704598304862
 20
98.699056897457424
 30
0.0
 40
5.4744401076175118
 50
37.083167419832563
 51
75.53669752820764
  0
ARC
  5
14E1
  8
0
 10
50.000000000106581
 20
4.000000000000056
 30
0.0
 40
108.0
 50
78.134937542536775
 51
101.86506245757479
  0
LINE
  5
14E3
  8
0
 10
26.999999999999989
 20
105.0
 30
0.0
 11
26.999999999999989
 21
108.7138959259721
 31
0.0
  0
ARC
  5
14E4
  8
0
 10
27.999999999999989
 20
105.0
 30
0.0
 40
1.0
 50
180.0
 51
270.0
  0
ARC
  5
14E5
  8
0
 10
28.000000000000021
 20
108.7138959259721
 30
0.0
 40
1.0
 50
101.8650624575735
 51
180.0
  0
ARC
  5
14E6
  8
0
 10
72.000000000000085
 20
108.7138959259721
 30
0.0
 40
1.0
 50
0.0
 51
78.134937542426457
  0
ARC
  5
14E7
  8
0
 10
72.000000000000057
 20
105.0
 30
0.0
 40
1.0
 50
270.0
 51
0.0
  0
LINE
  5
14E8
  8
0
 10
73.000000000000057
 20
105.0
 30
0.0
 11
73.000000000000028
 21
108.7138959259721
 31
0.0
  0
ARC
  5
14E9
  8
0
 10
52.791284195732977
 20
110.9310696665968
 30
0.0
 40
1.064631737088876
 50
1.392525263353187
 51
74.324047354315852
  0
LINE
  5
14EA
  8
0
 10
53.855601513710482
 20
104.0
 30
0.0
 11
53.855601513710504
 21
110.95694208956181
 31
0.0
  0
POLYLINE
  5
14EB
  8
0
 10
55.299762584041851
 20
101.9999999999999
 30
0.0
 66
     1
 70
     8
  0
VERTEX
  8
0
  5
28A5
 10
55.2998
 20
102.000
 30
0.000000
  70
    32
  0
VERTEX
  8
0
  5
28A6
 10
55.3000
 20
102.025
 30
0.000000
  70
    32
  0
VERTEX
  8
0
  5
28A7
 10
55.3005
 20
102.049
 30
0.000000
  70
    32
  0
VERTEX
  8
0
  5
28A8
 10
55.3015
 20
102.074
 30
0.000000
  70
    32
  0
VERTEX
  8
0
  5
28A9
 10
55.3028
 20
102.098
 30
0.000000
  70
    32
  0
VERTEX
  8
0
  5
28AA
 10
55.3045
 20
102.123
 30
0.000000
  70
    32
  0
VERTEX
  8
0
  5
28AB
 10
55.3066
 20
102.147
 30
0.000000
  70
    32
  0
VERTEX
  8
0
  5
28AC
 10
55.3090
 20
102.172
 30
0.000000
  70
    32
  0
VERTEX
  8
0
  5
28AD
 10
55.3118
 20
102.196
 30
0.000000
  70
    32
  0
VERTEX
  8
0
  5
28AE
 10
55.3150
 20
102.220
 30
0.000000
  70
    32
  0
VERTEX
  8
0
  5
28AF
 10
55.3186
 20
102.245
 30
0.000000
  70
    32
  0
VERTEX
  8
0
  5
28B0
 10
55.3226
 20
102.269
 30
0.000000
  70
    32
  0
VERTEX
  8
0
  5
28B1
 10
55.3269
 20
102.293
 30
0.000000
  70
    32
  0
VERTEX
  8
0
  5
28B2
 10
55.3316
 20
102.318
 30
0.000000
  70
    32
  0
VERTEX
  8
0
  5
28B3
 10
55.3367
 20
102.342
 30
0.000000
  70
    32
  0
VERTEX
  8
0
  5
28B4
 10
55.3421
 20
102.366
 30
0.000000
  70
    32
  0
VERTEX
  8
0
  5
28B5
 10
55.3480
 20
102.390
 30
0.000000
  70
    32
  0
VERTEX
  8
0
  5
28B6
 10
55.3541
 20
102.414
 30
0.000000
  70
    32
  0
VERTEX
  8
0
  5
28B7
 10
55.3607
 20
102.438
 30
0.000000
  70
    32
  0
VERTEX
  8
0
  5
28B8
 10
55.3676
 20
102.462
 30
0.000000
  70
    32
  0
VERTEX
  8
0
  5
28B9
 10
55.3749
 20
102.486
 30
0.000000
  70
    32
  0
VERTEX
  8
0
  5
28BA
 10
55.3826
 20
102.510
 30
0.000000
  70
    32
  0
VERTEX
  8
0
  5
28BB
 10
55.3906
 20
102.533
 30
0.000000
  70
    32
  0
VERTEX
  8
0
  5
28BC
 10
55.3990
 20
102.557
 30
0.000000
  70
    32
  0
VERTEX
  8
0
  5
28BD
 10
55.4078
 20
102.581
 30
0.000000
  70
    32
  0
VERTEX
  8
0
  5
28BE
 10
55.4169
 20
102.604
 30
0.000000
  70
    32
  0
VERTEX
  8
0
  5
28BF
 10
55.4263
 20
102.627
 30
0.000000
  70
    32
  0
VERTEX
  8
0
  5
28C0
 10
55.4362
 20
102.651
 30
0.000000
  70
    32
  0
VERTEX
  8
0
  5
28C1
 10
55.4464
 20
102.674
 30
0.000000
  70
    32
  0
VERTEX
  8
0
  5
28C2
 10
55.4569
 20
102.697
 30
0.000000
  70
    32
  0
VERTEX
  8
0
  5
28C3
 10
55.4678
 20
102.720
 30
0.000000
  70
    32
  0
VERTEX
  8
0
  5
28C4
 10
55.4791
 20
102.743
 30
0.000000
  70
    32
  0
VERTEX
  8
0
  5
28C5
 10
55.4907
 20
102.765
 30
0.000000
  70
    32
  0
VERTEX
  8
0
  5
28C6
 10
55.5026
 20
102.788
 30
0.000000
  70
    32
  0
VERTEX
  8
0
  5
28C7
 10
55.5149
 20
102.810
 30
0.000000
  70
    32
  0
VERTEX
  8
0
  5
28C8
 10
55.5276
 20
102.833
 30
0.000000
  70
    32
  0
VERTEX
  8
0
  5
28C9
 10
55.5406
 20
102.855
 30
0.000000
  70
    32
  0
VERTEX
  8
0
  5
28CA
 10
55.5539
 20
102.877
 30
0.000000
  70
    32
  0
VERTEX
  8
0
  5
28CB
 10
55.5676
 20
102.899
 30
0.000000
  70
    32
  0
VERTEX
  8
0
  5
28CC
 10
55.5816
 20
102.921
 30
0.000000
  70
    32
  0
VERTEX
  8
0
  5
28CD
 10
55.5959
 20
102.943
 30
0.000000
  70
    32
  0
VERTEX
  8
0
  5
28CE
 10
55.6106
 20
102.964
 30
0.000000
  70
    32
  0
VERTEX
  8
0
  5
28CF
 10
55.6256
 20
102.986
 30
0.000000
  70
    32
  0
VERTEX
  8
0
  5
28D0
 10
55.6409
 20
103.007
 30
0.000000
  70
    32
  0
VERTEX
  8
0
  5
28D1
 10
55.6566
 20
103.028
 30
0.000000
  70
    32
  0
VERTEX
  8
0
  5
28D2
 10
55.6726
 20
103.049
 30
0.000000
  70
    32
  0
VERTEX
  8
0
  5
28D3
 10
55.6889
 20
103.070
 30
0.000000
  70
    32
  0
VERTEX
  8
0
  5
28D4
 10
55.7055
 20
103.091
 30
0.000000
  70
    32
  0
VERTEX
  8
0
  5
28D5
 10
55.7224
 20
103.111
 30
0.000000
  70
    32
  0
VERTEX
  8
0
  5
28D6
 10
55.7397
 20
103.131
 30
0.000000
  70
    32
  0
VERTEX
  8
0
  5
28D7
 10
55.7573
 20
103.152
 30
0.000000
  70
    32
  0
VERTEX
  8
0
  5
28D8
 10
55.7751
 20
103.172
 30
0.000000
  70
    32
  0
VERTEX
  8
0
  5
28D9
 10
55.7933
 20
103.191
 30
0.000000
  70
    32
  0
VERTEX
  8
0
  5
28DA
 10
55.8118
 20
103.211
 30
0.000000
  70
    32
  0
VERTEX
  8
0
  5
28DB
 10
55.8306
 20
103.230
 30
0.000000
  70
    32
  0
VERTEX
  8
0
  5
28DC
 10
55.8497
 20
103.250
 30
0.000000
  70
    32
  0
VERTEX
  8
0
  5
28DD
 10
55.8690
 20
103.269
 30
0.000000
  70
    32
  0
VERTEX
  8
0
  5
28DE
 10
55.8887
 20
103.288
 30
0.000000
  70
    32
  0
VERTEX
  8
0
  5
28DF
 10
55.9087
 20
103.306
 30
0.000000
  70
    32
  0
VERTEX
  8
0
  5
28E0
 10
55.9289
 20
103.325
 30
0.000000
  70
    32
  0
VERTEX
  8
0
  5
28E1
 10
55.9495
 20
103.343
 30
0.000000
  70
    32
  0
VERTEX
  8
0
  5
28E2
 10
55.9703
 20
103.361
 30
0.000000
  70
    32
  0
VERTEX
  8
0
  5
28E3
 10
55.9913
 20
103.379
 30
0.000000
  70
    32
  0
VERTEX
  8
0
  5
28E4
 10
56.0127
 20
103.397
 30
0.000000
  70
    32
  0
VERTEX
  8
0
  5
28E5
 10
56.0343
 20
103.414
 30
0.000000
  70
    32
  0
VERTEX
  8
0
  5
28E6
 10
56.0562
 20
103.431
 30
0.000000
  70
    32
  0
VERTEX
  8
0
  5
28E7
 10
56.0784
 20
103.448
 30
0.000000
  70
    32
  0
VERTEX
  8
0
  5
28E8
 10
56.1008
 20
103.465
 30
0.000000
  70
    32
  0
VERTEX
  8
0
  5
28E9
 10
56.1235
 20
103.482
 30
0.000000
  70
    32
  0
VERTEX
  8
0
  5
28EA
 10
56.1464
 20
103.498
 30
0.000000
  70
    32
  0
VERTEX
  8
0
  5
28EB
 10
56.1696
 20
103.514
 30
0.000000
  70
    32
  0
VERTEX
  8
0
  5
28EC
 10
56.1930
 20
103.530
 30
0.000000
  70
    32
  0
VERTEX
  8
0
  5
28ED
 10
56.2167
 20
103.546
 30
0.000000
  70
    32
  0
VERTEX
  8
0
  5
28EE
 10
56.2406
 20
103.561
 30
0.000000
  70
    32
  0
VERTEX
  8
0
  5
28EF
 10
56.2648
 20
103.577
 30
0.000000
  70
    32
  0
VERTEX
  8
0
  5
28F0
 10
56.2891
 20
103.592
 30
0.000000
  70
    32
  0
VERTEX
  8
0
  5
28F1
 10
56.3137
 20
103.606
 30
0.000000
  70
    32
  0
VERTEX
  8
0
  5
28F2
 10
56.3386
 20
103.621
 30
0.000000
  70
    32
  0
VERTEX
  8
0
  5
28F3
 10
56.3636
 20
103.635
 30
0.000000
  70
    32
  0
VERTEX
  8
0
  5
28F4
 10
56.3889
 20
103.649
 30
0.000000
  70
    32
  0
VERTEX
  8
0
  5
28F5
 10
56.4144
 20
103.663
 30
0.000000
  70
    32
  0
VERTEX
  8
0
  5
28F6
 10
56.4401
 20
103.676
 30
0.000000
  70
    32
  0
VERTEX
  8
0
  5
28F7
 10
56.4660
 20
103.690
 30
0.000000
  70
    32
  0
VERTEX
  8
0
  5
28F8
 10
56.4921
 20
103.703
 30
0.000000
  70
    32
  0
VERTEX
  8
0
  5
28F9
 10
56.5184
 20
103.715
 30
0.000000
  70
    32
  0
VERTEX
  8
0
  5
28FA
 10
56.5449
 20
103.728
 30
0.000000
  70
    32
  0
VERTEX
  8
0
  5
28FB
 10
56.5716
 20
103.740
 30
0.000000
  70
    32
  0
VERTEX
  8
0
  5
28FC
 10
56.5984
 20
103.752
 30
0.000000
  70
    32
  0
VERTEX
  8
0
  5
28FD
 10
56.6255
 20
103.764
 30
0.000000
  70
    32
  0
VERTEX
  8
0
  5
28FE
 10
56.6527
 20
103.775
 30
0.000000
  70
    32
  0
VERTEX
  8
0
  5
28FF
 10
56.6801
 20
103.786
 30
0.000000
  70
    32
  0
VERTEX
  8
0
  5
2900
 10
56.7077
 20
103.797
 30
0.000000
  70
    32
  0
VERTEX
  8
0
  5
2901
 10
56.7354
 20
103.808
 30
0.000000
  70
    32
  0
VERTEX
  8
0
  5
2902
 10
56.7633
 20
103.818
 30
0.000000
  70
    32
  0
VERTEX
  8
0
  5
2903
 10
56.7914
 20
103.828
 30
0.000000
  70
    32
  0
VERTEX
  8
0
  5
2904
 10
56.8196
 20
103.838
 30
0.000000
  70
    32
  0
VERTEX
  8
0
  5
2905
 10
56.8480
 20
103.848
 30
0.000000
  70
    32
  0
VERTEX
  8
0
  5
2906
 10
56.8765
 20
103.857
 30
0.000000
  70
    32
  0
VERTEX
  8
0
  5
2907
 10
56.9051
 20
103.866
 30
0.000000
  70
    32
  0
VERTEX
  8
0
  5
2908
 10
56.9339
 20
103.875
 30
0.000000
  70
    32
  0
VERTEX
  8
0
  5
2909
 10
56.9628
 20
103.883
 30
0.000000
  70
    32
  0
VERTEX
  8
0
  5
290A
 10
56.9919
 20
103.891
 30
0.000000
  70
    32
  0
VERTEX
  8
0
  5
290B
 10
57.0210
 20
103.899
 30
0.000000
  70
    32
  0
VERTEX
  8
0
  5
290C
 10
57.0503
 20
103.907
 30
0.000000
  70
    32
  0
VERTEX
  8
0
  5
290D
 10
57.0797
 20
103.914
 30
0.000000
  70
    32
  0
VERTEX
  8
0
  5
290E
 10
57.1092
 20
103.921
 30
0.000000
  70
    32
  0
VERTEX
  8
0
  5
290F
 10
57.1388
 20
103.928
 30
0.000000
  70
    32
  0
VERTEX
  8
0
  5
2910
 10
57.1685
 20
103.934
 30
0.000000
  70
    32
  0
VERTEX
  8
0
  5
2911
 10
57.1984
 20
103.940
 30
0.000000
  70
    32
  0
VERTEX
  8
0
  5
2912
 10
57.2283
 20
103.946
 30
0.000000
  70
    32
  0
VERTEX
  8
0
  5
2913
 10
57.2582
 20
103.951
 30
0.000000
  70
    32
  0
VERTEX
  8
0
  5
2914
 10
57.2883
 20
103.957
 30
0.000000
  70
    32
  0
VERTEX
  8
0
  5
2915
 10
57.3185
 20
103.962
 30
0.000000
  70
    32
  0
VERTEX
  8
0
  5
2916
 10
57.3487
 20
103.966
 30
0.000000
  70
    32
  0
VERTEX
  8
0
  5
2917
 10
57.3790
 20
103.971
 30
0.000000
  70
    32
  0
VERTEX
  8
0
  5
2918
 10
57.4093
 20
103.975
 30
0.000000
  70
    32
  0
VERTEX
  8
0
  5
2919
 10
57.4398
 20
103.978
 30
0.000000
  70
    32
  0
VERTEX
  8
0
  5
291A
 10
57.4702
 20
103.982
 30
0.000000
  70
    32
  0
VERTEX
  8
0
  5
291B
 10
57.5007
 20
103.985
 30
0.000000
  70
    32
  0
VERTEX
  8
0
  5
291C
 10
57.5313
 20
103.988
 30
0.000000
  70
    32
  0
VERTEX
  8
0
  5
291D
 10
57.5619
 20
103.990
 30
0.000000
  70
    32
  0
VERTEX
  8
0
  5
291E
 10
57.5926
 20
103.993
 30
0.000000
  70
    32
  0
VERTEX
  8
0
  5
291F
 10
57.6233
 20
103.995
 30
0.000000
  70
    32
  0
VERTEX
  8
0
  5
2920
 10
57.6540
 20
103.996
 30
0.000000
  70
    32
  0
VERTEX
  8
0
  5
2921
 10
57.6847
 20
103.998
 30
0.000000
  70
    32
  0
VERTEX
  8
0
  5
2922
 10
57.7154
 20
103.999
 30
0.000000
  70
    32
  0
VERTEX
  8
0
  5
2923
 10
57.7462
 20
103.999
 30
0.000000
  70
    32
  0
VERTEX
  8
0
  5
2924
 10
57.7770
 20
104.000
 30
0.000000
  70
    32
  0
VERTEX
  8
0
  5
2925
 10
57.8077
 20
104.000
 30
0.000000
  70
    32
  0
SEQEND
  8
0
  5
2926
  0
ARC
  5
14EC
  8
0
 10
59.867295401695301
 20
98.699056897457055
 30
0.0
 40
5.4744401076179008
 50
104.4633024717928
 51
142.91683258016559
  0
LINE
  5
14ED
  8
0
 10
72.000000000000057
 20
104.0
 30
0.0
 11
53.855601513710468
 21
104.0000000000002
 31
0.0
  0
LINE
  5
14EE
  8
0
 10
55.299762584041829
 20
102.0
 30
0.0
 11
55.499999999999972
 21
102.0
 31
0.0
  0
LINE
  5
14F9
  8
0
 10
53.249999999999929
 20
114.5
 30
0.0
 11
46.749999999999929
 21
114.5
 31
0.0
  0
ARC
  5
14FB
  8
0
 10
47.249999999999929
 20
114.5
 30
0.0
 40
0.5
 50
90.0
 51
180.0000000000006
  0
ARC
  5
14FF
  8
0
 10
52.749999999999943
 20
114.5
 30
0.0
 40
0.5
 50
359.99999999999932
 51
90.0
  0
LINE
  5
1500
  8
0
 10
53.249999999999929
 20
114.5
 30
0.0
 11
53.249999999999929
 21
111.9510884613921
 31
0.0
  0
LINE
  5
151D
  8
0
 10
105.96499154918961
 20
104.0
 30
0.0
 11
111.0350084508102
 21
104.0
 31
0.0
  0
LINE
  5
153B
  8
0
 10
105.96499154918961
 20
109.6925304673796
 30
0.0
 11
111.0350084508102
 21
109.6925304673795
 31
0.0
  0
LINE
  5
1546
  8
0
 10
112.1555749250759
 20
101.99999999999849
 30
0.0
 11
104.8444250749239
 21
101.99999999999849
 31
0.0
  0
LINE
  5
1678
  8
1
 10
108.5
 20
30.000000000000028
 30
0.0
 11
108.4999999999999
 21
120.0
 31
0.0
  0
LINE
  5
167D
  8
0
 10
103.0
 20
84.650999999999925
 30
0.0
 11
114.0
 21
84.650999999999897
 31
0.0
  0
LINE
  5
167E
  8
0
 10
102.9999999999999
 20
83.000000000000043
 30
0.0
 11
113.9999999999999
 21
83.000000000000014
 31
0.0
  0
LINE
  5
1685
  8
0
 10
111.7499999999999
 20
114.5
 30
0.0
 11
111.7499999999998
 21
112.0
 31
0.0
  0
ARC
  5
1686
  8
0
 10
111.2499999999999
 20
114.5
 30
0.0
 40
0.5
 50
359.99999999999932
 51
90.0
  0
LINE
  5
1687
  8
0
 10
111.7499999999999
 20
114.5
 30
0.0
 11
105.2499999999999
 21
114.5
 31
0.0
  0
LINE
  5
1688
  8
0
 10
111.2499999999999
 20
115.0
 30
0.0
 11
105.7499999999998
 21
115.0000000000001
 31
0.0
  0
ARC
  5
1689
  8
0
 10
105.7499999999998
 20
114.5
 30
0.0
 40
0.5
 50
90.0
 51
180.0000000000006
  0
LINE
  5
168A
  8
0
 10
105.2499999999999
 20
114.5
 30
0.0
 11
105.2499999999999
 21
112.0
 31
0.0
  0
LINE
  5
168D
  8
1
 10
21.999999999999972
 20
150.49999999995271
 30
0.0
 11
77.999999999999972
 21
150.49999999995271
 31
0.0
  0
LINE
  5
168E
  8
1
 10
49.999999999999957
 20
140.00000000000011
 30
0.0
 11
49.999999999999957
 21
160.99999998805021
 31
0.0
  0
LINE
  5
1694
  8
0
 10
26.999999999999972
 20
147.96410486807349
 30
0.0
 11
26.999999999999972
 21
153.03589513183189
 31
0.0
  0
ARC
  5
1695
  8
0
 10
27.999999999999972
 20
153.03589513183189
 30
0.0
 40
1.0
 50
92.412978451483923
 51
180.0
  0
ARC
  5
169C
  8
0
 10
27.999999999999972
 20
147.96410486807349
 30
0.0
 40
1.0
 50
180.0
 51
267.58702154851602
  0
LINE
  5
169D
  8
0
 10
27.957898029330462
 20
146.9649915491423
 30
0.0
 11
46.143626673920743
 21
146.19865704084319
 31
0.0
  0
LINE
  5
16A8
  8
0
 10
72.042101970669478
 20
146.9649915491423
 30
0.0
 11
53.855601513710504
 21
146.1986245171833
 31
0.0
  0
ARC
  5
16A9
  8
0
 10
71.999999999999972
 20
147.96410486807349
 30
0.0
 40
1.0
 50
272.41297845148398
 51
0.0
  0
LINE
  5
16AA
  8
0
 10
72.999999999999972
 20
147.96410486807349
 30
0.0
 11
72.999999999999972
 21
153.03589513183189
 31
0.0
  0
ARC
  5
16AB
  8
0
 10
71.999999999999972
 20
153.03589513183189
 30
0.0
 40
1.0
 50
0.0
 51
87.587021548516034
  0
LINE
  5
16AC
  8
0
 10
72.042101970669478
 20
154.03500845076309
 30
0.0
 11
53.85560151371056
 21
154.80137548272211
 31
0.0
  0
CIRCLE
  5
16B5
  8
0
 10
49.999999999999957
 20
150.49999999995271
 30
0.0
 40
2.7499999999999711
  0
CIRCLE
  5
16B6
  8
0
 10
49.999999999999957
 20
150.49999999995271
 30
0.0
 40
3.2499999999999711
  0
CIRCLE
  5
16B8
  8
0
 10
68.761085088233727
 20
150.5000773436696
 30
0.0
 40
1.6000000000000001
  0
CIRCLE
  5
16B9
  8
0
 10
68.761085088233727
 20
150.5000773436696
 30
0.0
 40
1.75
  0
LINE
  5
16D4
  8
0
 10
103.9999999999999
 20
112.0
 30
0.0
 11
113.0
 21
112.0
 31
0.0
  0
ARC
  5
16D6
  8
0
 10
103.9999999999999
 20
111.0
 30
0.0
 40
1.0
 50
90.0
 51
180.0
  0
ARC
  5
16D7
  8
0
 10
113.0
 20
111.0
 30
0.0
 40
1.0
 50
0.0
 51
90.0
  0
LINE
  5
1924
  8
0
 10
111.9270113598387
 20
112.0
 30
0.0
 11
105.0729886401612
 21
112.0
 31
0.0
  0
LINE
  5
1925
  8
0
 10
112.0350084508103
 20
108.6925304673795
 30
0.0
 11
112.0350084508103
 21
105.0
 31
0.0
  0
ARC
  5
1926
  8
0
 10
111.0350084508102
 20
108.6925304673795
 30
0.0
 40
1.0
 50
0.0
 51
89.999999999999474
  0
LINE
  5
1927
  8
0
 10
113.1555749250758
 20
110.5
 30
0.0
 11
113.1555749250758
 21
103.49999999999849
 31
0.0
  0
POLYLINE
  5
192B
  8
0
 10
113.1555749250759
 20
110.5
 30
0.0
 66
     1
 70
     8
  0
VERTEX
  8
0
  5
2927
 10
113.156
 20
110.500
 30
0.000000
  70
    32
  0
VERTEX
  8
0
  5
2928
 10
113.155
 20
110.518
 30
0.000000
  70
    32
  0
VERTEX
  8
0
  5
2929
 10
113.155
 20
110.537
 30
0.000000
  70
    32
  0
VERTEX
  8
0
  5
292A
 10
113.155
 20
110.555
 30
0.000000
  70
    32
  0
VERTEX
  8
0
  5
292B
 10
113.154
 20
110.574
 30
0.000000
  70
    32
  0
VERTEX
  8
0
  5
292C
 10
113.154
 20
110.592
 30
0.000000
  70
    32
  0
VERTEX
  8
0
  5
292D
 10
113.153
 20
110.610
 30
0.000000
  70
    32
  0
VERTEX
  8
0
  5
292E
 10
113.152
 20
110.629
 30
0.000000
  70
    32
  0
VERTEX
  8
0
  5
292F
 10
113.151
 20
110.647
 30
0.000000
  70
    32
  0
VERTEX
  8
0
  5
2930
 10
113.149
 20
110.665
 30
0.000000
  70
    32
  0
VERTEX
  8
0
  5
2931
 10
113.148
 20
110.684
 30
0.000000
  70
    32
  0
VERTEX
  8
0
  5
2932
 10
113.146
 20
110.702
 30
0.000000
  70
    32
  0
VERTEX
  8
0
  5
2933
 10
113.145
 20
110.720
 30
0.000000
  70
    32
  0
VERTEX
  8
0
  5
2934
 10
113.143
 20
110.738
 30
0.000000
  70
    32
  0
VERTEX
  8
0
  5
2935
 10
113.141
 20
110.756
 30
0.000000
  70
    32
  0
VERTEX
  8
0
  5
2936
 10
113.139
 20
110.775
 30
0.000000
  70
    32
  0
VERTEX
  8
0
  5
2937
 10
113.136
 20
110.793
 30
0.000000
  70
    32
  0
VERTEX
  8
0
  5
2938
 10
113.134
 20
110.811
 30
0.000000
  70
    32
  0
VERTEX
  8
0
  5
2939
 10
113.131
 20
110.829
 30
0.000000
  70
    32
  0
VERTEX
  8
0
  5
293A
 10
113.129
 20
110.847
 30
0.000000
  70
    32
  0
VERTEX
  8
0
  5
293B
 10
113.126
 20
110.864
 30
0.000000
  70
    32
  0
VERTEX
  8
0
  5
293C
 10
113.123
 20
110.882
 30
0.000000
  70
    32
  0
VERTEX
  8
0
  5
293D
 10
113.119
 20
110.900
 30
0.000000
  70
    32
  0
VERTEX
  8
0
  5
293E
 10
113.116
 20
110.918
 30
0.000000
  70
    32
  0
VERTEX
  8
0
  5
293F
 10
113.113
 20
110.935
 30
0.000000
  70
    32
  0
VERTEX
  8
0
  5
2940
 10
113.109
 20
110.953
 30
0.000000
  70
    32
  0
VERTEX
  8
0
  5
2941
 10
113.105
 20
110.971
 30
0.000000
  70
    32
  0
VERTEX
  8
0
  5
2942
 10
113.101
 20
110.988
 30
0.000000
  70
    32
  0
VERTEX
  8
0
  5
2943
 10
113.097
 20
111.005
 30
0.000000
  70
    32
  0
VERTEX
  8
0
  5
2944
 10
113.093
 20
111.023
 30
0.000000
  70
    32
  0
VERTEX
  8
0
  5
2945
 10
113.089
 20
111.040
 30
0.000000
  70
    32
  0
VERTEX
  8
0
  5
2946
 10
113.084
 20
111.057
 30
0.000000
  70
    32
  0
VERTEX
  8
0
  5
2947
 10
113.079
 20
111.074
 30
0.000000
  70
    32
  0
VERTEX
  8
0
  5
2948
 10
113.075
 20
111.091
 30
0.000000
  70
    32
  0
VERTEX
  8
0
  5
2949
 10
113.070
 20
111.108
 30
0.000000
  70
    32
  0
VERTEX
  8
0
  5
294A
 10
113.065
 20
111.125
 30
0.000000
  70
    32
  0
VERTEX
  8
0
  5
294B
 10
113.060
 20
111.141
 30
0.000000
  70
    32
  0
VERTEX
  8
0
  5
294C
 10
113.054
 20
111.158
 30
0.000000
  70
    32
  0
VERTEX
  8
0
  5
294D
 10
113.049
 20
111.174
 30
0.000000
  70
    32
  0
VERTEX
  8
0
  5
294E
 10
113.043
 20
111.191
 30
0.000000
  70
    32
  0
VERTEX
  8
0
  5
294F
 10
113.037
 20
111.207
 30
0.000000
  70
    32
  0
VERTEX
  8
0
  5
2950
 10
113.032
 20
111.223
 30
0.000000
  70
    32
  0
VERTEX
  8
0
  5
2951
 10
113.026
 20
111.239
 30
0.000000
  70
    32
  0
VERTEX
  8
0
  5
2952
 10
113.020
 20
111.255
 30
0.000000
  70
    32
  0
VERTEX
  8
0
  5
2953
 10
113.013
 20
111.271
 30
0.000000
  70
    32
  0
VERTEX
  8
0
  5
2954
 10
113.007
 20
111.287
 30
0.000000
  70
    32
  0
VERTEX
  8
0
  5
2955
 10
113.000
 20
111.302
 30
0.000000
  70
    32
  0
VERTEX
  8
0
  5
2956
 10
112.994
 20
111.318
 30
0.000000
  70
    32
  0
VERTEX
  8
0
  5
2957
 10
112.987
 20
111.333
 30
0.000000
  70
    32
  0
VERTEX
  8
0
  5
2958
 10
112.980
 20
111.349
 30
0.000000
  70
    32
  0
VERTEX
  8
0
  5
2959
 10
112.973
 20
111.364
 30
0.000000
  70
    32
  0
VERTEX
  8
0
  5
295A
 10
112.966
 20
111.379
 30
0.000000
  70
    32
  0
VERTEX
  8
0
  5
295B
 10
112.959
 20
111.394
 30
0.000000
  70
    32
  0
VERTEX
  8
0
  5
295C
 10
112.951
 20
111.408
 30
0.000000
  70
    32
  0
VERTEX
  8
0
  5
295D
 10
112.944
 20
111.423
 30
0.000000
  70
    32
  0
VERTEX
  8
0
  5
295E
 10
112.936
 20
111.437
 30
0.000000
  70
    32
  0
VERTEX
  8
0
  5
295F
 10
112.929
 20
111.452
 30
0.000000
  70
    32
  0
VERTEX
  8
0
  5
2960
 10
112.921
 20
111.466
 30
0.000000
  70
    32
  0
VERTEX
  8
0
  5
2961
 10
112.913
 20
111.480
 30
0.000000
  70
    32
  0
VERTEX
  8
0
  5
2962
 10
112.905
 20
111.494
 30
0.000000
  70
    32
  0
VERTEX
  8
0
  5
2963
 10
112.897
 20
111.507
 30
0.000000
  70
    32
  0
VERTEX
  8
0
  5
2964
 10
112.888
 20
111.521
 30
0.000000
  70
    32
  0
VERTEX
  8
0
  5
2965
 10
112.880
 20
111.534
 30
0.000000
  70
    32
  0
VERTEX
  8
0
  5
2966
 10
112.871
 20
111.548
 30
0.000000
  70
    32
  0
VERTEX
  8
0
  5
2967
 10
112.863
 20
111.561
 30
0.000000
  70
    32
  0
VERTEX
  8
0
  5
2968
 10
112.854
 20
111.574
 30
0.000000
  70
    32
  0
VERTEX
  8
0
  5
2969
 10
112.845
 20
111.586
 30
0.000000
  70
    32
  0
VERTEX
  8
0
  5
296A
 10
112.836
 20
111.599
 30
0.000000
  70
    32
  0
VERTEX
  8
0
  5
296B
 10
112.827
 20
111.611
 30
0.000000
  70
    32
  0
VERTEX
  8
0
  5
296C
 10
112.818
 20
111.624
 30
0.000000
  70
    32
  0
VERTEX
  8
0
  5
296D
 10
112.809
 20
111.636
 30
0.000000
  70
    32
  0
VERTEX
  8
0
  5
296E
 10
112.799
 20
111.648
 30
0.000000
  70
    32
  0
VERTEX
  8
0
  5
296F
 10
112.790
 20
111.660
 30
0.000000
  70
    32
  0
VERTEX
  8
0
  5
2970
 10
112.780
 20
111.671
 30
0.000000
  70
    32
  0
VERTEX
  8
0
  5
2971
 10
112.771
 20
111.683
 30
0.000000
  70
    32
  0
VERTEX
  8
0
  5
2972
 10
112.761
 20
111.694
 30
0.000000
  70
    32
  0
VERTEX
  8
0
  5
2973
 10
112.751
 20
111.705
 30
0.000000
  70
    32
  0
VERTEX
  8
0
  5
2974
 10
112.741
 20
111.716
 30
0.000000
  70
    32
  0
VERTEX
  8
0
  5
2975
 10
112.731
 20
111.726
 30
0.000000
  70
    32
  0
VERTEX
  8
0
  5
2976
 10
112.721
 20
111.737
 30
0.000000
  70
    32
  0
VERTEX
  8
0
  5
2977
 10
112.711
 20
111.747
 30
0.000000
  70
    32
  0
VERTEX
  8
0
  5
2978
 10
112.701
 20
111.757
 30
0.000000
  70
    32
  0
VERTEX
  8
0
  5
2979
 10
112.691
 20
111.767
 30
0.000000
  70
    32
  0
VERTEX
  8
0
  5
297A
 10
112.680
 20
111.777
 30
0.000000
  70
    32
  0
VERTEX
  8
0
  5
297B
 10
112.670
 20
111.787
 30
0.000000
  70
    32
  0
VERTEX
  8
0
  5
297C
 10
112.659
 20
111.796
 30
0.000000
  70
    32
  0
VERTEX
  8
0
  5
297D
 10
112.648
 20
111.805
 30
0.000000
  70
    32
  0
VERTEX
  8
0
  5
297E
 10
112.638
 20
111.814
 30
0.000000
  70
    32
  0
VERTEX
  8
0
  5
297F
 10
112.627
 20
111.823
 30
0.000000
  70
    32
  0
VERTEX
  8
0
  5
2980
 10
112.616
 20
111.831
 30
0.000000
  70
    32
  0
VERTEX
  8
0
  5
2981
 10
112.605
 20
111.840
 30
0.000000
  70
    32
  0
VERTEX
  8
0
  5
2982
 10
112.594
 20
111.848
 30
0.000000
  70
    32
  0
VERTEX
  8
0
  5
2983
 10
112.583
 20
111.856
 30
0.000000
  70
    32
  0
VERTEX
  8
0
  5
2984
 10
112.572
 20
111.864
 30
0.000000
  70
    32
  0
VERTEX
  8
0
  5
2985
 10
112.561
 20
111.871
 30
0.000000
  70
    32
  0
VERTEX
  8
0
  5
2986
 10
112.550
 20
111.879
 30
0.000000
  70
    32
  0
VERTEX
  8
0
  5
2987
 10
112.538
 20
111.886
 30
0.000000
  70
    32
  0
VERTEX
  8
0
  5
2988
 10
112.527
 20
111.893
 30
0.000000
  70
    32
  0
VERTEX
  8
0
  5
2989
 10
112.515
 20
111.899
 30
0.000000
  70
    32
  0
VERTEX
  8
0
  5
298A
 10
112.504
 20
111.906
 30
0.000000
  70
    32
  0
VERTEX
  8
0
  5
298B
 10
112.492
 20
111.912
 30
0.000000
  70
    32
  0
VERTEX
  8
0
  5
298C
 10
112.481
 20
111.918
 30
0.000000
  70
    32
  0
VERTEX
  8
0
  5
298D
 10
112.469
 20
111.924
 30
0.000000
  70
    32
  0
VERTEX
  8
0
  5
298E
 10
112.458
 20
111.930
 30
0.000000
  70
    32
  0
VERTEX
  8
0
  5
298F
 10
112.446
 20
111.935
 30
0.000000
  70
    32
  0
VERTEX
  8
0
  5
2990
 10
112.434
 20
111.941
 30
0.000000
  70
    32
  0
VERTEX
  8
0
  5
2991
 10
112.422
 20
111.946
 30
0.000000
  70
    32
  0
VERTEX
  8
0
  5
2992
 10
112.410
 20
111.950
 30
0.000000
  70
    32
  0
VERTEX
  8
0
  5
2993
 10
112.399
 20
111.955
 30
0.000000
  70
    32
  0
VERTEX
  8
0
  5
2994
 10
112.387
 20
111.959
 30
0.000000
  70
    32
  0
VERTEX
  8
0
  5
2995
 10
112.375
 20
111.964
 30
0.000000
  70
    32
  0
VERTEX
  8
0
  5
2996
 10
112.363
 20
111.967
 30
0.000000
  70
    32
  0
VERTEX
  8
0
  5
2997
 10
112.351
 20
111.971
 30
0.000000
  70
    32
  0
VERTEX
  8
0
  5
2998
 10
112.339
 20
111.975
 30
0.000000
  70
    32
  0
VERTEX
  8
0
  5
2999
 10
112.327
 20
111.978
 30
0.000000
  70
    32
  0
VERTEX
  8
0
  5
299A
 10
112.314
 20
111.981
 30
0.000000
  70
    32
  0
VERTEX
  8
0
  5
299B
 10
112.302
 20
111.984
 30
0.000000
  70
    32
  0
VERTEX
  8
0
  5
299C
 10
112.290
 20
111.986
 30
0.000000
  70
    32
  0
VERTEX
  8
0
  5
299D
 10
112.278
 20
111.989
 30
0.000000
  70
    32
  0
VERTEX
  8
0
  5
299E
 10
112.266
 20
111.991
 30
0.000000
  70
    32
  0
VERTEX
  8
0
  5
299F
 10
112.254
 20
111.993
 30
0.000000
  70
    32
  0
VERTEX
  8
0
  5
29A0
 10
112.241
 20
111.994
 30
0.000000
  70
    32
  0
VERTEX
  8
0
  5
29A1
 10
112.229
 20
111.996
 30
0.000000
  70
    32
  0
VERTEX
  8
0
  5
29A2
 10
112.217
 20
111.997
 30
0.000000
  70
    32
  0
VERTEX
  8
0
  5
29A3
 10
112.205
 20
111.998
 30
0.000000
  70
    32
  0
VERTEX
  8
0
  5
29A4
 10
112.192
 20
111.999
 30
0.000000
  70
    32
  0
VERTEX
  8
0
  5
29A5
 10
112.180
 20
112.000
 30
0.000000
  70
    32
  0
VERTEX
  8
0
  5
29A6
 10
112.168
 20
112.000
 30
0.000000
  70
    32
  0
VERTEX
  8
0
  5
29A7
 10
112.156
 20
112.000
 30
0.000000
  70
    32
  0
SEQEND
  8
0
  5
29A8
  0
POLYLINE
  5
192D
  8
0
 10
113.1555749250759
 20
103.49999999999851
 30
0.0
 66
     1
 70
     8
  0
VERTEX
  8
0
  5
29A9
 10
113.156
 20
103.500
 30
0.000000
  70
    32
  0
VERTEX
  8
0
  5
29AA
 10
113.155
 20
103.482
 30
0.000000
  70
    32
  0
VERTEX
  8
0
  5
29AB
 10
113.155
 20
103.463
 30
0.000000
  70
    32
  0
VERTEX
  8
0
  5
29AC
 10
113.155
 20
103.445
 30
0.000000
  70
    32
  0
VERTEX
  8
0
  5
29AD
 10
113.154
 20
103.426
 30
0.000000
  70
    32
  0
VERTEX
  8
0
  5
29AE
 10
113.154
 20
103.408
 30
0.000000
  70
    32
  0
VERTEX
  8
0
  5
29AF
 10
113.153
 20
103.390
 30
0.000000
  70
    32
  0
VERTEX
  8
0
  5
29B0
 10
113.152
 20
103.371
 30
0.000000
  70
    32
  0
VERTEX
  8
0
  5
29B1
 10
113.151
 20
103.353
 30
0.000000
  70
    32
  0
VERTEX
  8
0
  5
29B2
 10
113.149
 20
103.335
 30
0.000000
  70
    32
  0
VERTEX
  8
0
  5
29B3
 10
113.148
 20
103.316
 30
0.000000
  70
    32
  0
VERTEX
  8
0
  5
29B4
 10
113.146
 20
103.298
 30
0.000000
  70
    32
  0
VERTEX
  8
0
  5
29B5
 10
113.145
 20
103.280
 30
0.000000
  70
    32
  0
VERTEX
  8
0
  5
29B6
 10
113.143
 20
103.262
 30
0.000000
  70
    32
  0
VERTEX
  8
0
  5
29B7
 10
113.141
 20
103.244
 30
0.000000
  70
    32
  0
VERTEX
  8
0
  5
29B8
 10
113.139
 20
103.225
 30
0.000000
  70
    32
  0
VERTEX
  8
0
  5
29B9
 10
113.136
 20
103.207
 30
0.000000
  70
    32
  0
VERTEX
  8
0
  5
29BA
 10
113.134
 20
103.189
 30
0.000000
  70
    32
  0
VERTEX
  8
0
  5
29BB
 10
113.131
 20
103.171
 30
0.000000
  70
    32
  0
VERTEX
  8
0
  5
29BC
 10
113.129
 20
103.153
 30
0.000000
  70
    32
  0
VERTEX
  8
0
  5
29BD
 10
113.126
 20
103.136
 30
0.000000
  70
    32
  0
VERTEX
  8
0
  5
29BE
 10
113.123
 20
103.118
 30
0.000000
  70
    32
  0
VERTEX
  8
0
  5
29BF
 10
113.119
 20
103.100
 30
0.000000
  70
    32
  0
VERTEX
  8
0
  5
29C0
 10
113.116
 20
103.082
 30
0.000000
  70
    32
  0
VERTEX
  8
0
  5
29C1
 10
113.113
 20
103.065
 30
0.000000
  70
    32
  0
VERTEX
  8
0
  5
29C2
 10
113.109
 20
103.047
 30
0.000000
  70
    32
  0
VERTEX
  8
0
  5
29C3
 10
113.105
 20
103.029
 30
0.000000
  70
    32
  0
VERTEX
  8
0
  5
29C4
 10
113.101
 20
103.012
 30
0.000000
  70
    32
  0
VERTEX
  8
0
  5
29C5
 10
113.097
 20
102.995
 30
0.000000
  70
    32
  0
VERTEX
  8
0
  5
29C6
 10
113.093
 20
102.977
 30
0.000000
  70
    32
  0
VERTEX
  8
0
  5
29C7
 10
113.089
 20
102.960
 30
0.000000
  70
    32
  0
VERTEX
  8
0
  5
29C8
 10
113.084
 20
102.943
 30
0.000000
  70
    32
  0
VERTEX
  8
0
  5
29C9
 10
113.079
 20
102.926
 30
0.000000
  70
    32
  0
VERTEX
  8
0
  5
29CA
 10
113.075
 20
102.909
 30
0.000000
  70
    32
  0
VERTEX
  8
0
  5
29CB
 10
113.070
 20
102.892
 30
0.000000
  70
    32
  0
VERTEX
  8
0
  5
29CC
 10
113.065
 20
102.875
 30
0.000000
  70
    32
  0
VERTEX
  8
0
  5
29CD
 10
113.060
 20
102.859
 30
0.000000
  70
    32
  0
VERTEX
  8
0
  5
29CE
 10
113.054
 20
102.842
 30
0.000000
  70
    32
  0
VERTEX
  8
0
  5
29CF
 10
113.049
 20
102.826
 30
0.000000
  70
    32
  0
VERTEX
  8
0
  5
29D0
 10
113.043
 20
102.809
 30
0.000000
  70
    32
  0
VERTEX
  8
0
  5
29D1
 10
113.037
 20
102.793
 30
0.000000
  70
    32
  0
VERTEX
  8
0
  5
29D2
 10
113.032
 20
102.777
 30
0.000000
  70
    32
  0
VERTEX
  8
0
  5
29D3
 10
113.026
 20
102.761
 30
0.000000
  70
    32
  0
VERTEX
  8
0
  5
29D4
 10
113.020
 20
102.745
 30
0.000000
  70
    32
  0
VERTEX
  8
0
  5
29D5
 10
113.013
 20
102.729
 30
0.000000
  70
    32
  0
VERTEX
  8
0
  5
29D6
 10
113.007
 20
102.713
 30
0.000000
  70
    32
  0
VERTEX
  8
0
  5
29D7
 10
113.000
 20
102.698
 30
0.000000
  70
    32
  0
VERTEX
  8
0
  5
29D8
 10
112.994
 20
102.682
 30
0.000000
  70
    32
  0
VERTEX
  8
0
  5
29D9
 10
112.987
 20
102.667
 30
0.000000
  70
    32
  0
VERTEX
  8
0
  5
29DA
 10
112.980
 20
102.651
 30
0.000000
  70
    32
  0
VERTEX
  8
0
  5
29DB
 10
112.973
 20
102.636
 30
0.000000
  70
    32
  0
VERTEX
  8
0
  5
29DC
 10
112.966
 20
102.621
 30
0.000000
  70
    32
  0
VERTEX
  8
0
  5
29DD
 10
112.959
 20
102.606
 30
0.000000
  70
    32
  0
VERTEX
  8
0
  5
29DE
 10
112.951
 20
102.592
 30
0.000000
  70
    32
  0
VERTEX
  8
0
  5
29DF
 10
112.944
 20
102.577
 30
0.000000
  70
    32
  0
VERTEX
  8
0
  5
29E0
 10
112.936
 20
102.563
 30
0.000000
  70
    32
  0
VERTEX
  8
0
  5
29E1
 10
112.929
 20
102.548
 30
0.000000
  70
    32
  0
VERTEX
  8
0
  5
29E2
 10
112.921
 20
102.534
 30
0.000000
  70
    32
  0
VERTEX
  8
0
  5
29E3
 10
112.913
 20
102.520
 30
0.000000
  70
    32
  0
VERTEX
  8
0
  5
29E4
 10
112.905
 20
102.506
 30
0.000000
  70
    32
  0
VERTEX
  8
0
  5
29E5
 10
112.897
 20
102.493
 30
0.000000
  70
    32
  0
VERTEX
  8
0
  5
29E6
 10
112.888
 20
102.479
 30
0.000000
  70
    32
  0
VERTEX
  8
0
  5
29E7
 10
112.880
 20
102.466
 30
0.000000
  70
    32
  0
VERTEX
  8
0
  5
29E8
 10
112.871
 20
102.452
 30
0.000000
  70
    32
  0
VERTEX
  8
0
  5
29E9
 10
112.863
 20
102.439
 30
0.000000
  70
    32
  0
VERTEX
  8
0
  5
29EA
 10
112.854
 20
102.426
 30
0.000000
  70
    32
  0
VERTEX
  8
0
  5
29EB
 10
112.845
 20
102.414
 30
0.000000
  70
    32
  0
VERTEX
  8
0
  5
29EC
 10
112.836
 20
102.401
 30
0.000000
  70
    32
  0
VERTEX
  8
0
  5
29ED
 10
112.827
 20
102.389
 30
0.000000
  70
    32
  0
VERTEX
  8
0
  5
29EE
 10
112.818
 20
102.376
 30
0.000000
  70
    32
  0
VERTEX
  8
0
  5
29EF
 10
112.809
 20
102.364
 30
0.000000
  70
    32
  0
VERTEX
  8
0
  5
29F0
 10
112.799
 20
102.352
 30
0.000000
  70
    32
  0
VERTEX
  8
0
  5
29F1
 10
112.790
 20
102.340
 30
0.000000
  70
    32
  0
VERTEX
  8
0
  5
29F2
 10
112.780
 20
102.329
 30
0.000000
  70
    32
  0
VERTEX
  8
0
  5
29F3
 10
112.771
 20
102.317
 30
0.000000
  70
    32
  0
VERTEX
  8
0
  5
29F4
 10
112.761
 20
102.306
 30
0.000000
  70
    32
  0
VERTEX
  8
0
  5
29F5
 10
112.751
 20
102.295
 30
0.000000
  70
    32
  0
VERTEX
  8
0
  5
29F6
 10
112.741
 20
102.284
 30
0.000000
  70
    32
  0
VERTEX
  8
0
  5
29F7
 10
112.731
 20
102.274
 30
0.000000
  70
    32
  0
VERTEX
  8
0
  5
29F8
 10
112.721
 20
102.263
 30
0.000000
  70
    32
  0
VERTEX
  8
0
  5
29F9
 10
112.711
 20
102.253
 30
0.000000
  70
    32
  0
VERTEX
  8
0
  5
29FA
 10
112.701
 20
102.243
 30
0.000000
  70
    32
  0
VERTEX
  8
0
  5
29FB
 10
112.691
 20
102.233
 30
0.000000
  70
    32
  0
VERTEX
  8
0
  5
29FC
 10
112.680
 20
102.223
 30
0.000000
  70
    32
  0
VERTEX
  8
0
  5
29FD
 10
112.670
 20
102.213
 30
0.000000
  70
    32
  0
VERTEX
  8
0
  5
29FE
 10
112.659
 20
102.204
 30
0.000000
  70
    32
  0
VERTEX
  8
0
  5
29FF
 10
112.648
 20
102.195
 30
0.000000
  70
    32
  0
VERTEX
  8
0
  5
2A00
 10
112.638
 20
102.186
 30
0.000000
  70
    32
  0
VERTEX
  8
0
  5
2A01
 10
112.627
 20
102.177
 30
0.000000
  70
    32
  0
VERTEX
  8
0
  5
2A02
 10
112.616
 20
102.169
 30
0.000000
  70
    32
  0
VERTEX
  8
0
  5
2A03
 10
112.605
 20
102.160
 30
0.000000
  70
    32
  0
VERTEX
  8
0
  5
2A04
 10
112.594
 20
102.152
 30
0.000000
  70
    32
  0
VERTEX
  8
0
  5
2A05
 10
112.583
 20
102.144
 30
0.000000
  70
    32
  0
VERTEX
  8
0
  5
2A06
 10
112.572
 20
102.136
 30
0.000000
  70
    32
  0
VERTEX
  8
0
  5
2A07
 10
112.561
 20
102.129
 30
0.000000
  70
    32
  0
VERTEX
  8
0
  5
2A08
 10
112.550
 20
102.121
 30
0.000000
  70
    32
  0
VERTEX
  8
0
  5
2A09
 10
112.538
 20
102.114
 30
0.000000
  70
    32
  0
VERTEX
  8
0
  5
2A0A
 10
112.527
 20
102.107
 30
0.000000
  70
    32
  0
VERTEX
  8
0
  5
2A0B
 10
112.515
 20
102.101
 30
0.000000
  70
    32
  0
VERTEX
  8
0
  5
2A0C
 10
112.504
 20
102.094
 30
0.000000
  70
    32
  0
VERTEX
  8
0
  5
2A0D
 10
112.492
 20
102.088
 30
0.000000
  70
    32
  0
VERTEX
  8
0
  5
2A0E
 10
112.481
 20
102.082
 30
0.000000
  70
    32
  0
VERTEX
  8
0
  5
2A0F
 10
112.469
 20
102.076
 30
0.000000
  70
    32
  0
VERTEX
  8
0
  5
2A10
 10
112.458
 20
102.070
 30
0.000000
  70
    32
  0
VERTEX
  8
0
  5
2A11
 10
112.446
 20
102.065
 30
0.000000
  70
    32
  0
VERTEX
  8
0
  5
2A12
 10
112.434
 20
102.059
 30
0.000000
  70
    32
  0
VERTEX
  8
0
  5
2A13
 10
112.422
 20
102.054
 30
0.000000
  70
    32
  0
VERTEX
  8
0
  5
2A14
 10
112.410
 20
102.050
 30
0.000000
  70
    32
  0
VERTEX
  8
0
  5
2A15
 10
112.399
 20
102.045
 30
0.000000
  70
    32
  0
VERTEX
  8
0
  5
2A16
 10
112.387
 20
102.041
 30
0.000000
  70
    32
  0
VERTEX
  8
0
  5
2A17
 10
112.375
 20
102.036
 30
0.000000
  70
    32
  0
VERTEX
  8
0
  5
2A18
 10
112.363
 20
102.033
 30
0.000000
  70
    32
  0
VERTEX
  8
0
  5
2A19
 10
112.351
 20
102.029
 30
0.000000
  70
    32
  0
VERTEX
  8
0
  5
2A1A
 10
112.339
 20
102.025
 30
0.000000
  70
    32
  0
VERTEX
  8
0
  5
2A1B
 10
112.327
 20
102.022
 30
0.000000
  70
    32
  0
VERTEX
  8
0
  5
2A1C
 10
112.314
 20
102.019
 30
0.000000
  70
    32
  0
VERTEX
  8
0
  5
2A1D
 10
112.302
 20
102.016
 30
0.000000
  70
    32
  0
VERTEX
  8
0
  5
2A1E
 10
112.290
 20
102.014
 30
0.000000
  70
    32
  0
VERTEX
  8
0
  5
2A1F
 10
112.278
 20
102.011
 30
0.000000
  70
    32
  0
VERTEX
  8
0
  5
2A20
 10
112.266
 20
102.009
 30
0.000000
  70
    32
  0
VERTEX
  8
0
  5
2A21
 10
112.254
 20
102.007
 30
0.000000
  70
    32
  0
VERTEX
  8
0
  5
2A22
 10
112.241
 20
102.006
 30
0.000000
  70
    32
  0
VERTEX
  8
0
  5
2A23
 10
112.229
 20
102.004
 30
0.000000
  70
    32
  0
VERTEX
  8
0
  5
2A24
 10
112.217
 20
102.003
 30
0.000000
  70
    32
  0
VERTEX
  8
0
  5
2A25
 10
112.205
 20
102.002
 30
0.000000
  70
    32
  0
VERTEX
  8
0
  5
2A26
 10
112.192
 20
102.001
 30
0.000000
  70
    32
  0
VERTEX
  8
0
  5
2A27
 10
112.180
 20
102.000
 30
0.000000
  70
    32
  0
VERTEX
  8
0
  5
2A28
 10
112.168
 20
102.000
 30
0.000000
  70
    32
  0
VERTEX
  8
0
  5
2A29
 10
112.156
 20
102.000
 30
0.000000
  70
    32
  0
SEQEND
  8
0
  5
2A2A
  0
ARC
  5
192E
  8
0
 10
111.0350084508102
 20
105.0
 30
0.0
 40
1.0
 50
270.00000000000051
 51
0.0
  0
ARC
  5
1972
  8
0
 10
105.96499154918961
 20
105.0
 30
0.0
 40
1.0
 50
180.0
 51
269.99999999999949
  0
POLYLINE
  5
1973
  8
0
 10
103.8444250749239
 20
103.49999999999851
 30
0.0
 66
     1
 70
     8
  0
VERTEX
  8
0
  5
2A2B
 10
103.844
 20
103.500
 30
0.000000
  70
    32
  0
VERTEX
  8
0
  5
2A2C
 10
103.845
 20
103.482
 30
0.000000
  70
    32
  0
VERTEX
  8
0
  5
2A2D
 10
103.845
 20
103.463
 30
0.000000
  70
    32
  0
VERTEX
  8
0
  5
2A2E
 10
103.845
 20
103.445
 30
0.000000
  70
    32
  0
VERTEX
  8
0
  5
2A2F
 10
103.846
 20
103.426
 30
0.000000
  70
    32
  0
VERTEX
  8
0
  5
2A30
 10
103.846
 20
103.408
 30
0.000000
  70
    32
  0
VERTEX
  8
0
  5
2A31
 10
103.847
 20
103.390
 30
0.000000
  70
    32
  0
VERTEX
  8
0
  5
2A32
 10
103.848
 20
103.371
 30
0.000000
  70
    32
  0
VERTEX
  8
0
  5
2A33
 10
103.849
 20
103.353
 30
0.000000
  70
    32
  0
VERTEX
  8
0
  5
2A34
 10
103.851
 20
103.335
 30
0.000000
  70
    32
  0
VERTEX
  8
0
  5
2A35
 10
103.852
 20
103.316
 30
0.000000
  70
    32
  0
VERTEX
  8
0
  5
2A36
 10
103.854
 20
103.298
 30
0.000000
  70
    32
  0
VERTEX
  8
0
  5
2A37
 10
103.855
 20
103.280
 30
0.000000
  70
    32
  0
VERTEX
  8
0
  5
2A38
 10
103.857
 20
103.262
 30
0.000000
  70
    32
  0
VERTEX
  8
0
  5
2A39
 10
103.859
 20
103.244
 30
0.000000
  70
    32
  0
VERTEX
  8
0
  5
2A3A
 10
103.861
 20
103.225
 30
0.000000
  70
    32
  0
VERTEX
  8
0
  5
2A3B
 10
103.864
 20
103.207
 30
0.000000
  70
    32
  0
VERTEX
  8
0
  5
2A3C
 10
103.866
 20
103.189
 30
0.000000
  70
    32
  0
VERTEX
  8
0
  5
2A3D
 10
103.869
 20
103.171
 30
0.000000
  70
    32
  0
VERTEX
  8
0
  5
2A3E
 10
103.871
 20
103.153
 30
0.000000
  70
    32
  0
VERTEX
  8
0
  5
2A3F
 10
103.874
 20
103.136
 30
0.000000
  70
    32
  0
VERTEX
  8
0
  5
2A40
 10
103.877
 20
103.118
 30
0.000000
  70
    32
  0
VERTEX
  8
0
  5
2A41
 10
103.881
 20
103.100
 30
0.000000
  70
    32
  0
VERTEX
  8
0
  5
2A42
 10
103.884
 20
103.082
 30
0.000000
  70
    32
  0
VERTEX
  8
0
  5
2A43
 10
103.887
 20
103.065
 30
0.000000
  70
    32
  0
VERTEX
  8
0
  5
2A44
 10
103.891
 20
103.047
 30
0.000000
  70
    32
  0
VERTEX
  8
0
  5
2A45
 10
103.895
 20
103.029
 30
0.000000
  70
    32
  0
VERTEX
  8
0
  5
2A46
 10
103.899
 20
103.012
 30
0.000000
  70
    32
  0
VERTEX
  8
0
  5
2A47
 10
103.903
 20
102.995
 30
0.000000
  70
    32
  0
VERTEX
  8
0
  5
2A48
 10
103.907
 20
102.977
 30
0.000000
  70
    32
  0
VERTEX
  8
0
  5
2A49
 10
103.911
 20
102.960
 30
0.000000
  70
    32
  0
VERTEX
  8
0
  5
2A4A
 10
103.916
 20
102.943
 30
0.000000
  70
    32
  0
VERTEX
  8
0
  5
2A4B
 10
103.921
 20
102.926
 30
0.000000
  70
    32
  0
VERTEX
  8
0
  5
2A4C
 10
103.925
 20
102.909
 30
0.000000
  70
    32
  0
VERTEX
  8
0
  5
2A4D
 10
103.930
 20
102.892
 30
0.000000
  70
    32
  0
VERTEX
  8
0
  5
2A4E
 10
103.935
 20
102.875
 30
0.000000
  70
    32
  0
VERTEX
  8
0
  5
2A4F
 10
103.940
 20
102.859
 30
0.000000
  70
    32
  0
VERTEX
  8
0
  5
2A50
 10
103.946
 20
102.842
 30
0.000000
  70
    32
  0
VERTEX
  8
0
  5
2A51
 10
103.951
 20
102.826
 30
0.000000
  70
    32
  0
VERTEX
  8
0
  5
2A52
 10
103.957
 20
102.809
 30
0.000000
  70
    32
  0
VERTEX
  8
0
  5
2A53
 10
103.963
 20
102.793
 30
0.000000
  70
    32
  0
VERTEX
  8
0
  5
2A54
 10
103.968
 20
102.777
 30
0.000000
  70
    32
  0
VERTEX
  8
0
  5
2A55
 10
103.974
 20
102.761
 30
0.000000
  70
    32
  0
VERTEX
  8
0
  5
2A56
 10
103.980
 20
102.745
 30
0.000000
  70
    32
  0
VERTEX
  8
0
  5
2A57
 10
103.987
 20
102.729
 30
0.000000
  70
    32
  0
VERTEX
  8
0
  5
2A58
 10
103.993
 20
102.713
 30
0.000000
  70
    32
  0
VERTEX
  8
0
  5
2A59
 10
104.000
 20
102.698
 30
0.000000
  70
    32
  0
VERTEX
  8
0
  5
2A5A
 10
104.006
 20
102.682
 30
0.000000
  70
    32
  0
VERTEX
  8
0
  5
2A5B
 10
104.013
 20
102.667
 30
0.000000
  70
    32
  0
VERTEX
  8
0
  5
2A5C
 10
104.020
 20
102.651
 30
0.000000
  70
    32
  0
VERTEX
  8
0
  5
2A5D
 10
104.027
 20
102.636
 30
0.000000
  70
    32
  0
VERTEX
  8
0
  5
2A5E
 10
104.034
 20
102.621
 30
0.000000
  70
    32
  0
VERTEX
  8
0
  5
2A5F
 10
104.041
 20
102.606
 30
0.000000
  70
    32
  0
VERTEX
  8
0
  5
2A60
 10
104.049
 20
102.592
 30
0.000000
  70
    32
  0
VERTEX
  8
0
  5
2A61
 10
104.056
 20
102.577
 30
0.000000
  70
    32
  0
VERTEX
  8
0
  5
2A62
 10
104.064
 20
102.563
 30
0.000000
  70
    32
  0
VERTEX
  8
0
  5
2A63
 10
104.071
 20
102.548
 30
0.000000
  70
    32
  0
VERTEX
  8
0
  5
2A64
 10
104.079
 20
102.534
 30
0.000000
  70
    32
  0
VERTEX
  8
0
  5
2A65
 10
104.087
 20
102.520
 30
0.000000
  70
    32
  0
VERTEX
  8
0
  5
2A66
 10
104.095
 20
102.506
 30
0.000000
  70
    32
  0
VERTEX
  8
0
  5
2A67
 10
104.103
 20
102.493
 30
0.000000
  70
    32
  0
VERTEX
  8
0
  5
2A68
 10
104.112
 20
102.479
 30
0.000000
  70
    32
  0
VERTEX
  8
0
  5
2A69
 10
104.120
 20
102.466
 30
0.000000
  70
    32
  0
VERTEX
  8
0
  5
2A6A
 10
104.129
 20
102.452
 30
0.000000
  70
    32
  0
VERTEX
  8
0
  5
2A6B
 10
104.137
 20
102.439
 30
0.000000
  70
    32
  0
VERTEX
  8
0
  5
2A6C
 10
104.146
 20
102.426
 30
0.000000
  70
    32
  0
VERTEX
  8
0
  5
2A6D
 10
104.155
 20
102.414
 30
0.000000
  70
    32
  0
VERTEX
  8
0
  5
2A6E
 10
104.164
 20
102.401
 30
0.000000
  70
    32
  0
VERTEX
  8
0
  5
2A6F
 10
104.173
 20
102.389
 30
0.000000
  70
    32
  0
VERTEX
  8
0
  5
2A70
 10
104.182
 20
102.376
 30
0.000000
  70
    32
  0
VERTEX
  8
0
  5
2A71
 10
104.191
 20
102.364
 30
0.000000
  70
    32
  0
VERTEX
  8
0
  5
2A72
 10
104.201
 20
102.352
 30
0.000000
  70
    32
  0
VERTEX
  8
0
  5
2A73
 10
104.210
 20
102.340
 30
0.000000
  70
    32
  0
VERTEX
  8
0
  5
2A74
 10
104.220
 20
102.329
 30
0.000000
  70
    32
  0
VERTEX
  8
0
  5
2A75
 10
104.229
 20
102.317
 30
0.000000
  70
    32
  0
VERTEX
  8
0
  5
2A76
 10
104.239
 20
102.306
 30
0.000000
  70
    32
  0
VERTEX
  8
0
  5
2A77
 10
104.249
 20
102.295
 30
0.000000
  70
    32
  0
VERTEX
  8
0
  5
2A78
 10
104.259
 20
102.284
 30
0.000000
  70
    32
  0
VERTEX
  8
0
  5
2A79
 10
104.269
 20
102.274
 30
0.000000
  70
    32
  0
VERTEX
  8
0
  5
2A7A
 10
104.279
 20
102.263
 30
0.000000
  70
    32
  0
VERTEX
  8
0
  5
2A7B
 10
104.289
 20
102.253
 30
0.000000
  70
    32
  0
VERTEX
  8
0
  5
2A7C
 10
104.299
 20
102.243
 30
0.000000
  70
    32
  0
VERTEX
  8
0
  5
2A7D
 10
104.309
 20
102.233
 30
0.000000
  70
    32
  0
VERTEX
  8
0
  5
2A7E
 10
104.320
 20
102.223
 30
0.000000
  70
    32
  0
VERTEX
  8
0
  5
2A7F
 10
104.330
 20
102.213
 30
0.000000
  70
    32
  0
VERTEX
  8
0
  5
2A80
 10
104.341
 20
102.204
 30
0.000000
  70
    32
  0
VERTEX
  8
0
  5
2A81
 10
104.352
 20
102.195
 30
0.000000
  70
    32
  0
VERTEX
  8
0
  5
2A82
 10
104.362
 20
102.186
 30
0.000000
  70
    32
  0
VERTEX
  8
0
  5
2A83
 10
104.373
 20
102.177
 30
0.000000
  70
    32
  0
VERTEX
  8
0
  5
2A84
 10
104.384
 20
102.169
 30
0.000000
  70
    32
  0
VERTEX
  8
0
  5
2A85
 10
104.395
 20
102.160
 30
0.000000
  70
    32
  0
VERTEX
  8
0
  5
2A86
 10
104.406
 20
102.152
 30
0.000000
  70
    32
  0
VERTEX
  8
0
  5
2A87
 10
104.417
 20
102.144
 30
0.000000
  70
    32
  0
VERTEX
  8
0
  5
2A88
 10
104.428
 20
102.136
 30
0.000000
  70
    32
  0
VERTEX
  8
0
  5
2A89
 10
104.439
 20
102.129
 30
0.000000
  70
    32
  0
VERTEX
  8
0
  5
2A8A
 10
104.450
 20
102.121
 30
0.000000
  70
    32
  0
VERTEX
  8
0
  5
2A8B
 10
104.462
 20
102.114
 30
0.000000
  70
    32
  0
VERTEX
  8
0
  5
2A8C
 10
104.473
 20
102.107
 30
0.000000
  70
    32
  0
VERTEX
  8
0
  5
2A8D
 10
104.485
 20
102.101
 30
0.000000
  70
    32
  0
VERTEX
  8
0
  5
2A8E
 10
104.496
 20
102.094
 30
0.000000
  70
    32
  0
VERTEX
  8
0
  5
2A8F
 10
104.508
 20
102.088
 30
0.000000
  70
    32
  0
VERTEX
  8
0
  5
2A90
 10
104.519
 20
102.082
 30
0.000000
  70
    32
  0
VERTEX
  8
0
  5
2A91
 10
104.531
 20
102.076
 30
0.000000
  70
    32
  0
VERTEX
  8
0
  5
2A92
 10
104.542
 20
102.070
 30
0.000000
  70
    32
  0
VERTEX
  8
0
  5
2A93
 10
104.554
 20
102.065
 30
0.000000
  70
    32
  0
VERTEX
  8
0
  5
2A94
 10
104.566
 20
102.059
 30
0.000000
  70
    32
  0
VERTEX
  8
0
  5
2A95
 10
104.578
 20
102.054
 30
0.000000
  70
    32
  0
VERTEX
  8
0
  5
2A96
 10
104.590
 20
102.050
 30
0.000000
  70
    32
  0
VERTEX
  8
0
  5
2A97
 10
104.601
 20
102.045
 30
0.000000
  70
    32
  0
VERTEX
  8
0
  5
2A98
 10
104.613
 20
102.041
 30
0.000000
  70
    32
  0
VERTEX
  8
0
  5
2A99
 10
104.625
 20
102.036
 30
0.000000
  70
    32
  0
VERTEX
  8
0
  5
2A9A
 10
104.637
 20
102.033
 30
0.000000
  70
    32
  0
VERTEX
  8
0
  5
2A9B
 10
104.649
 20
102.029
 30
0.000000
  70
    32
  0
VERTEX
  8
0
  5
2A9C
 10
104.661
 20
102.025
 30
0.000000
  70
    32
  0
VERTEX
  8
0
  5
2A9D
 10
104.673
 20
102.022
 30
0.000000
  70
    32
  0
VERTEX
  8
0
  5
2A9E
 10
104.686
 20
102.019
 30
0.000000
  70
    32
  0
VERTEX
  8
0
  5
2A9F
 10
104.698
 20
102.016
 30
0.000000
  70
    32
  0
VERTEX
  8
0
  5
2AA0
 10
104.710
 20
102.014
 30
0.000000
  70
    32
  0
VERTEX
  8
0
  5
2AA1
 10
104.722
 20
102.011
 30
0.000000
  70
    32
  0
VERTEX
  8
0
  5
2AA2
 10
104.734
 20
102.009
 30
0.000000
  70
    32
  0
VERTEX
  8
0
  5
2AA3
 10
104.746
 20
102.007
 30
0.000000
  70
    32
  0
VERTEX
  8
0
  5
2AA4
 10
104.759
 20
102.006
 30
0.000000
  70
    32
  0
VERTEX
  8
0
  5
2AA5
 10
104.771
 20
102.004
 30
0.000000
  70
    32
  0
VERTEX
  8
0
  5
2AA6
 10
104.783
 20
102.003
 30
0.000000
  70
    32
  0
VERTEX
  8
0
  5
2AA7
 10
104.795
 20
102.002
 30
0.000000
  70
    32
  0
VERTEX
  8
0
  5
2AA8
 10
104.808
 20
102.001
 30
0.000000
  70
    32
  0
VERTEX
  8
0
  5
2AA9
 10
104.820
 20
102.000
 30
0.000000
  70
    32
  0
VERTEX
  8
0
  5
2AAA
 10
104.832
 20
102.000
 30
0.000000
  70
    32
  0
VERTEX
  8
0
  5
2AAB
 10
104.844
 20
102.000
 30
0.000000
  70
    32
  0
SEQEND
  8
0
  5
2AAC
  0
POLYLINE
  5
1974
  8
0
 10
103.844425074924
 20
110.5
 30
0.0
 66
     1
 70
     8
  0
VERTEX
  8
0
  5
2AAD
 10
103.844
 20
110.500
 30
0.000000
  70
    32
  0
VERTEX
  8
0
  5
2AAE
 10
103.845
 20
110.518
 30
0.000000
  70
    32
  0
VERTEX
  8
0
  5
2AAF
 10
103.845
 20
110.537
 30
0.000000
  70
    32
  0
VERTEX
  8
0
  5
2AB0
 10
103.845
 20
110.555
 30
0.000000
  70
    32
  0
VERTEX
  8
0
  5
2AB1
 10
103.846
 20
110.574
 30
0.000000
  70
    32
  0
VERTEX
  8
0
  5
2AB2
 10
103.846
 20
110.592
 30
0.000000
  70
    32
  0
VERTEX
  8
0
  5
2AB3
 10
103.847
 20
110.610
 30
0.000000
  70
    32
  0
VERTEX
  8
0
  5
2AB4
 10
103.848
 20
110.629
 30
0.000000
  70
    32
  0
VERTEX
  8
0
  5
2AB5
 10
103.849
 20
110.647
 30
0.000000
  70
    32
  0
VERTEX
  8
0
  5
2AB6
 10
103.851
 20
110.665
 30
0.000000
  70
    32
  0
VERTEX
  8
0
  5
2AB7
 10
103.852
 20
110.684
 30
0.000000
  70
    32
  0
VERTEX
  8
0
  5
2AB8
 10
103.854
 20
110.702
 30
0.000000
  70
    32
  0
VERTEX
  8
0
  5
2AB9
 10
103.855
 20
110.720
 30
0.000000
  70
    32
  0
VERTEX
  8
0
  5
2ABA
 10
103.857
 20
110.738
 30
0.000000
  70
    32
  0
VERTEX
  8
0
  5
2ABB
 10
103.859
 20
110.756
 30
0.000000
  70
    32
  0
VERTEX
  8
0
  5
2ABC
 10
103.861
 20
110.775
 30
0.000000
  70
    32
  0
VERTEX
  8
0
  5
2ABD
 10
103.864
 20
110.793
 30
0.000000
  70
    32
  0
VERTEX
  8
0
  5
2ABE
 10
103.866
 20
110.811
 30
0.000000
  70
    32
  0
VERTEX
  8
0
  5
2ABF
 10
103.869
 20
110.829
 30
0.000000
  70
    32
  0
VERTEX
  8
0
  5
2AC0
 10
103.871
 20
110.847
 30
0.000000
  70
    32
  0
VERTEX
  8
0
  5
2AC1
 10
103.874
 20
110.864
 30
0.000000
  70
    32
  0
VERTEX
  8
0
  5
2AC2
 10
103.877
 20
110.882
 30
0.000000
  70
    32
  0
VERTEX
  8
0
  5
2AC3
 10
103.881
 20
110.900
 30
0.000000
  70
    32
  0
VERTEX
  8
0
  5
2AC4
 10
103.884
 20
110.918
 30
0.000000
  70
    32
  0
VERTEX
  8
0
  5
2AC5
 10
103.887
 20
110.935
 30
0.000000
  70
    32
  0
VERTEX
  8
0
  5
2AC6
 10
103.891
 20
110.953
 30
0.000000
  70
    32
  0
VERTEX
  8
0
  5
2AC7
 10
103.895
 20
110.971
 30
0.000000
  70
    32
  0
VERTEX
  8
0
  5
2AC8
 10
103.899
 20
110.988
 30
0.000000
  70
    32
  0
VERTEX
  8
0
  5
2AC9
 10
103.903
 20
111.005
 30
0.000000
  70
    32
  0
VERTEX
  8
0
  5
2ACA
 10
103.907
 20
111.023
 30
0.000000
  70
    32
  0
VERTEX
  8
0
  5
2ACB
 10
103.911
 20
111.040
 30
0.000000
  70
    32
  0
VERTEX
  8
0
  5
2ACC
 10
103.916
 20
111.057
 30
0.000000
  70
    32
  0
VERTEX
  8
0
  5
2ACD
 10
103.921
 20
111.074
 30
0.000000
  70
    32
  0
VERTEX
  8
0
  5
2ACE
 10
103.925
 20
111.091
 30
0.000000
  70
    32
  0
VERTEX
  8
0
  5
2ACF
 10
103.930
 20
111.108
 30
0.000000
  70
    32
  0
VERTEX
  8
0
  5
2AD0
 10
103.935
 20
111.125
 30
0.000000
  70
    32
  0
VERTEX
  8
0
  5
2AD1
 10
103.940
 20
111.141
 30
0.000000
  70
    32
  0
VERTEX
  8
0
  5
2AD2
 10
103.946
 20
111.158
 30
0.000000
  70
    32
  0
VERTEX
  8
0
  5
2AD3
 10
103.951
 20
111.174
 30
0.000000
  70
    32
  0
VERTEX
  8
0
  5
2AD4
 10
103.957
 20
111.191
 30
0.000000
  70
    32
  0
VERTEX
  8
0
  5
2AD5
 10
103.963
 20
111.207
 30
0.000000
  70
    32
  0
VERTEX
  8
0
  5
2AD6
 10
103.968
 20
111.223
 30
0.000000
  70
    32
  0
VERTEX
  8
0
  5
2AD7
 10
103.974
 20
111.239
 30
0.000000
  70
    32
  0
VERTEX
  8
0
  5
2AD8
 10
103.980
 20
111.255
 30
0.000000
  70
    32
  0
VERTEX
  8
0
  5
2AD9
 10
103.987
 20
111.271
 30
0.000000
  70
    32
  0
VERTEX
  8
0
  5
2ADA
 10
103.993
 20
111.287
 30
0.000000
  70
    32
  0
VERTEX
  8
0
  5
2ADB
 10
104.000
 20
111.302
 30
0.000000
  70
    32
  0
VERTEX
  8
0
  5
2ADC
 10
104.006
 20
111.318
 30
0.000000
  70
    32
  0
VERTEX
  8
0
  5
2ADD
 10
104.013
 20
111.333
 30
0.000000
  70
    32
  0
VERTEX
  8
0
  5
2ADE
 10
104.020
 20
111.349
 30
0.000000
  70
    32
  0
VERTEX
  8
0
  5
2ADF
 10
104.027
 20
111.364
 30
0.000000
  70
    32
  0
VERTEX
  8
0
  5
2AE0
 10
104.034
 20
111.379
 30
0.000000
  70
    32
  0
VERTEX
  8
0
  5
2AE1
 10
104.041
 20
111.394
 30
0.000000
  70
    32
  0
VERTEX
  8
0
  5
2AE2
 10
104.049
 20
111.408
 30
0.000000
  70
    32
  0
VERTEX
  8
0
  5
2AE3
 10
104.056
 20
111.423
 30
0.000000
  70
    32
  0
VERTEX
  8
0
  5
2AE4
 10
104.064
 20
111.437
 30
0.000000
  70
    32
  0
VERTEX
  8
0
  5
2AE5
 10
104.071
 20
111.452
 30
0.000000
  70
    32
  0
VERTEX
  8
0
  5
2AE6
 10
104.079
 20
111.466
 30
0.000000
  70
    32
  0
VERTEX
  8
0
  5
2AE7
 10
104.087
 20
111.480
 30
0.000000
  70
    32
  0
VERTEX
  8
0
  5
2AE8
 10
104.095
 20
111.494
 30
0.000000
  70
    32
  0
VERTEX
  8
0
  5
2AE9
 10
104.103
 20
111.507
 30
0.000000
  70
    32
  0
VERTEX
  8
0
  5
2AEA
 10
104.112
 20
111.521
 30
0.000000
  70
    32
  0
VERTEX
  8
0
  5
2AEB
 10
104.120
 20
111.534
 30
0.000000
  70
    32
  0
VERTEX
  8
0
  5
2AEC
 10
104.129
 20
111.548
 30
0.000000
  70
    32
  0
VERTEX
  8
0
  5
2AED
 10
104.137
 20
111.561
 30
0.000000
  70
    32
  0
VERTEX
  8
0
  5
2AEE
 10
104.146
 20
111.574
 30
0.000000
  70
    32
  0
VERTEX
  8
0
  5
2AEF
 10
104.155
 20
111.586
 30
0.000000
  70
    32
  0
VERTEX
  8
0
  5
2AF0
 10
104.164
 20
111.599
 30
0.000000
  70
    32
  0
VERTEX
  8
0
  5
2AF1
 10
104.173
 20
111.611
 30
0.000000
  70
    32
  0
VERTEX
  8
0
  5
2AF2
 10
104.182
 20
111.624
 30
0.000000
  70
    32
  0
VERTEX
  8
0
  5
2AF3
 10
104.191
 20
111.636
 30
0.000000
  70
    32
  0
VERTEX
  8
0
  5
2AF4
 10
104.201
 20
111.648
 30
0.000000
  70
    32
  0
VERTEX
  8
0
  5
2AF5
 10
104.210
 20
111.660
 30
0.000000
  70
    32
  0
VERTEX
  8
0
  5
2AF6
 10
104.220
 20
111.671
 30
0.000000
  70
    32
  0
VERTEX
  8
0
  5
2AF7
 10
104.229
 20
111.683
 30
0.000000
  70
    32
  0
VERTEX
  8
0
  5
2AF8
 10
104.239
 20
111.694
 30
0.000000
  70
    32
  0
VERTEX
  8
0
  5
2AF9
 10
104.249
 20
111.705
 30
0.000000
  70
    32
  0
VERTEX
  8
0
  5
2AFA
 10
104.259
 20
111.716
 30
0.000000
  70
    32
  0
VERTEX
  8
0
  5
2AFB
 10
104.269
 20
111.726
 30
0.000000
  70
    32
  0
VERTEX
  8
0
  5
2AFC
 10
104.279
 20
111.737
 30
0.000000
  70
    32
  0
VERTEX
  8
0
  5
2AFD
 10
104.289
 20
111.747
 30
0.000000
  70
    32
  0
VERTEX
  8
0
  5
2AFE
 10
104.299
 20
111.757
 30
0.000000
  70
    32
  0
VERTEX
  8
0
  5
2AFF
 10
104.309
 20
111.767
 30
0.000000
  70
    32
  0
VERTEX
  8
0
  5
2B00
 10
104.320
 20
111.777
 30
0.000000
  70
    32
  0
VERTEX
  8
0
  5
2B01
 10
104.330
 20
111.787
 30
0.000000
  70
    32
  0
VERTEX
  8
0
  5
2B02
 10
104.341
 20
111.796
 30
0.000000
  70
    32
  0
VERTEX
  8
0
  5
2B03
 10
104.352
 20
111.805
 30
0.000000
  70
    32
  0
VERTEX
  8
0
  5
2B04
 10
104.362
 20
111.814
 30
0.000000
  70
    32
  0
VERTEX
  8
0
  5
2B05
 10
104.373
 20
111.823
 30
0.000000
  70
    32
  0
VERTEX
  8
0
  5
2B06
 10
104.384
 20
111.831
 30
0.000000
  70
    32
  0
VERTEX
  8
0
  5
2B07
 10
104.395
 20
111.840
 30
0.000000
  70
    32
  0
VERTEX
  8
0
  5
2B08
 10
104.406
 20
111.848
 30
0.000000
  70
    32
  0
VERTEX
  8
0
  5
2B09
 10
104.417
 20
111.856
 30
0.000000
  70
    32
  0
VERTEX
  8
0
  5
2B0A
 10
104.428
 20
111.864
 30
0.000000
  70
    32
  0
VERTEX
  8
0
  5
2B0B
 10
104.439
 20
111.871
 30
0.000000
  70
    32
  0
VERTEX
  8
0
  5
2B0C
 10
104.450
 20
111.879
 30
0.000000
  70
    32
  0
VERTEX
  8
0
  5
2B0D
 10
104.462
 20
111.886
 30
0.000000
  70
    32
  0
VERTEX
  8
0
  5
2B0E
 10
104.473
 20
111.893
 30
0.000000
  70
    32
  0
VERTEX
  8
0
  5
2B0F
 10
104.485
 20
111.899
 30
0.000000
  70
    32
  0
VERTEX
  8
0
  5
2B10
 10
104.496
 20
111.906
 30
0.000000
  70
    32
  0
VERTEX
  8
0
  5
2B11
 10
104.508
 20
111.912
 30
0.000000
  70
    32
  0
VERTEX
  8
0
  5
2B12
 10
104.519
 20
111.918
 30
0.000000
  70
    32
  0
VERTEX
  8
0
  5
2B13
 10
104.531
 20
111.924
 30
0.000000
  70
    32
  0
VERTEX
  8
0
  5
2B14
 10
104.542
 20
111.930
 30
0.000000
  70
    32
  0
VERTEX
  8
0
  5
2B15
 10
104.554
 20
111.935
 30
0.000000
  70
    32
  0
VERTEX
  8
0
  5
2B16
 10
104.566
 20
111.941
 30
0.000000
  70
    32
  0
VERTEX
  8
0
  5
2B17
 10
104.578
 20
111.946
 30
0.000000
  70
    32
  0
VERTEX
  8
0
  5
2B18
 10
104.590
 20
111.950
 30
0.000000
  70
    32
  0
VERTEX
  8
0
  5
2B19
 10
104.601
 20
111.955
 30
0.000000
  70
    32
  0
VERTEX
  8
0
  5
2B1A
 10
104.613
 20
111.959
 30
0.000000
  70
    32
  0
VERTEX
  8
0
  5
2B1B
 10
104.625
 20
111.964
 30
0.000000
  70
    32
  0
VERTEX
  8
0
  5
2B1C
 10
104.637
 20
111.967
 30
0.000000
  70
    32
  0
VERTEX
  8
0
  5
2B1D
 10
104.649
 20
111.971
 30
0.000000
  70
    32
  0
VERTEX
  8
0
  5
2B1E
 10
104.661
 20
111.975
 30
0.000000
  70
    32
  0
VERTEX
  8
0
  5
2B1F
 10
104.673
 20
111.978
 30
0.000000
  70
    32
  0
VERTEX
  8
0
  5
2B20
 10
104.686
 20
111.981
 30
0.000000
  70
    32
  0
VERTEX
  8
0
  5
2B21
 10
104.698
 20
111.984
 30
0.000000
  70
    32
  0
VERTEX
  8
0
  5
2B22
 10
104.710
 20
111.986
 30
0.000000
  70
    32
  0
VERTEX
  8
0
  5
2B23
 10
104.722
 20
111.989
 30
0.000000
  70
    32
  0
VERTEX
  8
0
  5
2B24
 10
104.734
 20
111.991
 30
0.000000
  70
    32
  0
VERTEX
  8
0
  5
2B25
 10
104.746
 20
111.993
 30
0.000000
  70
    32
  0
VERTEX
  8
0
  5
2B26
 10
104.759
 20
111.994
 30
0.000000
  70
    32
  0
VERTEX
  8
0
  5
2B27
 10
104.771
 20
111.996
 30
0.000000
  70
    32
  0
VERTEX
  8
0
  5
2B28
 10
104.783
 20
111.997
 30
0.000000
  70
    32
  0
VERTEX
  8
0
  5
2B29
 10
104.795
 20
111.998
 30
0.000000
  70
    32
  0
VERTEX
  8
0
  5
2B2A
 10
104.808
 20
111.999
 30
0.000000
  70
    32
  0
VERTEX
  8
0
  5
2B2B
 10
104.820
 20
112.000
 30
0.000000
  70
    32
  0
VERTEX
  8
0
  5
2B2C
 10
104.832
 20
112.000
 30
0.000000
  70
    32
  0
VERTEX
  8
0
  5
2B2D
 10
104.844
 20
112.000
 30
0.000000
  70
    32
  0
SEQEND
  8
0
  5
2B2E
  0
LINE
  5
1975
  8
0
 10
103.844425074924
 20
110.5
 30
0.0
 11
103.844425074924
 21
103.49999999999849
 31
0.0
  0
ARC
  5
1976
  8
0
 10
105.96499154918961
 20
108.6925304673795
 30
0.0
 40
1.0
 50
90.000000000000483
 51
180.0
  0
LINE
  5
1977
  8
0
 10
104.96499154918961
 20
108.6925304673795
 30
0.0
 11
104.96499154918961
 21
105.0
 31
0.0
  0
LINE
  5
1978
  8
0
 10
112.1555749250759
 20
112.0
 30
0.0
 11
111.3558911457271
 21
109.63964941244549
 31
0.0
  0
LINE
  5
1979
  8
0
 10
112.0350084508103
 20
108.6925304673795
 30
0.0
 11
113.1555749250758
 21
110.5
 31
0.0
  0
LINE
  5
197B
  8
0
 10
103.844425074924
 20
110.5
 30
0.0
 11
104.96499154918961
 21
108.6925304673795
 31
0.0
  0
LINE
  5
197C
  8
0
 10
104.844425074924
 20
112.0
 30
0.0
 11
105.96499154918961
 21
109.6925304673796
 31
0.0
  0
LINE
  5
1982
  8
0
 10
104.96499154918961
 20
105.0
 30
0.0
 11
103.8444250749239
 21
103.49999999999849
 31
0.0
  0
LINE
  5
1983
  8
0
 10
105.96499154918961
 20
104.0
 30
0.0
 11
104.8444250749239
 21
101.99999999999849
 31
0.0
  0
LINE
  5
1985
  8
0
 10
112.0350084508103
 20
105.0
 30
0.0
 11
113.1555749250759
 21
103.49999999999849
 31
0.0
  0
LINE
  5
1986
  8
0
 10
111.0350084508103
 20
104.0
 30
0.0
 11
112.1555749250759
 21
101.99999999999849
 31
0.0
  0
LINE
  5
2461
  8
0
 10
54.000000000000028
 20
36.999464410607992
 30
0.0
 11
54.000000000000028
 21
40.354248688935527
 31
0.0
  0
ARC
  5
2462
  8
0
 10
53.099999999999973
 20
41.677124344467778
 30
0.0
 40
1.6000000000000001
 50
304.2288663278153
 51
55.771133672182287
  0
ARC
  5
2463
  8
0
 10
57.240370349204028
 20
41.677124344467792
 30
0.0
 40
3.5
 50
157.7923457014038
 51
202.2076542985933
  0
LINE
  5
2464
  8
0
 10
54.000000000000092
 20
43.00000000000005
 30
0.0
 11
54.000000000000007
 21
83.000000000000057
 31
0.0
  0
LINE
  5
2465
  8
0
 10
45.999999999999922
 20
37.000000000000007
 30
0.0
 11
54.000000000000028
 21
37.000000000000007
 31
0.0
  0
ARC
  5
2467
  8
0
 10
42.759629650795922
 20
41.677124344467792
 30
0.0
 40
3.5
 50
337.7923457014067
 51
22.20765429859614
  0
ARC
  5
2468
  8
0
 10
46.899999999999977
 20
41.677124344467778
 30
0.0
 40
1.6000000000000001
 50
124.2288663278177
 51
235.77113367218459
  0
LINE
  5
2469
  8
0
 10
45.999999999999858
 20
43.00000000000005
 30
0.0
 11
45.99999999999995
 21
83.000000000000057
 31
0.0
  0
LINE
  5
246A
  8
0
 10
45.999999999999922
 20
37.000000000000007
 30
0.0
 11
45.999999999999922
 21
40.354248688935527
 31
0.0
  0
LINE
  5
246B
  8
0
 10
45.999999999999922
 20
37.000000000000007
 30
0.0
 11
46.700052584629738
 21
35.0
 31
0.0
  0
LINE
  5
2479
  8
0
 10
112.5000000000001
 20
37.000000000000021
 30
0.0
 11
112.5
 21
83.000000000000085
 31
0.0
  0
LINE
  5
247A
  8
0
 10
104.4999999999998
 20
37.000000000000028
 30
0.0
 11
104.4999999999999
 21
83.000000000000085
 31
0.0
  0
CIRCLE
  5
247E
  8
0
 10
108.4999999999999
 20
41.677124344467749
 30
0.0
 40
1.322875655532378
  0
TEXT
  5
2550
  8
0
 62
     3
 10
0.0
 20
0.0
 30
0.0
 40
10.0
  1
BJ773-08040-SUS
  7
STANDARD1
  0
LINE
  5
25E4
  8
0
 10
44.499999999999979
 20
83.000000000000057
 30
0.0
 11
44.499999999999979
 21
102.0
 31
0.0
  0
LINE
  5
25E7
  8
0
 10
55.499999999999993
 20
83.000000000000057
 30
0.0
 11
55.499999999999979
 21
102.0
 31
0.0
  0
LINE
  5
25EF
  8
0
 10
113.9999999999999
 20
83.000000000000014
 30
0.0
 11
113.9999999999999
 21
111.0
 31
0.0
  0
LINE
  5
25F0
  8
0
 10
103.0
 20
83.000000000000014
 30
0.0
 11
102.9999999999999
 21
111.0
 31
0.0
  0
LINE
  5
261B
  8
0
 10
54.000000000000043
 20
36.999999999999979
 30
0.0
 11
53.299947415370212
 21
34.999999999999972
 31
0.0
  0
LINE
  5
261C
  8
0
 10
46.700052584629738
 20
35.0
 30
0.0
 11
53.299947415370212
 21
34.999999999999972
 31
0.0
  0
LINE
  5
262A
  8
0
 10
104.4999999999998
 20
37.000000000000028
 30
0.0
 11
112.4999999999999
 21
37.000000000000028
 31
0.0
  0
LINE
  5
262B
  8
0
 10
104.4999999999998
 20
37.000000000000028
 30
0.0
 11
105.2000525846296
 21
35.000000000000028
 31
0.0
  0
LINE
  5
262C
  8
0
 10
112.4999999999999
 20
37.0
 30
0.0
 11
111.7999474153701
 21
35.0
 31
0.0
  0
LINE
  5
262D
  8
0
 10
105.2000525846296
 20
35.000000000000028
 30
0.0
 11
111.7999474153701
 21
35.0
 31
0.0
  0
ARC
  5
269E
  8
0
 10
49.999638160085098
 20
150.49999999995271
 30
0.0
 40
5.5
 50
235.9524567679515
 51
304.0470677531768
  0
ARC
  5
269F
  8
0
 10
49.999638160085098
 20
150.49999999995271
 30
0.0
 40
5.5
 50
55.952932246822542
 51
124.0475432320485
  0
ARC
  5
26A0
  8
0
 10
53.918754469714777
 20
144.6999545387865
 30
0.0
 40
1.5
 50
92.412978451484065
 51
124.0470677531769
  0
ARC
  5
26A1
  8
0
 10
46.080473717916483
 20
144.69998706244641
 30
0.0
 40
1.5
 50
55.952456767951652
 51
87.587021548516148
  0
ARC
  5
26A2
  8
0
 10
46.08047371791649
 20
156.30001293745909
 30
0.0
 40
1.5
 50
272.41297845148409
 51
304.04754323204833
  0
ARC
  5
26A3
  8
0
 10
53.918754469714841
 20
156.30004546111891
 30
0.0
 40
1.5
 50
235.9529322468224
 51
267.58702154851591
  0
ARC
  5
26B4
  8
0
 10
57.711264145277113
 20
105.26223951224929
 30
0.0
 40
4.0570165041249862
 50
198.1270450416672
 51
233.52324947234391
  0
POLYLINE
  5
26B9
  8
0
 10
44.700237415958014
 20
101.9999999999999
 30
0.0
 66
     1
 70
     8
  0
VERTEX
  8
0
  5
2B2F
 10
44.7002
 20
102.000
 30
0.000000
  70
    32
  0
VERTEX
  8
0
  5
2B30
 10
44.7000
 20
102.025
 30
0.000000
  70
    32
  0
VERTEX
  8
0
  5
2B31
 10
44.6995
 20
102.049
 30
0.000000
  70
    32
  0
VERTEX
  8
0
  5
2B32
 10
44.6985
 20
102.074
 30
0.000000
  70
    32
  0
VERTEX
  8
0
  5
2B33
 10
44.6972
 20
102.098
 30
0.000000
  70
    32
  0
VERTEX
  8
0
  5
2B34
 10
44.6955
 20
102.123
 30
0.000000
  70
    32
  0
VERTEX
  8
0
  5
2B35
 10
44.6934
 20
102.147
 30
0.000000
  70
    32
  0
VERTEX
  8
0
  5
2B36
 10
44.6910
 20
102.172
 30
0.000000
  70
    32
  0
VERTEX
  8
0
  5
2B37
 10
44.6882
 20
102.196
 30
0.000000
  70
    32
  0
VERTEX
  8
0
  5
2B38
 10
44.6850
 20
102.220
 30
0.000000
  70
    32
  0
VERTEX
  8
0
  5
2B39
 10
44.6814
 20
102.245
 30
0.000000
  70
    32
  0
VERTEX
  8
0
  5
2B3A
 10
44.6774
 20
102.269
 30
0.000000
  70
    32
  0
VERTEX
  8
0
  5
2B3B
 10
44.6731
 20
102.293
 30
0.000000
  70
    32
  0
VERTEX
  8
0
  5
2B3C
 10
44.6684
 20
102.318
 30
0.000000
  70
    32
  0
VERTEX
  8
0
  5
2B3D
 10
44.6633
 20
102.342
 30
0.000000
  70
    32
  0
VERTEX
  8
0
  5
2B3E
 10
44.6579
 20
102.366
 30
0.000000
  70
    32
  0
VERTEX
  8
0
  5
2B3F
 10
44.6520
 20
102.390
 30
0.000000
  70
    32
  0
VERTEX
  8
0
  5
2B40
 10
44.6459
 20
102.414
 30
0.000000
  70
    32
  0
VERTEX
  8
0
  5
2B41
 10
44.6393
 20
102.438
 30
0.000000
  70
    32
  0
VERTEX
  8
0
  5
2B42
 10
44.6324
 20
102.462
 30
0.000000
  70
    32
  0
VERTEX
  8
0
  5
2B43
 10
44.6251
 20
102.486
 30
0.000000
  70
    32
  0
VERTEX
  8
0
  5
2B44
 10
44.6174
 20
102.510
 30
0.000000
  70
    32
  0
VERTEX
  8
0
  5
2B45
 10
44.6094
 20
102.533
 30
0.000000
  70
    32
  0
VERTEX
  8
0
  5
2B46
 10
44.6010
 20
102.557
 30
0.000000
  70
    32
  0
VERTEX
  8
0
  5
2B47
 10
44.5922
 20
102.581
 30
0.000000
  70
    32
  0
VERTEX
  8
0
  5
2B48
 10
44.5831
 20
102.604
 30
0.000000
  70
    32
  0
VERTEX
  8
0
  5
2B49
 10
44.5737
 20
102.627
 30
0.000000
  70
    32
  0
VERTEX
  8
0
  5
2B4A
 10
44.5638
 20
102.651
 30
0.000000
  70
    32
  0
VERTEX
  8
0
  5
2B4B
 10
44.5536
 20
102.674
 30
0.000000
  70
    32
  0
VERTEX
  8
0
  5
2B4C
 10
44.5431
 20
102.697
 30
0.000000
  70
    32
  0
VERTEX
  8
0
  5
2B4D
 10
44.5322
 20
102.720
 30
0.000000
  70
    32
  0
VERTEX
  8
0
  5
2B4E
 10
44.5209
 20
102.743
 30
0.000000
  70
    32
  0
VERTEX
  8
0
  5
2B4F
 10
44.5093
 20
102.765
 30
0.000000
  70
    32
  0
VERTEX
  8
0
  5
2B50
 10
44.4974
 20
102.788
 30
0.000000
  70
    32
  0
VERTEX
  8
0
  5
2B51
 10
44.4851
 20
102.810
 30
0.000000
  70
    32
  0
VERTEX
  8
0
  5
2B52
 10
44.4724
 20
102.833
 30
0.000000
  70
    32
  0
VERTEX
  8
0
  5
2B53
 10
44.4594
 20
102.855
 30
0.000000
  70
    32
  0
VERTEX
  8
0
  5
2B54
 10
44.4461
 20
102.877
 30
0.000000
  70
    32
  0
VERTEX
  8
0
  5
2B55
 10
44.4324
 20
102.899
 30
0.000000
  70
    32
  0
VERTEX
  8
0
  5
2B56
 10
44.4184
 20
102.921
 30
0.000000
  70
    32
  0
VERTEX
  8
0
  5
2B57
 10
44.4041
 20
102.943
 30
0.000000
  70
    32
  0
VERTEX
  8
0
  5
2B58
 10
44.3894
 20
102.964
 30
0.000000
  70
    32
  0
VERTEX
  8
0
  5
2B59
 10
44.3744
 20
102.986
 30
0.000000
  70
    32
  0
VERTEX
  8
0
  5
2B5A
 10
44.3591
 20
103.007
 30
0.000000
  70
    32
  0
VERTEX
  8
0
  5
2B5B
 10
44.3434
 20
103.028
 30
0.000000
  70
    32
  0
VERTEX
  8
0
  5
2B5C
 10
44.3274
 20
103.049
 30
0.000000
  70
    32
  0
VERTEX
  8
0
  5
2B5D
 10
44.3111
 20
103.070
 30
0.000000
  70
    32
  0
VERTEX
  8
0
  5
2B5E
 10
44.2945
 20
103.091
 30
0.000000
  70
    32
  0
VERTEX
  8
0
  5
2B5F
 10
44.2776
 20
103.111
 30
0.000000
  70
    32
  0
VERTEX
  8
0
  5
2B60
 10
44.2603
 20
103.131
 30
0.000000
  70
    32
  0
VERTEX
  8
0
  5
2B61
 10
44.2427
 20
103.152
 30
0.000000
  70
    32
  0
VERTEX
  8
0
  5
2B62
 10
44.2249
 20
103.172
 30
0.000000
  70
    32
  0
VERTEX
  8
0
  5
2B63
 10
44.2067
 20
103.191
 30
0.000000
  70
    32
  0
VERTEX
  8
0
  5
2B64
 10
44.1882
 20
103.211
 30
0.000000
  70
    32
  0
VERTEX
  8
0
  5
2B65
 10
44.1694
 20
103.230
 30
0.000000
  70
    32
  0
VERTEX
  8
0
  5
2B66
 10
44.1503
 20
103.250
 30
0.000000
  70
    32
  0
VERTEX
  8
0
  5
2B67
 10
44.1310
 20
103.269
 30
0.000000
  70
    32
  0
VERTEX
  8
0
  5
2B68
 10
44.1113
 20
103.288
 30
0.000000
  70
    32
  0
VERTEX
  8
0
  5
2B69
 10
44.0913
 20
103.306
 30
0.000000
  70
    32
  0
VERTEX
  8
0
  5
2B6A
 10
44.0711
 20
103.325
 30
0.000000
  70
    32
  0
VERTEX
  8
0
  5
2B6B
 10
44.0505
 20
103.343
 30
0.000000
  70
    32
  0
VERTEX
  8
0
  5
2B6C
 10
44.0297
 20
103.361
 30
0.000000
  70
    32
  0
VERTEX
  8
0
  5
2B6D
 10
44.0087
 20
103.379
 30
0.000000
  70
    32
  0
VERTEX
  8
0
  5
2B6E
 10
43.9873
 20
103.397
 30
0.000000
  70
    32
  0
VERTEX
  8
0
  5
2B6F
 10
43.9657
 20
103.414
 30
0.000000
  70
    32
  0
VERTEX
  8
0
  5
2B70
 10
43.9438
 20
103.431
 30
0.000000
  70
    32
  0
VERTEX
  8
0
  5
2B71
 10
43.9216
 20
103.448
 30
0.000000
  70
    32
  0
VERTEX
  8
0
  5
2B72
 10
43.8992
 20
103.465
 30
0.000000
  70
    32
  0
VERTEX
  8
0
  5
2B73
 10
43.8765
 20
103.482
 30
0.000000
  70
    32
  0
VERTEX
  8
0
  5
2B74
 10
43.8536
 20
103.498
 30
0.000000
  70
    32
  0
VERTEX
  8
0
  5
2B75
 10
43.8304
 20
103.514
 30
0.000000
  70
    32
  0
VERTEX
  8
0
  5
2B76
 10
43.8070
 20
103.530
 30
0.000000
  70
    32
  0
VERTEX
  8
0
  5
2B77
 10
43.7833
 20
103.546
 30
0.000000
  70
    32
  0
VERTEX
  8
0
  5
2B78
 10
43.7594
 20
103.561
 30
0.000000
  70
    32
  0
VERTEX
  8
0
  5
2B79
 10
43.7352
 20
103.577
 30
0.000000
  70
    32
  0
VERTEX
  8
0
  5
2B7A
 10
43.7109
 20
103.592
 30
0.000000
  70
    32
  0
VERTEX
  8
0
  5
2B7B
 10
43.6863
 20
103.606
 30
0.000000
  70
    32
  0
VERTEX
  8
0
  5
2B7C
 10
43.6614
 20
103.621
 30
0.000000
  70
    32
  0
VERTEX
  8
0
  5
2B7D
 10
43.6364
 20
103.635
 30
0.000000
  70
    32
  0
VERTEX
  8
0
  5
2B7E
 10
43.6111
 20
103.649
 30
0.000000
  70
    32
  0
VERTEX
  8
0
  5
2B7F
 10
43.5856
 20
103.663
 30
0.000000
  70
    32
  0
VERTEX
  8
0
  5
2B80
 10
43.5599
 20
103.676
 30
0.000000
  70
    32
  0
VERTEX
  8
0
  5
2B81
 10
43.5340
 20
103.690
 30
0.000000
  70
    32
  0
VERTEX
  8
0
  5
2B82
 10
43.5079
 20
103.703
 30
0.000000
  70
    32
  0
VERTEX
  8
0
  5
2B83
 10
43.4816
 20
103.715
 30
0.000000
  70
    32
  0
VERTEX
  8
0
  5
2B84
 10
43.4551
 20
103.728
 30
0.000000
  70
    32
  0
VERTEX
  8
0
  5
2B85
 10
43.4284
 20
103.740
 30
0.000000
  70
    32
  0
VERTEX
  8
0
  5
2B86
 10
43.4016
 20
103.752
 30
0.000000
  70
    32
  0
VERTEX
  8
0
  5
2B87
 10
43.3745
 20
103.764
 30
0.000000
  70
    32
  0
VERTEX
  8
0
  5
2B88
 10
43.3473
 20
103.775
 30
0.000000
  70
    32
  0
VERTEX
  8
0
  5
2B89
 10
43.3199
 20
103.786
 30
0.000000
  70
    32
  0
VERTEX
  8
0
  5
2B8A
 10
43.2923
 20
103.797
 30
0.000000
  70
    32
  0
VERTEX
  8
0
  5
2B8B
 10
43.2646
 20
103.808
 30
0.000000
  70
    32
  0
VERTEX
  8
0
  5
2B8C
 10
43.2367
 20
103.818
 30
0.000000
  70
    32
  0
VERTEX
  8
0
  5
2B8D
 10
43.2086
 20
103.828
 30
0.000000
  70
    32
  0
VERTEX
  8
0
  5
2B8E
 10
43.1804
 20
103.838
 30
0.000000
  70
    32
  0
VERTEX
  8
0
  5
2B8F
 10
43.1520
 20
103.848
 30
0.000000
  70
    32
  0
VERTEX
  8
0
  5
2B90
 10
43.1235
 20
103.857
 30
0.000000
  70
    32
  0
VERTEX
  8
0
  5
2B91
 10
43.0949
 20
103.866
 30
0.000000
  70
    32
  0
VERTEX
  8
0
  5
2B92
 10
43.0661
 20
103.875
 30
0.000000
  70
    32
  0
VERTEX
  8
0
  5
2B93
 10
43.0372
 20
103.883
 30
0.000000
  70
    32
  0
VERTEX
  8
0
  5
2B94
 10
43.0081
 20
103.891
 30
0.000000
  70
    32
  0
VERTEX
  8
0
  5
2B95
 10
42.9790
 20
103.899
 30
0.000000
  70
    32
  0
VERTEX
  8
0
  5
2B96
 10
42.9497
 20
103.907
 30
0.000000
  70
    32
  0
VERTEX
  8
0
  5
2B97
 10
42.9203
 20
103.914
 30
0.000000
  70
    32
  0
VERTEX
  8
0
  5
2B98
 10
42.8908
 20
103.921
 30
0.000000
  70
    32
  0
VERTEX
  8
0
  5
2B99
 10
42.8612
 20
103.928
 30
0.000000
  70
    32
  0
VERTEX
  8
0
  5
2B9A
 10
42.8315
 20
103.934
 30
0.000000
  70
    32
  0
VERTEX
  8
0
  5
2B9B
 10
42.8016
 20
103.940
 30
0.000000
  70
    32
  0
VERTEX
  8
0
  5
2B9C
 10
42.7717
 20
103.946
 30
0.000000
  70
    32
  0
VERTEX
  8
0
  5
2B9D
 10
42.7418
 20
103.951
 30
0.000000
  70
    32
  0
VERTEX
  8
0
  5
2B9E
 10
42.7117
 20
103.957
 30
0.000000
  70
    32
  0
VERTEX
  8
0
  5
2B9F
 10
42.6815
 20
103.962
 30
0.000000
  70
    32
  0
VERTEX
  8
0
  5
2BA0
 10
42.6513
 20
103.966
 30
0.000000
  70
    32
  0
VERTEX
  8
0
  5
2BA1
 10
42.6210
 20
103.971
 30
0.000000
  70
    32
  0
VERTEX
  8
0
  5
2BA2
 10
42.5907
 20
103.975
 30
0.000000
  70
    32
  0
VERTEX
  8
0
  5
2BA3
 10
42.5602
 20
103.978
 30
0.000000
  70
    32
  0
VERTEX
  8
0
  5
2BA4
 10
42.5298
 20
103.982
 30
0.000000
  70
    32
  0
VERTEX
  8
0
  5
2BA5
 10
42.4993
 20
103.985
 30
0.000000
  70
    32
  0
VERTEX
  8
0
  5
2BA6
 10
42.4687
 20
103.988
 30
0.000000
  70
    32
  0
VERTEX
  8
0
  5
2BA7
 10
42.4381
 20
103.990
 30
0.000000
  70
    32
  0
VERTEX
  8
0
  5
2BA8
 10
42.4074
 20
103.993
 30
0.000000
  70
    32
  0
VERTEX
  8
0
  5
2BA9
 10
42.3767
 20
103.995
 30
0.000000
  70
    32
  0
VERTEX
  8
0
  5
2BAA
 10
42.3460
 20
103.996
 30
0.000000
  70
    32
  0
VERTEX
  8
0
  5
2BAB
 10
42.3153
 20
103.998
 30
0.000000
  70
    32
  0
VERTEX
  8
0
  5
2BAC
 10
42.2846
 20
103.999
 30
0.000000
  70
    32
  0
VERTEX
  8
0
  5
2BAD
 10
42.2538
 20
103.999
 30
0.000000
  70
    32
  0
VERTEX
  8
0
  5
2BAE
 10
42.2230
 20
104.000
 30
0.000000
  70
    32
  0
VERTEX
  8
0
  5
2BAF
 10
42.1923
 20
104.000
 30
0.000000
  70
    32
  0
SEQEND
  8
0
  5
2BB0
  0
ARC
  5
270A
  8
0
 10
47.208715804266937
 20
110.9310696665968
 30
0.0
 40
1.064631737088876
 50
105.67595264568421
 51
178.60747473664679
  0
LINE
  5
270B
  8
0
 10
46.144398486289447
 20
104.0
 30
0.0
 11
46.144398486289433
 21
110.95694208956181
 31
0.0
  0
LINE
  5
270C
  8
0
 10
27.999999999999869
 20
104.0
 30
0.0
 11
46.144398486289461
 21
104.0000000000002
 31
0.0
  0
ARC
  5
270D
  8
0
 10
42.288735854722809
 20
105.26223951224929
 30
0.0
 40
4.0570165041249862
 50
306.47675052765601
 51
341.87295495833268
  0
ENDSEC
  0
EOF
