  0
SECTION
  2
HEADER
  9
$ACADVER
  1
AC1009
  9
$INSBASE
 10
0.0
 20
0.0
 30
0.0
  9
$EXTMIN
 10
0.0
 20
-2.960436562073669
 30
0.0
  9
$EXTMAX
 10
116.4870395634379
 20
160.0
 30
0.0
  9
$LIMMIN
 10
0.0
 20
0.0
  9
$LIMMAX
 10
12.0
 20
9.0
  9
$ORTHOMODE
 70
     1
  9
$REGENMODE
 70
     1
  9
$FILLMODE
 70
     1
  9
$QTEXTMODE
 70
     0
  9
$MIRRTEXT
 70
     0
  9
$DRAGMODE
 70
     2
  9
$LTSCALE
 40
10.0
  9
$OSMODE
 70
    37
  9
$ATTMODE
 70
     1
  9
$TEXTSIZE
 40
0.2
  9
$TRACEWID
 40
0.05
  9
$TEXTSTYLE
  7
STANDARD
  9
$CLAYER
  8
0
  9
$CELTYPE
  6
BYLAYER
  9
$CECOLOR
 62
   256
  9
$DIMSCALE
 40
1.0
  9
$DIMASZ
 40
0.18
  9
$DIMEXO
 40
0.0625
  9
$DIMDLI
 40
0.38
  9
$DIMRND
 40
0.0
  9
$DIMDLE
 40
0.0
  9
$DIMEXE
 40
0.18
  9
$DIMTP
 40
0.0
  9
$DIMTM
 40
0.0
  9
$DIMTXT
 40
0.18
  9
$DIMCEN
 40
0.09
  9
$DIMTSZ
 40
0.0
  9
$DIMTOL
 70
     0
  9
$DIMLIM
 70
     0
  9
$DIMTIH
 70
     1
  9
$DIMTOH
 70
     1
  9
$DIMSE1
 70
     0
  9
$DIMSE2
 70
     0
  9
$DIMTAD
 70
     0
  9
$DIMZIN
 70
     0
  9
$DIMBLK
  1

  9
$DIMASO
 70
     1
  9
$DIMSHO
 70
     1
  9
$DIMPOST
  1

  9
$DIMAPOST
  1

  9
$DIMALT
 70
     0
  9
$DIMALTD
 70
     2
  9
$DIMALTF
 40
25.399999999999999
  9
$DIMLFAC
 40
1.0
  9
$DIMTOFL
 70
     0
  9
$DIMTVP
 40
0.0
  9
$DIMTIX
 70
     0
  9
$DIMSOXD
 70
     0
  9
$DIMSAH
 70
     0
  9
$DIMBLK1
  1

  9
$DIMBLK2
  1

  9
$DIMSTYLE
  2
STANDARD
  9
$DIMCLRD
 70
     0
  9
$DIMCLRE
 70
     0
  9
$DIMCLRT
 70
     0
  9
$DIMTFAC
 40
1.0
  9
$DIMGAP
 40
0.09
  9
$LUNITS
 70
     2
  9
$LUPREC
 70
     4
  9
$SKETCHINC
 40
0.1
  9
$FILLETRAD
 40
1.5
  9
$AUNITS
 70
     0
  9
$AUPREC
 70
     0
  9
$MENU
  1
.
  9
$ELEVATION
 40
0.0
  9
$PELEVATION
 40
0.0
  9
$THICKNESS
 40
0.0
  9
$LIMCHECK
 70
     0
  9
$BLIPMODE
 70
     0
  9
$CHAMFERA
 40
0.0
  9
$CHAMFERB
 40
0.0
  9
$SKPOLY
 70
     0
  9
$TDCREATE
 40
2453083.4120647679
  9
$TDUPDATE
 40
2457497.6470889351
  9
$TDINDWG
 40
0.3371867014
  9
$TDUSRTIMER
 40
0.3371865856
  9
$USRTIMER
 70
     1
  9
$ANGBASE
 50
0.0
  9
$ANGDIR
 70
     0
  9
$PDMODE
 70
     0
  9
$PDSIZE
 40
0.0
  9
$PLINEWID
 40
0.0
  9
$COORDS
 70
     1
  9
$SPLFRAME
 70
     0
  9
$SPLINETYPE
 70
     6
  9
$SPLINESEGS
 70
     8
  9
$ATTDIA
 70
     0
  9
$ATTREQ
 70
     1
  9
$HANDLING
 70
     1
  9
$HANDSEED
  5
212B
  9
$SURFTAB1
 70
     6
  9
$SURFTAB2
 70
     6
  9
$SURFTYPE
 70
     6
  9
$SURFU
 70
     6
  9
$SURFV
 70
     6
  9
$UCSNAME
  2

  9
$UCSORG
 10
0.0
 20
0.0
 30
0.0
  9
$UCSXDIR
 10
1.0
 20
0.0
 30
0.0
  9
$UCSYDIR
 10
0.0
 20
1.0
 30
0.0
  9
$PUCSNAME
  2

  9
$PUCSORG
 10
0.0
 20
0.0
 30
0.0
  9
$PUCSXDIR
 10
1.0
 20
0.0
 30
0.0
  9
$PUCSYDIR
 10
0.0
 20
1.0
 30
0.0
  9
$USERI1
 70
     0
  9
$USERI2
 70
     1
  9
$USERI3
 70
     0
  9
$USERI4
 70
     0
  9
$USERI5
 70
     0
  9
$USERR1
 40
0.0
  9
$USERR2
 40
0.0
  9
$USERR3
 40
0.0
  9
$USERR4
 40
0.0
  9
$USERR5
 40
0.0
  9
$WORLDVIEW
 70
     1
  9
$SHADEDGE
 70
     3
  9
$SHADEDIF
 70
    70
  9
$TILEMODE
 70
     1
  9
$MAXACTVP
 70
    64
  9
$PLIMCHECK
 70
     0
  9
$PEXTMIN
 10
0.0
 20
0.0
 30
0.0
  9
$PEXTMAX
 10
0.0
 20
0.0
 30
0.0
  9
$PLIMMIN
 10
0.0
 20
0.0
  9
$PLIMMAX
 10
12.0
 20
9.0
  9
$UNITMODE
 70
     0
  9
$VISRETAIN
 70
     1
  9
$PLINEGEN
 70
     0
  9
$PSLTSCALE
 70
     1
  0
ENDSEC
  0
SECTION
  2
TABLES
  0
TABLE
  2
VPORT
 70
     1
  0
VPORT
  2
*ACTIVE
 70
     0
 10
0.0
 20
0.0
 11
1.0
 21
1.0
 12
141.30318445006671
 22
78.518930140450706
 13
0.0
 23
0.0
 14
0.5
 24
0.5
 15
0.5
 25
0.5
 16
0.0
 26
0.0
 36
1.0
 17
0.0
 27
0.0
 37
0.0
 40
164.41020484331321
 41
2.6019575856443709
 42
50.0
 43
0.0
 44
0.0
 50
0.0
 51
0.0
 71
     0
 72
  1000
 73
     1
 74
     2
 75
     0
 76
     0
 77
     0
 78
     0
  0
ENDTAB
  0
TABLE
  2
LTYPE
 70
     3
  0
LTYPE
  2
CONTINUOUS
 70
     0
  3
Solid Line
 72
    65
 73
     0
 40
0.0
  0
LTYPE
  2
CENTER
 70
     0
  3
____ _ ____ _ ____ _ ____ _ ____ _ ____ _ ____
 72
    65
 73
     4
 40
2.0
 49
1.25
 49
-0.25
 49
0.25
 49
-0.25
  0
LTYPE
  2
PHANTOM2
 70
     0
  3
___ _ _ ___ _ _ ___ _ _ ___ _ _
 72
    65
 73
     6
 40
1.25
 49
0.625
 49
-0.125
 49
0.125
 49
-0.125
 49
0.125
 49
-0.125
  0
ENDTAB
  0
TABLE
  2
LAYER
 70
     2
  0
LAYER
  2
0
 70
     0
 62
     7
  6
CONTINUOUS
  0
LAYER
  2
1
 70
     0
 62
     1
  6
CENTER
  0
ENDTAB
  0
TABLE
  2
STYLE
 70
     2
  0
STYLE
  2
STANDARD
 70
     0
 40
0.0
 41
1.0
 50
0.0
 71
     0
 42
0.2
  3
simplex.shx
  4
bigfont.shx
  0
STYLE
  2
STANDARD1
 70
     0
 40
0.0
 41
1.0
 50
0.0
 71
     0
 42
3.0
  3
txt
  4

  0
ENDTAB
  0
TABLE
  2
VIEW
 70
     0
  0
ENDTAB
  0
TABLE
  2
UCS
 70
     0
  0
ENDTAB
  0
TABLE
  2
APPID
 70
     5
  0
APPID
  2
ACAD
 70
     0
  0
APPID
  2
DCO15
 70
     0
  0
APPID
  2
ACAD_MLEADERVER
 70
     0
  0
APPID
  2
ACAD_NAV_VCDISPLAY
 70
     0
  0
APPID
  2
ACAD_EXEMPT_FROM_CAD_STANDARDS
 70
     0
  0
ENDTAB
  0
TABLE
  2
DIMSTYLE
 70
     1
  0
DIMSTYLE
  2
STANDARD
 70
     0
  3

  4

  5

  6

  7

 40
1.0
 41
0.18
 42
0.0625
 43
0.38
 44
0.18
 45
0.0
 46
0.0
 47
0.0
 48
0.0
140
0.18
141
0.09
142
0.0
143
25.399999999999999
144
1.0
145
0.0
146
1.0
147
0.09
 71
     0
 72
     0
 73
     1
 74
     1
 75
     0
 76
     0
 77
     0
 78
     0
170
     0
171
     2
172
     0
173
     0
174
     0
175
     0
176
     0
177
     0
178
     0
  0
ENDTAB
  0
ENDSEC
  0
SECTION
  2
BLOCKS
  0
BLOCK
  8
0
  2
$MODEL_SPACE
 70
     0
 10
0.0
 20
0.0
 30
0.0
  3
$MODEL_SPACE
  1

  0
ENDBLK
  5
21
  8
0
  0
BLOCK
 67
     1
  8
0
  2
$PAPER_SPACE
 70
     0
 10
0.0
 20
0.0
 30
0.0
  3
$PAPER_SPACE
  1

  0
ENDBLK
  5
5B
 67
     1
  8
0
  0
ENDSEC
  0
SECTION
  2
ENTITIES
  0
LINE
  5
13CF
  8
0
 10
27.957898029330469
 20
153.03500845081041
 30
0.0
 11
46.14401257999031
 21
153.80135922093459
 31
0.0
  0
LINE
  5
144E
  8
0
 10
44.700237415958178
 20
101.0
 30
0.0
 11
44.499999999999979
 21
101.0
 31
0.0
  0
LINE
  5
1453
  8
0
 10
47.699992510819982
 20
35.0
 30
0.0
 11
52.300007489180011
 21
35.0
 31
0.0
  0
LINE
  5
1456
  8
0
 10
52.74999999999995
 20
114.0
 30
0.0
 11
47.249999999999943
 21
114.0
 31
0.0
  0
LINE
  5
1469
  8
0
 10
44.499999999999979
 20
82.0
 30
0.0
 11
55.499999999999972
 21
82.0
 31
0.0
  0
LINE
  5
146B
  8
0
 10
44.499999999999979
 20
83.650999999999897
 30
0.0
 11
55.499999999999972
 21
83.650999999999897
 31
0.0
  0
LINE
  5
147B
  8
0
 10
46.749999999999943
 20
113.5
 30
0.0
 11
46.749999999999943
 21
110.9510884613921
 31
0.0
  0
LINE
  5
1485
  8
1
 10
50.0
 20
30.0
 30
0.0
 11
49.999999999999972
 21
119.0
 31
0.0
  0
LINE
  5
148A
  8
0
 10
46.999999999999972
 20
37.0
 30
0.0
 11
53.000000000000028
 21
37.0
 31
0.0
  0
ARC
  5
1493
  8
0
 10
47.699999962639978
 20
41.02534145845933
 30
0.0
 40
1.1999999999999991
 50
125.6870447874476
 51
234.3125261138652
  0
LINE
  5
1499
  8
0
 10
47.00001142360216
 20
40.050693038621738
 30
0.0
 11
47.0
 21
36.999999999999993
 31
0.0
  0
ARC
  5
14A8
  8
0
 10
44.636580974263673
 20
41.025352879588922
 30
0.0
 40
2.5565142859867969
 50
337.58901949324479
 51
22.41055140806931
  0
LINE
  5
14BC
  8
0
 10
47.0
 20
36.999999999999993
 30
0.0
 11
47.699992510819982
 21
35.0
 31
0.0
  0
LINE
  5
14C3
  8
0
 10
47.000016669416539
 20
42.00000000000319
 30
0.0
 11
47.00001666941656
 21
82.0
 31
0.0
  0
LINE
  5
14C4
  8
0
 10
52.999983330583461
 20
42.00000000000319
 30
0.0
 11
52.99998333058344
 21
82.0
 31
0.0
  0
ARC
  5
14C5
  8
0
 10
55.363419025736327
 20
41.025352879588922
 30
0.0
 40
2.5565142859867969
 50
157.58944859193059
 51
202.41098050675521
  0
LINE
  5
14C6
  8
0
 10
52.99998857639784
 20
40.050693038621738
 30
0.0
 11
53.0
 21
36.999999999999993
 31
0.0
  0
LINE
  5
14C8
  8
0
 10
53.0
 20
36.999999999999993
 30
0.0
 11
52.300007489180011
 21
35.0
 31
0.0
  0
ARC
  5
14CF
  8
0
 10
40.132704598304848
 20
97.699056897457297
 30
0.0
 40
5.4744401076175517
 50
37.083167419833003
 51
75.536697528207597
  0
ARC
  5
14E1
  8
0
 10
50.000000000106581
 20
3.0
 30
0.0
 40
108.0
 50
78.134937542536775
 51
101.86506245757479
  0
LINE
  5
14E3
  8
0
 10
27.0
 20
104.0
 30
0.0
 11
27.0
 21
107.7138959259721
 31
0.0
  0
ARC
  5
14E4
  8
0
 10
28.0
 20
104.0
 30
0.0
 40
1.0
 50
180.0
 51
270.0
  0
ARC
  5
14E5
  8
0
 10
28.000000000000028
 20
107.7138959259721
 30
0.0
 40
1.0
 50
101.8650624575735
 51
180.0
  0
ARC
  5
14E6
  8
0
 10
72.000000000000085
 20
107.7138959259721
 30
0.0
 40
1.0
 50
0.0
 51
78.134937542426457
  0
ARC
  5
14E7
  8
0
 10
72.000000000000057
 20
104.0
 30
0.0
 40
1.0
 50
270.0
 51
0.0
  0
LINE
  5
14E8
  8
0
 10
73.000000000000057
 20
104.0
 30
0.0
 11
73.000000000000028
 21
107.7138959259721
 31
0.0
  0
POLYLINE
  5
14EB
  8
0
 10
55.299762513678196
 20
100.9999999999999
 30
0.0
 66
     1
 70
     8
  0
VERTEX
  8
0
  5
1E1F
 10
55.2998
 20
101.000
 30
0.000000
  70
    32
  0
VERTEX
  8
0
  5
1E20
 10
55.3000
 20
101.025
 30
0.000000
  70
    32
  0
VERTEX
  8
0
  5
1E21
 10
55.3005
 20
101.049
 30
0.000000
  70
    32
  0
VERTEX
  8
0
  5
1E22
 10
55.3015
 20
101.074
 30
0.000000
  70
    32
  0
VERTEX
  8
0
  5
1E23
 10
55.3028
 20
101.098
 30
0.000000
  70
    32
  0
VERTEX
  8
0
  5
1E24
 10
55.3045
 20
101.123
 30
0.000000
  70
    32
  0
VERTEX
  8
0
  5
1E25
 10
55.3066
 20
101.147
 30
0.000000
  70
    32
  0
VERTEX
  8
0
  5
1E26
 10
55.3090
 20
101.172
 30
0.000000
  70
    32
  0
VERTEX
  8
0
  5
1E27
 10
55.3118
 20
101.196
 30
0.000000
  70
    32
  0
VERTEX
  8
0
  5
1E28
 10
55.3150
 20
101.220
 30
0.000000
  70
    32
  0
VERTEX
  8
0
  5
1E29
 10
55.3186
 20
101.245
 30
0.000000
  70
    32
  0
VERTEX
  8
0
  5
1E2A
 10
55.3226
 20
101.269
 30
0.000000
  70
    32
  0
VERTEX
  8
0
  5
1E2B
 10
55.3269
 20
101.293
 30
0.000000
  70
    32
  0
VERTEX
  8
0
  5
1E2C
 10
55.3316
 20
101.318
 30
0.000000
  70
    32
  0
VERTEX
  8
0
  5
1E2D
 10
55.3367
 20
101.342
 30
0.000000
  70
    32
  0
VERTEX
  8
0
  5
1E2E
 10
55.3421
 20
101.366
 30
0.000000
  70
    32
  0
VERTEX
  8
0
  5
1E2F
 10
55.3480
 20
101.390
 30
0.000000
  70
    32
  0
VERTEX
  8
0
  5
1E30
 10
55.3541
 20
101.414
 30
0.000000
  70
    32
  0
VERTEX
  8
0
  5
1E31
 10
55.3607
 20
101.438
 30
0.000000
  70
    32
  0
VERTEX
  8
0
  5
1E32
 10
55.3676
 20
101.462
 30
0.000000
  70
    32
  0
VERTEX
  8
0
  5
1E33
 10
55.3749
 20
101.486
 30
0.000000
  70
    32
  0
VERTEX
  8
0
  5
1E34
 10
55.3826
 20
101.510
 30
0.000000
  70
    32
  0
VERTEX
  8
0
  5
1E35
 10
55.3906
 20
101.533
 30
0.000000
  70
    32
  0
VERTEX
  8
0
  5
1E36
 10
55.3990
 20
101.557
 30
0.000000
  70
    32
  0
VERTEX
  8
0
  5
1E37
 10
55.4078
 20
101.581
 30
0.000000
  70
    32
  0
VERTEX
  8
0
  5
1E38
 10
55.4169
 20
101.604
 30
0.000000
  70
    32
  0
VERTEX
  8
0
  5
1E39
 10
55.4263
 20
101.627
 30
0.000000
  70
    32
  0
VERTEX
  8
0
  5
1E3A
 10
55.4362
 20
101.651
 30
0.000000
  70
    32
  0
VERTEX
  8
0
  5
1E3B
 10
55.4464
 20
101.674
 30
0.000000
  70
    32
  0
VERTEX
  8
0
  5
1E3C
 10
55.4569
 20
101.697
 30
0.000000
  70
    32
  0
VERTEX
  8
0
  5
1E3D
 10
55.4678
 20
101.720
 30
0.000000
  70
    32
  0
VERTEX
  8
0
  5
1E3E
 10
55.4791
 20
101.743
 30
0.000000
  70
    32
  0
VERTEX
  8
0
  5
1E3F
 10
55.4907
 20
101.765
 30
0.000000
  70
    32
  0
VERTEX
  8
0
  5
1E40
 10
55.5026
 20
101.788
 30
0.000000
  70
    32
  0
VERTEX
  8
0
  5
1E41
 10
55.5149
 20
101.810
 30
0.000000
  70
    32
  0
VERTEX
  8
0
  5
1E42
 10
55.5276
 20
101.833
 30
0.000000
  70
    32
  0
VERTEX
  8
0
  5
1E43
 10
55.5406
 20
101.855
 30
0.000000
  70
    32
  0
VERTEX
  8
0
  5
1E44
 10
55.5539
 20
101.877
 30
0.000000
  70
    32
  0
VERTEX
  8
0
  5
1E45
 10
55.5676
 20
101.899
 30
0.000000
  70
    32
  0
VERTEX
  8
0
  5
1E46
 10
55.5816
 20
101.921
 30
0.000000
  70
    32
  0
VERTEX
  8
0
  5
1E47
 10
55.5959
 20
101.943
 30
0.000000
  70
    32
  0
VERTEX
  8
0
  5
1E48
 10
55.6106
 20
101.964
 30
0.000000
  70
    32
  0
VERTEX
  8
0
  5
1E49
 10
55.6256
 20
101.986
 30
0.000000
  70
    32
  0
VERTEX
  8
0
  5
1E4A
 10
55.6409
 20
102.007
 30
0.000000
  70
    32
  0
VERTEX
  8
0
  5
1E4B
 10
55.6566
 20
102.028
 30
0.000000
  70
    32
  0
VERTEX
  8
0
  5
1E4C
 10
55.6726
 20
102.049
 30
0.000000
  70
    32
  0
VERTEX
  8
0
  5
1E4D
 10
55.6889
 20
102.070
 30
0.000000
  70
    32
  0
VERTEX
  8
0
  5
1E4E
 10
55.7055
 20
102.091
 30
0.000000
  70
    32
  0
VERTEX
  8
0
  5
1E4F
 10
55.7224
 20
102.111
 30
0.000000
  70
    32
  0
VERTEX
  8
0
  5
1E50
 10
55.7397
 20
102.131
 30
0.000000
  70
    32
  0
VERTEX
  8
0
  5
1E51
 10
55.7573
 20
102.152
 30
0.000000
  70
    32
  0
VERTEX
  8
0
  5
1E52
 10
55.7751
 20
102.172
 30
0.000000
  70
    32
  0
VERTEX
  8
0
  5
1E53
 10
55.7933
 20
102.191
 30
0.000000
  70
    32
  0
VERTEX
  8
0
  5
1E54
 10
55.8118
 20
102.211
 30
0.000000
  70
    32
  0
VERTEX
  8
0
  5
1E55
 10
55.8306
 20
102.230
 30
0.000000
  70
    32
  0
VERTEX
  8
0
  5
1E56
 10
55.8497
 20
102.250
 30
0.000000
  70
    32
  0
VERTEX
  8
0
  5
1E57
 10
55.8690
 20
102.269
 30
0.000000
  70
    32
  0
VERTEX
  8
0
  5
1E58
 10
55.8887
 20
102.288
 30
0.000000
  70
    32
  0
VERTEX
  8
0
  5
1E59
 10
55.9087
 20
102.306
 30
0.000000
  70
    32
  0
VERTEX
  8
0
  5
1E5A
 10
55.9289
 20
102.325
 30
0.000000
  70
    32
  0
VERTEX
  8
0
  5
1E5B
 10
55.9495
 20
102.343
 30
0.000000
  70
    32
  0
VERTEX
  8
0
  5
1E5C
 10
55.9703
 20
102.361
 30
0.000000
  70
    32
  0
VERTEX
  8
0
  5
1E5D
 10
55.9913
 20
102.379
 30
0.000000
  70
    32
  0
VERTEX
  8
0
  5
1E5E
 10
56.0127
 20
102.397
 30
0.000000
  70
    32
  0
VERTEX
  8
0
  5
1E5F
 10
56.0343
 20
102.414
 30
0.000000
  70
    32
  0
VERTEX
  8
0
  5
1E60
 10
56.0562
 20
102.431
 30
0.000000
  70
    32
  0
VERTEX
  8
0
  5
1E61
 10
56.0784
 20
102.448
 30
0.000000
  70
    32
  0
VERTEX
  8
0
  5
1E62
 10
56.1008
 20
102.465
 30
0.000000
  70
    32
  0
VERTEX
  8
0
  5
1E63
 10
56.1235
 20
102.482
 30
0.000000
  70
    32
  0
VERTEX
  8
0
  5
1E64
 10
56.1464
 20
102.498
 30
0.000000
  70
    32
  0
VERTEX
  8
0
  5
1E65
 10
56.1696
 20
102.514
 30
0.000000
  70
    32
  0
VERTEX
  8
0
  5
1E66
 10
56.1930
 20
102.530
 30
0.000000
  70
    32
  0
VERTEX
  8
0
  5
1E67
 10
56.2167
 20
102.546
 30
0.000000
  70
    32
  0
VERTEX
  8
0
  5
1E68
 10
56.2406
 20
102.561
 30
0.000000
  70
    32
  0
VERTEX
  8
0
  5
1E69
 10
56.2648
 20
102.577
 30
0.000000
  70
    32
  0
VERTEX
  8
0
  5
1E6A
 10
56.2891
 20
102.592
 30
0.000000
  70
    32
  0
VERTEX
  8
0
  5
1E6B
 10
56.3137
 20
102.606
 30
0.000000
  70
    32
  0
VERTEX
  8
0
  5
1E6C
 10
56.3386
 20
102.621
 30
0.000000
  70
    32
  0
VERTEX
  8
0
  5
1E6D
 10
56.3636
 20
102.635
 30
0.000000
  70
    32
  0
VERTEX
  8
0
  5
1E6E
 10
56.3889
 20
102.649
 30
0.000000
  70
    32
  0
VERTEX
  8
0
  5
1E6F
 10
56.4144
 20
102.663
 30
0.000000
  70
    32
  0
VERTEX
  8
0
  5
1E70
 10
56.4401
 20
102.676
 30
0.000000
  70
    32
  0
VERTEX
  8
0
  5
1E71
 10
56.4660
 20
102.690
 30
0.000000
  70
    32
  0
VERTEX
  8
0
  5
1E72
 10
56.4921
 20
102.703
 30
0.000000
  70
    32
  0
VERTEX
  8
0
  5
1E73
 10
56.5184
 20
102.715
 30
0.000000
  70
    32
  0
VERTEX
  8
0
  5
1E74
 10
56.5449
 20
102.728
 30
0.000000
  70
    32
  0
VERTEX
  8
0
  5
1E75
 10
56.5716
 20
102.740
 30
0.000000
  70
    32
  0
VERTEX
  8
0
  5
1E76
 10
56.5984
 20
102.752
 30
0.000000
  70
    32
  0
VERTEX
  8
0
  5
1E77
 10
56.6255
 20
102.764
 30
0.000000
  70
    32
  0
VERTEX
  8
0
  5
1E78
 10
56.6527
 20
102.775
 30
0.000000
  70
    32
  0
VERTEX
  8
0
  5
1E79
 10
56.6801
 20
102.786
 30
0.000000
  70
    32
  0
VERTEX
  8
0
  5
1E7A
 10
56.7077
 20
102.797
 30
0.000000
  70
    32
  0
VERTEX
  8
0
  5
1E7B
 10
56.7354
 20
102.808
 30
0.000000
  70
    32
  0
VERTEX
  8
0
  5
1E7C
 10
56.7633
 20
102.818
 30
0.000000
  70
    32
  0
VERTEX
  8
0
  5
1E7D
 10
56.7914
 20
102.828
 30
0.000000
  70
    32
  0
VERTEX
  8
0
  5
1E7E
 10
56.8196
 20
102.838
 30
0.000000
  70
    32
  0
VERTEX
  8
0
  5
1E7F
 10
56.8480
 20
102.848
 30
0.000000
  70
    32
  0
VERTEX
  8
0
  5
1E80
 10
56.8765
 20
102.857
 30
0.000000
  70
    32
  0
VERTEX
  8
0
  5
1E81
 10
56.9051
 20
102.866
 30
0.000000
  70
    32
  0
VERTEX
  8
0
  5
1E82
 10
56.9339
 20
102.875
 30
0.000000
  70
    32
  0
VERTEX
  8
0
  5
1E83
 10
56.9628
 20
102.883
 30
0.000000
  70
    32
  0
VERTEX
  8
0
  5
1E84
 10
56.9919
 20
102.891
 30
0.000000
  70
    32
  0
VERTEX
  8
0
  5
1E85
 10
57.0210
 20
102.899
 30
0.000000
  70
    32
  0
VERTEX
  8
0
  5
1E86
 10
57.0503
 20
102.907
 30
0.000000
  70
    32
  0
VERTEX
  8
0
  5
1E87
 10
57.0797
 20
102.914
 30
0.000000
  70
    32
  0
VERTEX
  8
0
  5
1E88
 10
57.1092
 20
102.921
 30
0.000000
  70
    32
  0
VERTEX
  8
0
  5
1E89
 10
57.1388
 20
102.928
 30
0.000000
  70
    32
  0
VERTEX
  8
0
  5
1E8A
 10
57.1685
 20
102.934
 30
0.000000
  70
    32
  0
VERTEX
  8
0
  5
1E8B
 10
57.1984
 20
102.940
 30
0.000000
  70
    32
  0
VERTEX
  8
0
  5
1E8C
 10
57.2283
 20
102.946
 30
0.000000
  70
    32
  0
VERTEX
  8
0
  5
1E8D
 10
57.2582
 20
102.951
 30
0.000000
  70
    32
  0
VERTEX
  8
0
  5
1E8E
 10
57.2883
 20
102.957
 30
0.000000
  70
    32
  0
VERTEX
  8
0
  5
1E8F
 10
57.3185
 20
102.962
 30
0.000000
  70
    32
  0
VERTEX
  8
0
  5
1E90
 10
57.3487
 20
102.966
 30
0.000000
  70
    32
  0
VERTEX
  8
0
  5
1E91
 10
57.3790
 20
102.971
 30
0.000000
  70
    32
  0
VERTEX
  8
0
  5
1E92
 10
57.4093
 20
102.975
 30
0.000000
  70
    32
  0
VERTEX
  8
0
  5
1E93
 10
57.4398
 20
102.978
 30
0.000000
  70
    32
  0
VERTEX
  8
0
  5
1E94
 10
57.4702
 20
102.982
 30
0.000000
  70
    32
  0
VERTEX
  8
0
  5
1E95
 10
57.5007
 20
102.985
 30
0.000000
  70
    32
  0
VERTEX
  8
0
  5
1E96
 10
57.5313
 20
102.988
 30
0.000000
  70
    32
  0
VERTEX
  8
0
  5
1E97
 10
57.5619
 20
102.990
 30
0.000000
  70
    32
  0
VERTEX
  8
0
  5
1E98
 10
57.5926
 20
102.993
 30
0.000000
  70
    32
  0
VERTEX
  8
0
  5
1E99
 10
57.6233
 20
102.995
 30
0.000000
  70
    32
  0
VERTEX
  8
0
  5
1E9A
 10
57.6540
 20
102.996
 30
0.000000
  70
    32
  0
VERTEX
  8
0
  5
1E9B
 10
57.6847
 20
102.998
 30
0.000000
  70
    32
  0
VERTEX
  8
0
  5
1E9C
 10
57.7154
 20
102.999
 30
0.000000
  70
    32
  0
VERTEX
  8
0
  5
1E9D
 10
57.7462
 20
102.999
 30
0.000000
  70
    32
  0
VERTEX
  8
0
  5
1E9E
 10
57.7770
 20
103.000
 30
0.000000
  70
    32
  0
VERTEX
  8
0
  5
1E9F
 10
57.8077
 20
103.000
 30
0.000000
  70
    32
  0
SEQEND
  8
0
  5
1EA0
  0
ARC
  5
14EC
  8
0
 10
59.867295401695308
 20
97.699056897456984
 30
0.0
 40
5.4744401076179043
 50
104.4633024717929
 51
142.9168325801655
  0
LINE
  5
14ED
  8
0
 10
72.000000000000057
 20
103.0
 30
0.0
 11
53.855987420009633
 21
103.0
 31
0.0
  0
LINE
  5
14EE
  8
0
 10
55.299762584041837
 20
101.0
 30
0.0
 11
55.499999999999979
 21
101.0
 31
0.0
  0
LINE
  5
14F9
  8
0
 10
53.249999999999943
 20
113.5
 30
0.0
 11
46.749999999999943
 21
113.5
 31
0.0
  0
ARC
  5
14FB
  8
0
 10
47.249999999999943
 20
113.5
 30
0.0
 40
0.5
 50
90.0
 51
180.0000000000006
  0
ARC
  5
14FF
  8
0
 10
52.74999999999995
 20
113.5
 30
0.0
 40
0.5
 50
359.99999999999932
 51
90.0
  0
LINE
  5
1500
  8
0
 10
53.249999999999943
 20
113.5
 30
0.0
 11
53.249999999999943
 21
110.9510884613921
 31
0.0
  0
LINE
  5
151D
  8
0
 10
105.96499154918961
 20
103.0
 30
0.0
 11
111.0350084508103
 21
103.0
 31
0.0
  0
LINE
  5
153B
  8
0
 10
105.9649915491897
 20
108.6925304673796
 30
0.0
 11
111.0350084508103
 21
108.6925304673795
 31
0.0
  0
LINE
  5
1546
  8
0
 10
112.1555749250759
 20
100.99999999999849
 30
0.0
 11
104.844425074924
 21
100.99999999999849
 31
0.0
  0
LINE
  5
166D
  8
0
 10
111.5
 20
36.999999999999972
 30
0.0
 11
110.80000748918
 21
34.999999999999993
 31
0.0
  0
LINE
  5
1671
  8
0
 10
111.4999833305834
 20
36.999999999999993
 30
0.0
 11
111.4999833305834
 21
82.0
 31
0.0
  0
LINE
  5
1672
  8
0
 10
105.5000166694165
 20
36.999999999999993
 30
0.0
 11
105.5000166694165
 21
82.0
 31
0.0
  0
LINE
  5
1673
  8
0
 10
105.5
 20
36.999999999999972
 30
0.0
 11
106.1999925108199
 21
34.999999999999993
 31
0.0
  0
LINE
  5
1677
  8
0
 10
105.4999999999999
 20
36.999999999999993
 30
0.0
 11
111.5
 21
36.999999999999993
 31
0.0
  0
LINE
  5
1678
  8
1
 10
108.5
 20
29.999999999999989
 30
0.0
 11
108.4999999999999
 21
119.0
 31
0.0
  0
LINE
  5
167D
  8
0
 10
103.0
 20
83.650999999999868
 30
0.0
 11
114.0
 21
83.650999999999868
 31
0.0
  0
LINE
  5
167E
  8
0
 10
103.0
 20
81.999999999999986
 30
0.0
 11
114.0
 21
81.999999999999986
 31
0.0
  0
LINE
  5
167F
  8
0
 10
106.1999925108199
 20
34.999999999999993
 30
0.0
 11
110.80000748918
 21
34.999999999999993
 31
0.0
  0
CIRCLE
  5
1683
  8
0
 10
108.5
 20
41.025345951970273
 30
0.0
 40
0.9746577923781387
  0
LINE
  5
1685
  8
0
 10
111.7499999999999
 20
113.5
 30
0.0
 11
111.7499999999999
 21
111.0
 31
0.0
  0
ARC
  5
1686
  8
0
 10
111.2499999999999
 20
113.5
 30
0.0
 40
0.5
 50
359.99999999999932
 51
90.0
  0
LINE
  5
1687
  8
0
 10
111.7499999999999
 20
113.5
 30
0.0
 11
105.2499999999999
 21
113.5
 31
0.0
  0
LINE
  5
1688
  8
0
 10
111.2499999999999
 20
114.0
 30
0.0
 11
105.7499999999999
 21
114.0
 31
0.0
  0
ARC
  5
1689
  8
0
 10
105.7499999999999
 20
113.5
 30
0.0
 40
0.5
 50
90.0
 51
180.0000000000006
  0
LINE
  5
168A
  8
0
 10
105.2499999999999
 20
113.5
 30
0.0
 11
105.2499999999999
 21
111.0
 31
0.0
  0
LINE
  5
168D
  8
1
 10
21.999999999999972
 20
149.5
 30
0.0
 11
77.999999999999972
 21
149.49999999999989
 31
0.0
  0
LINE
  5
168E
  8
1
 10
49.999999999999972
 20
139.0
 30
0.0
 11
49.999999999999972
 21
160.0
 31
0.0
  0
LINE
  5
1694
  8
0
 10
26.999999999999972
 20
146.96410486812081
 30
0.0
 11
26.999999999999972
 21
152.03589513187919
 31
0.0
  0
ARC
  5
1695
  8
0
 10
27.999999999999972
 20
152.03589513187919
 30
0.0
 40
1.0
 50
92.412978451483923
 51
180.0
  0
ARC
  5
169C
  8
0
 10
27.999999999999972
 20
146.96410486812081
 30
0.0
 40
1.0
 50
180.0
 51
267.58702154851602
  0
LINE
  5
169D
  8
0
 10
27.957898029330469
 20
145.96499154918959
 30
0.0
 11
46.14401257999031
 21
145.1986407790653
 31
0.0
  0
LINE
  5
16A8
  8
0
 10
72.042101970669478
 20
145.96499154918959
 30
0.0
 11
53.855987420009647
 21
145.19864077906541
 31
0.0
  0
ARC
  5
16A9
  8
0
 10
71.999999999999972
 20
146.96410486812081
 30
0.0
 40
1.0
 50
272.41297845148398
 51
0.0
  0
LINE
  5
16AA
  8
0
 10
72.999999999999972
 20
146.96410486812081
 30
0.0
 11
72.999999999999972
 21
152.03589513187919
 31
0.0
  0
ARC
  5
16AB
  8
0
 10
71.999999999999972
 20
152.03589513187919
 30
0.0
 40
1.0
 50
0.0
 51
87.587021548516034
  0
LINE
  5
16AC
  8
0
 10
72.042101970669478
 20
153.03500845081041
 30
0.0
 11
53.855987420009633
 21
153.80135922093459
 31
0.0
  0
CIRCLE
  5
16B5
  8
0
 10
49.999999999999972
 20
149.5
 30
0.0
 40
2.7499999999999711
  0
CIRCLE
  5
16B6
  8
0
 10
49.999999999999972
 20
149.5
 30
0.0
 40
3.2499999999999711
  0
CIRCLE
  5
16B8
  8
0
 10
68.761085088233727
 20
149.5000773437169
 30
0.0
 40
1.6000000000000001
  0
CIRCLE
  5
16B9
  8
0
 10
68.761085088233727
 20
149.5000773437169
 30
0.0
 40
1.75
  0
LINE
  5
16D4
  8
0
 10
103.9999999999999
 20
111.0
 30
0.0
 11
113.0
 21
111.0
 31
0.0
  0
ARC
  5
16D6
  8
0
 10
103.9999999999999
 20
110.0
 30
0.0
 40
1.0
 50
90.0
 51
180.0
  0
ARC
  5
16D7
  8
0
 10
113.0
 20
110.0
 30
0.0
 40
1.0
 50
0.0
 51
90.0
  0
LINE
  5
1924
  8
0
 10
111.9270113598387
 20
111.0
 30
0.0
 11
105.0729886401612
 21
111.0
 31
0.0
  0
LINE
  5
1925
  8
0
 10
112.0350084508103
 20
107.6925304673795
 30
0.0
 11
112.0350084508103
 21
104.0
 31
0.0
  0
ARC
  5
1926
  8
0
 10
111.0350084508103
 20
107.6925304673795
 30
0.0
 40
1.0
 50
0.0
 51
89.999999999999474
  0
LINE
  5
1927
  8
0
 10
113.1555749250759
 20
109.5
 30
0.0
 11
113.1555749250759
 21
102.49999999999849
 31
0.0
  0
POLYLINE
  5
192B
  8
0
 10
113.1555749250759
 20
109.5
 30
0.0
 66
     1
 70
     8
  0
VERTEX
  8
0
  5
1EA1
 10
113.156
 20
109.500
 30
0.000000
  70
    32
  0
VERTEX
  8
0
  5
1EA2
 10
113.155
 20
109.518
 30
0.000000
  70
    32
  0
VERTEX
  8
0
  5
1EA3
 10
113.155
 20
109.537
 30
0.000000
  70
    32
  0
VERTEX
  8
0
  5
1EA4
 10
113.155
 20
109.555
 30
0.000000
  70
    32
  0
VERTEX
  8
0
  5
1EA5
 10
113.154
 20
109.574
 30
0.000000
  70
    32
  0
VERTEX
  8
0
  5
1EA6
 10
113.154
 20
109.592
 30
0.000000
  70
    32
  0
VERTEX
  8
0
  5
1EA7
 10
113.153
 20
109.610
 30
0.000000
  70
    32
  0
VERTEX
  8
0
  5
1EA8
 10
113.152
 20
109.629
 30
0.000000
  70
    32
  0
VERTEX
  8
0
  5
1EA9
 10
113.151
 20
109.647
 30
0.000000
  70
    32
  0
VERTEX
  8
0
  5
1EAA
 10
113.149
 20
109.665
 30
0.000000
  70
    32
  0
VERTEX
  8
0
  5
1EAB
 10
113.148
 20
109.684
 30
0.000000
  70
    32
  0
VERTEX
  8
0
  5
1EAC
 10
113.146
 20
109.702
 30
0.000000
  70
    32
  0
VERTEX
  8
0
  5
1EAD
 10
113.145
 20
109.720
 30
0.000000
  70
    32
  0
VERTEX
  8
0
  5
1EAE
 10
113.143
 20
109.738
 30
0.000000
  70
    32
  0
VERTEX
  8
0
  5
1EAF
 10
113.141
 20
109.756
 30
0.000000
  70
    32
  0
VERTEX
  8
0
  5
1EB0
 10
113.139
 20
109.775
 30
0.000000
  70
    32
  0
VERTEX
  8
0
  5
1EB1
 10
113.136
 20
109.793
 30
0.000000
  70
    32
  0
VERTEX
  8
0
  5
1EB2
 10
113.134
 20
109.811
 30
0.000000
  70
    32
  0
VERTEX
  8
0
  5
1EB3
 10
113.131
 20
109.829
 30
0.000000
  70
    32
  0
VERTEX
  8
0
  5
1EB4
 10
113.129
 20
109.847
 30
0.000000
  70
    32
  0
VERTEX
  8
0
  5
1EB5
 10
113.126
 20
109.864
 30
0.000000
  70
    32
  0
VERTEX
  8
0
  5
1EB6
 10
113.123
 20
109.882
 30
0.000000
  70
    32
  0
VERTEX
  8
0
  5
1EB7
 10
113.119
 20
109.900
 30
0.000000
  70
    32
  0
VERTEX
  8
0
  5
1EB8
 10
113.116
 20
109.918
 30
0.000000
  70
    32
  0
VERTEX
  8
0
  5
1EB9
 10
113.113
 20
109.935
 30
0.000000
  70
    32
  0
VERTEX
  8
0
  5
1EBA
 10
113.109
 20
109.953
 30
0.000000
  70
    32
  0
VERTEX
  8
0
  5
1EBB
 10
113.105
 20
109.971
 30
0.000000
  70
    32
  0
VERTEX
  8
0
  5
1EBC
 10
113.101
 20
109.988
 30
0.000000
  70
    32
  0
VERTEX
  8
0
  5
1EBD
 10
113.097
 20
110.005
 30
0.000000
  70
    32
  0
VERTEX
  8
0
  5
1EBE
 10
113.093
 20
110.023
 30
0.000000
  70
    32
  0
VERTEX
  8
0
  5
1EBF
 10
113.089
 20
110.040
 30
0.000000
  70
    32
  0
VERTEX
  8
0
  5
1EC0
 10
113.084
 20
110.057
 30
0.000000
  70
    32
  0
VERTEX
  8
0
  5
1EC1
 10
113.079
 20
110.074
 30
0.000000
  70
    32
  0
VERTEX
  8
0
  5
1EC2
 10
113.075
 20
110.091
 30
0.000000
  70
    32
  0
VERTEX
  8
0
  5
1EC3
 10
113.070
 20
110.108
 30
0.000000
  70
    32
  0
VERTEX
  8
0
  5
1EC4
 10
113.065
 20
110.125
 30
0.000000
  70
    32
  0
VERTEX
  8
0
  5
1EC5
 10
113.060
 20
110.141
 30
0.000000
  70
    32
  0
VERTEX
  8
0
  5
1EC6
 10
113.054
 20
110.158
 30
0.000000
  70
    32
  0
VERTEX
  8
0
  5
1EC7
 10
113.049
 20
110.174
 30
0.000000
  70
    32
  0
VERTEX
  8
0
  5
1EC8
 10
113.043
 20
110.191
 30
0.000000
  70
    32
  0
VERTEX
  8
0
  5
1EC9
 10
113.037
 20
110.207
 30
0.000000
  70
    32
  0
VERTEX
  8
0
  5
1ECA
 10
113.032
 20
110.223
 30
0.000000
  70
    32
  0
VERTEX
  8
0
  5
1ECB
 10
113.026
 20
110.239
 30
0.000000
  70
    32
  0
VERTEX
  8
0
  5
1ECC
 10
113.020
 20
110.255
 30
0.000000
  70
    32
  0
VERTEX
  8
0
  5
1ECD
 10
113.013
 20
110.271
 30
0.000000
  70
    32
  0
VERTEX
  8
0
  5
1ECE
 10
113.007
 20
110.287
 30
0.000000
  70
    32
  0
VERTEX
  8
0
  5
1ECF
 10
113.000
 20
110.302
 30
0.000000
  70
    32
  0
VERTEX
  8
0
  5
1ED0
 10
112.994
 20
110.318
 30
0.000000
  70
    32
  0
VERTEX
  8
0
  5
1ED1
 10
112.987
 20
110.333
 30
0.000000
  70
    32
  0
VERTEX
  8
0
  5
1ED2
 10
112.980
 20
110.349
 30
0.000000
  70
    32
  0
VERTEX
  8
0
  5
1ED3
 10
112.973
 20
110.364
 30
0.000000
  70
    32
  0
VERTEX
  8
0
  5
1ED4
 10
112.966
 20
110.379
 30
0.000000
  70
    32
  0
VERTEX
  8
0
  5
1ED5
 10
112.959
 20
110.394
 30
0.000000
  70
    32
  0
VERTEX
  8
0
  5
1ED6
 10
112.951
 20
110.408
 30
0.000000
  70
    32
  0
VERTEX
  8
0
  5
1ED7
 10
112.944
 20
110.423
 30
0.000000
  70
    32
  0
VERTEX
  8
0
  5
1ED8
 10
112.936
 20
110.437
 30
0.000000
  70
    32
  0
VERTEX
  8
0
  5
1ED9
 10
112.929
 20
110.452
 30
0.000000
  70
    32
  0
VERTEX
  8
0
  5
1EDA
 10
112.921
 20
110.466
 30
0.000000
  70
    32
  0
VERTEX
  8
0
  5
1EDB
 10
112.913
 20
110.480
 30
0.000000
  70
    32
  0
VERTEX
  8
0
  5
1EDC
 10
112.905
 20
110.494
 30
0.000000
  70
    32
  0
VERTEX
  8
0
  5
1EDD
 10
112.897
 20
110.507
 30
0.000000
  70
    32
  0
VERTEX
  8
0
  5
1EDE
 10
112.888
 20
110.521
 30
0.000000
  70
    32
  0
VERTEX
  8
0
  5
1EDF
 10
112.880
 20
110.534
 30
0.000000
  70
    32
  0
VERTEX
  8
0
  5
1EE0
 10
112.871
 20
110.548
 30
0.000000
  70
    32
  0
VERTEX
  8
0
  5
1EE1
 10
112.863
 20
110.561
 30
0.000000
  70
    32
  0
VERTEX
  8
0
  5
1EE2
 10
112.854
 20
110.574
 30
0.000000
  70
    32
  0
VERTEX
  8
0
  5
1EE3
 10
112.845
 20
110.586
 30
0.000000
  70
    32
  0
VERTEX
  8
0
  5
1EE4
 10
112.836
 20
110.599
 30
0.000000
  70
    32
  0
VERTEX
  8
0
  5
1EE5
 10
112.827
 20
110.611
 30
0.000000
  70
    32
  0
VERTEX
  8
0
  5
1EE6
 10
112.818
 20
110.624
 30
0.000000
  70
    32
  0
VERTEX
  8
0
  5
1EE7
 10
112.809
 20
110.636
 30
0.000000
  70
    32
  0
VERTEX
  8
0
  5
1EE8
 10
112.799
 20
110.648
 30
0.000000
  70
    32
  0
VERTEX
  8
0
  5
1EE9
 10
112.790
 20
110.660
 30
0.000000
  70
    32
  0
VERTEX
  8
0
  5
1EEA
 10
112.780
 20
110.671
 30
0.000000
  70
    32
  0
VERTEX
  8
0
  5
1EEB
 10
112.771
 20
110.683
 30
0.000000
  70
    32
  0
VERTEX
  8
0
  5
1EEC
 10
112.761
 20
110.694
 30
0.000000
  70
    32
  0
VERTEX
  8
0
  5
1EED
 10
112.751
 20
110.705
 30
0.000000
  70
    32
  0
VERTEX
  8
0
  5
1EEE
 10
112.741
 20
110.716
 30
0.000000
  70
    32
  0
VERTEX
  8
0
  5
1EEF
 10
112.731
 20
110.726
 30
0.000000
  70
    32
  0
VERTEX
  8
0
  5
1EF0
 10
112.721
 20
110.737
 30
0.000000
  70
    32
  0
VERTEX
  8
0
  5
1EF1
 10
112.711
 20
110.747
 30
0.000000
  70
    32
  0
VERTEX
  8
0
  5
1EF2
 10
112.701
 20
110.757
 30
0.000000
  70
    32
  0
VERTEX
  8
0
  5
1EF3
 10
112.691
 20
110.767
 30
0.000000
  70
    32
  0
VERTEX
  8
0
  5
1EF4
 10
112.680
 20
110.777
 30
0.000000
  70
    32
  0
VERTEX
  8
0
  5
1EF5
 10
112.670
 20
110.787
 30
0.000000
  70
    32
  0
VERTEX
  8
0
  5
1EF6
 10
112.659
 20
110.796
 30
0.000000
  70
    32
  0
VERTEX
  8
0
  5
1EF7
 10
112.648
 20
110.805
 30
0.000000
  70
    32
  0
VERTEX
  8
0
  5
1EF8
 10
112.638
 20
110.814
 30
0.000000
  70
    32
  0
VERTEX
  8
0
  5
1EF9
 10
112.627
 20
110.823
 30
0.000000
  70
    32
  0
VERTEX
  8
0
  5
1EFA
 10
112.616
 20
110.831
 30
0.000000
  70
    32
  0
VERTEX
  8
0
  5
1EFB
 10
112.605
 20
110.840
 30
0.000000
  70
    32
  0
VERTEX
  8
0
  5
1EFC
 10
112.594
 20
110.848
 30
0.000000
  70
    32
  0
VERTEX
  8
0
  5
1EFD
 10
112.583
 20
110.856
 30
0.000000
  70
    32
  0
VERTEX
  8
0
  5
1EFE
 10
112.572
 20
110.864
 30
0.000000
  70
    32
  0
VERTEX
  8
0
  5
1EFF
 10
112.561
 20
110.871
 30
0.000000
  70
    32
  0
VERTEX
  8
0
  5
1F00
 10
112.550
 20
110.879
 30
0.000000
  70
    32
  0
VERTEX
  8
0
  5
1F01
 10
112.538
 20
110.886
 30
0.000000
  70
    32
  0
VERTEX
  8
0
  5
1F02
 10
112.527
 20
110.893
 30
0.000000
  70
    32
  0
VERTEX
  8
0
  5
1F03
 10
112.515
 20
110.899
 30
0.000000
  70
    32
  0
VERTEX
  8
0
  5
1F04
 10
112.504
 20
110.906
 30
0.000000
  70
    32
  0
VERTEX
  8
0
  5
1F05
 10
112.492
 20
110.912
 30
0.000000
  70
    32
  0
VERTEX
  8
0
  5
1F06
 10
112.481
 20
110.918
 30
0.000000
  70
    32
  0
VERTEX
  8
0
  5
1F07
 10
112.469
 20
110.924
 30
0.000000
  70
    32
  0
VERTEX
  8
0
  5
1F08
 10
112.458
 20
110.930
 30
0.000000
  70
    32
  0
VERTEX
  8
0
  5
1F09
 10
112.446
 20
110.935
 30
0.000000
  70
    32
  0
VERTEX
  8
0
  5
1F0A
 10
112.434
 20
110.941
 30
0.000000
  70
    32
  0
VERTEX
  8
0
  5
1F0B
 10
112.422
 20
110.946
 30
0.000000
  70
    32
  0
VERTEX
  8
0
  5
1F0C
 10
112.410
 20
110.950
 30
0.000000
  70
    32
  0
VERTEX
  8
0
  5
1F0D
 10
112.399
 20
110.955
 30
0.000000
  70
    32
  0
VERTEX
  8
0
  5
1F0E
 10
112.387
 20
110.959
 30
0.000000
  70
    32
  0
VERTEX
  8
0
  5
1F0F
 10
112.375
 20
110.964
 30
0.000000
  70
    32
  0
VERTEX
  8
0
  5
1F10
 10
112.363
 20
110.967
 30
0.000000
  70
    32
  0
VERTEX
  8
0
  5
1F11
 10
112.351
 20
110.971
 30
0.000000
  70
    32
  0
VERTEX
  8
0
  5
1F12
 10
112.339
 20
110.975
 30
0.000000
  70
    32
  0
VERTEX
  8
0
  5
1F13
 10
112.327
 20
110.978
 30
0.000000
  70
    32
  0
VERTEX
  8
0
  5
1F14
 10
112.314
 20
110.981
 30
0.000000
  70
    32
  0
VERTEX
  8
0
  5
1F15
 10
112.302
 20
110.984
 30
0.000000
  70
    32
  0
VERTEX
  8
0
  5
1F16
 10
112.290
 20
110.986
 30
0.000000
  70
    32
  0
VERTEX
  8
0
  5
1F17
 10
112.278
 20
110.989
 30
0.000000
  70
    32
  0
VERTEX
  8
0
  5
1F18
 10
112.266
 20
110.991
 30
0.000000
  70
    32
  0
VERTEX
  8
0
  5
1F19
 10
112.254
 20
110.993
 30
0.000000
  70
    32
  0
VERTEX
  8
0
  5
1F1A
 10
112.241
 20
110.994
 30
0.000000
  70
    32
  0
VERTEX
  8
0
  5
1F1B
 10
112.229
 20
110.996
 30
0.000000
  70
    32
  0
VERTEX
  8
0
  5
1F1C
 10
112.217
 20
110.997
 30
0.000000
  70
    32
  0
VERTEX
  8
0
  5
1F1D
 10
112.205
 20
110.998
 30
0.000000
  70
    32
  0
VERTEX
  8
0
  5
1F1E
 10
112.192
 20
110.999
 30
0.000000
  70
    32
  0
VERTEX
  8
0
  5
1F1F
 10
112.180
 20
111.000
 30
0.000000
  70
    32
  0
VERTEX
  8
0
  5
1F20
 10
112.168
 20
111.000
 30
0.000000
  70
    32
  0
VERTEX
  8
0
  5
1F21
 10
112.156
 20
111.000
 30
0.000000
  70
    32
  0
SEQEND
  8
0
  5
1F22
  0
POLYLINE
  5
192D
  8
0
 10
113.1555749250759
 20
102.49999999999849
 30
0.0
 66
     1
 70
     8
  0
VERTEX
  8
0
  5
1F23
 10
113.156
 20
102.500
 30
0.000000
  70
    32
  0
VERTEX
  8
0
  5
1F24
 10
113.155
 20
102.482
 30
0.000000
  70
    32
  0
VERTEX
  8
0
  5
1F25
 10
113.155
 20
102.463
 30
0.000000
  70
    32
  0
VERTEX
  8
0
  5
1F26
 10
113.155
 20
102.445
 30
0.000000
  70
    32
  0
VERTEX
  8
0
  5
1F27
 10
113.154
 20
102.426
 30
0.000000
  70
    32
  0
VERTEX
  8
0
  5
1F28
 10
113.154
 20
102.408
 30
0.000000
  70
    32
  0
VERTEX
  8
0
  5
1F29
 10
113.153
 20
102.390
 30
0.000000
  70
    32
  0
VERTEX
  8
0
  5
1F2A
 10
113.152
 20
102.371
 30
0.000000
  70
    32
  0
VERTEX
  8
0
  5
1F2B
 10
113.151
 20
102.353
 30
0.000000
  70
    32
  0
VERTEX
  8
0
  5
1F2C
 10
113.149
 20
102.335
 30
0.000000
  70
    32
  0
VERTEX
  8
0
  5
1F2D
 10
113.148
 20
102.316
 30
0.000000
  70
    32
  0
VERTEX
  8
0
  5
1F2E
 10
113.146
 20
102.298
 30
0.000000
  70
    32
  0
VERTEX
  8
0
  5
1F2F
 10
113.145
 20
102.280
 30
0.000000
  70
    32
  0
VERTEX
  8
0
  5
1F30
 10
113.143
 20
102.262
 30
0.000000
  70
    32
  0
VERTEX
  8
0
  5
1F31
 10
113.141
 20
102.244
 30
0.000000
  70
    32
  0
VERTEX
  8
0
  5
1F32
 10
113.139
 20
102.225
 30
0.000000
  70
    32
  0
VERTEX
  8
0
  5
1F33
 10
113.136
 20
102.207
 30
0.000000
  70
    32
  0
VERTEX
  8
0
  5
1F34
 10
113.134
 20
102.189
 30
0.000000
  70
    32
  0
VERTEX
  8
0
  5
1F35
 10
113.131
 20
102.171
 30
0.000000
  70
    32
  0
VERTEX
  8
0
  5
1F36
 10
113.129
 20
102.153
 30
0.000000
  70
    32
  0
VERTEX
  8
0
  5
1F37
 10
113.126
 20
102.136
 30
0.000000
  70
    32
  0
VERTEX
  8
0
  5
1F38
 10
113.123
 20
102.118
 30
0.000000
  70
    32
  0
VERTEX
  8
0
  5
1F39
 10
113.119
 20
102.100
 30
0.000000
  70
    32
  0
VERTEX
  8
0
  5
1F3A
 10
113.116
 20
102.082
 30
0.000000
  70
    32
  0
VERTEX
  8
0
  5
1F3B
 10
113.113
 20
102.065
 30
0.000000
  70
    32
  0
VERTEX
  8
0
  5
1F3C
 10
113.109
 20
102.047
 30
0.000000
  70
    32
  0
VERTEX
  8
0
  5
1F3D
 10
113.105
 20
102.029
 30
0.000000
  70
    32
  0
VERTEX
  8
0
  5
1F3E
 10
113.101
 20
102.012
 30
0.000000
  70
    32
  0
VERTEX
  8
0
  5
1F3F
 10
113.097
 20
101.995
 30
0.000000
  70
    32
  0
VERTEX
  8
0
  5
1F40
 10
113.093
 20
101.977
 30
0.000000
  70
    32
  0
VERTEX
  8
0
  5
1F41
 10
113.089
 20
101.960
 30
0.000000
  70
    32
  0
VERTEX
  8
0
  5
1F42
 10
113.084
 20
101.943
 30
0.000000
  70
    32
  0
VERTEX
  8
0
  5
1F43
 10
113.079
 20
101.926
 30
0.000000
  70
    32
  0
VERTEX
  8
0
  5
1F44
 10
113.075
 20
101.909
 30
0.000000
  70
    32
  0
VERTEX
  8
0
  5
1F45
 10
113.070
 20
101.892
 30
0.000000
  70
    32
  0
VERTEX
  8
0
  5
1F46
 10
113.065
 20
101.875
 30
0.000000
  70
    32
  0
VERTEX
  8
0
  5
1F47
 10
113.060
 20
101.859
 30
0.000000
  70
    32
  0
VERTEX
  8
0
  5
1F48
 10
113.054
 20
101.842
 30
0.000000
  70
    32
  0
VERTEX
  8
0
  5
1F49
 10
113.049
 20
101.826
 30
0.000000
  70
    32
  0
VERTEX
  8
0
  5
1F4A
 10
113.043
 20
101.809
 30
0.000000
  70
    32
  0
VERTEX
  8
0
  5
1F4B
 10
113.037
 20
101.793
 30
0.000000
  70
    32
  0
VERTEX
  8
0
  5
1F4C
 10
113.032
 20
101.777
 30
0.000000
  70
    32
  0
VERTEX
  8
0
  5
1F4D
 10
113.026
 20
101.761
 30
0.000000
  70
    32
  0
VERTEX
  8
0
  5
1F4E
 10
113.020
 20
101.745
 30
0.000000
  70
    32
  0
VERTEX
  8
0
  5
1F4F
 10
113.013
 20
101.729
 30
0.000000
  70
    32
  0
VERTEX
  8
0
  5
1F50
 10
113.007
 20
101.713
 30
0.000000
  70
    32
  0
VERTEX
  8
0
  5
1F51
 10
113.000
 20
101.698
 30
0.000000
  70
    32
  0
VERTEX
  8
0
  5
1F52
 10
112.994
 20
101.682
 30
0.000000
  70
    32
  0
VERTEX
  8
0
  5
1F53
 10
112.987
 20
101.667
 30
0.000000
  70
    32
  0
VERTEX
  8
0
  5
1F54
 10
112.980
 20
101.651
 30
0.000000
  70
    32
  0
VERTEX
  8
0
  5
1F55
 10
112.973
 20
101.636
 30
0.000000
  70
    32
  0
VERTEX
  8
0
  5
1F56
 10
112.966
 20
101.621
 30
0.000000
  70
    32
  0
VERTEX
  8
0
  5
1F57
 10
112.959
 20
101.606
 30
0.000000
  70
    32
  0
VERTEX
  8
0
  5
1F58
 10
112.951
 20
101.592
 30
0.000000
  70
    32
  0
VERTEX
  8
0
  5
1F59
 10
112.944
 20
101.577
 30
0.000000
  70
    32
  0
VERTEX
  8
0
  5
1F5A
 10
112.936
 20
101.563
 30
0.000000
  70
    32
  0
VERTEX
  8
0
  5
1F5B
 10
112.929
 20
101.548
 30
0.000000
  70
    32
  0
VERTEX
  8
0
  5
1F5C
 10
112.921
 20
101.534
 30
0.000000
  70
    32
  0
VERTEX
  8
0
  5
1F5D
 10
112.913
 20
101.520
 30
0.000000
  70
    32
  0
VERTEX
  8
0
  5
1F5E
 10
112.905
 20
101.506
 30
0.000000
  70
    32
  0
VERTEX
  8
0
  5
1F5F
 10
112.897
 20
101.493
 30
0.000000
  70
    32
  0
VERTEX
  8
0
  5
1F60
 10
112.888
 20
101.479
 30
0.000000
  70
    32
  0
VERTEX
  8
0
  5
1F61
 10
112.880
 20
101.466
 30
0.000000
  70
    32
  0
VERTEX
  8
0
  5
1F62
 10
112.871
 20
101.452
 30
0.000000
  70
    32
  0
VERTEX
  8
0
  5
1F63
 10
112.863
 20
101.439
 30
0.000000
  70
    32
  0
VERTEX
  8
0
  5
1F64
 10
112.854
 20
101.426
 30
0.000000
  70
    32
  0
VERTEX
  8
0
  5
1F65
 10
112.845
 20
101.414
 30
0.000000
  70
    32
  0
VERTEX
  8
0
  5
1F66
 10
112.836
 20
101.401
 30
0.000000
  70
    32
  0
VERTEX
  8
0
  5
1F67
 10
112.827
 20
101.389
 30
0.000000
  70
    32
  0
VERTEX
  8
0
  5
1F68
 10
112.818
 20
101.376
 30
0.000000
  70
    32
  0
VERTEX
  8
0
  5
1F69
 10
112.809
 20
101.364
 30
0.000000
  70
    32
  0
VERTEX
  8
0
  5
1F6A
 10
112.799
 20
101.352
 30
0.000000
  70
    32
  0
VERTEX
  8
0
  5
1F6B
 10
112.790
 20
101.340
 30
0.000000
  70
    32
  0
VERTEX
  8
0
  5
1F6C
 10
112.780
 20
101.329
 30
0.000000
  70
    32
  0
VERTEX
  8
0
  5
1F6D
 10
112.771
 20
101.317
 30
0.000000
  70
    32
  0
VERTEX
  8
0
  5
1F6E
 10
112.761
 20
101.306
 30
0.000000
  70
    32
  0
VERTEX
  8
0
  5
1F6F
 10
112.751
 20
101.295
 30
0.000000
  70
    32
  0
VERTEX
  8
0
  5
1F70
 10
112.741
 20
101.284
 30
0.000000
  70
    32
  0
VERTEX
  8
0
  5
1F71
 10
112.731
 20
101.274
 30
0.000000
  70
    32
  0
VERTEX
  8
0
  5
1F72
 10
112.721
 20
101.263
 30
0.000000
  70
    32
  0
VERTEX
  8
0
  5
1F73
 10
112.711
 20
101.253
 30
0.000000
  70
    32
  0
VERTEX
  8
0
  5
1F74
 10
112.701
 20
101.243
 30
0.000000
  70
    32
  0
VERTEX
  8
0
  5
1F75
 10
112.691
 20
101.233
 30
0.000000
  70
    32
  0
VERTEX
  8
0
  5
1F76
 10
112.680
 20
101.223
 30
0.000000
  70
    32
  0
VERTEX
  8
0
  5
1F77
 10
112.670
 20
101.213
 30
0.000000
  70
    32
  0
VERTEX
  8
0
  5
1F78
 10
112.659
 20
101.204
 30
0.000000
  70
    32
  0
VERTEX
  8
0
  5
1F79
 10
112.648
 20
101.195
 30
0.000000
  70
    32
  0
VERTEX
  8
0
  5
1F7A
 10
112.638
 20
101.186
 30
0.000000
  70
    32
  0
VERTEX
  8
0
  5
1F7B
 10
112.627
 20
101.177
 30
0.000000
  70
    32
  0
VERTEX
  8
0
  5
1F7C
 10
112.616
 20
101.169
 30
0.000000
  70
    32
  0
VERTEX
  8
0
  5
1F7D
 10
112.605
 20
101.160
 30
0.000000
  70
    32
  0
VERTEX
  8
0
  5
1F7E
 10
112.594
 20
101.152
 30
0.000000
  70
    32
  0
VERTEX
  8
0
  5
1F7F
 10
112.583
 20
101.144
 30
0.000000
  70
    32
  0
VERTEX
  8
0
  5
1F80
 10
112.572
 20
101.136
 30
0.000000
  70
    32
  0
VERTEX
  8
0
  5
1F81
 10
112.561
 20
101.129
 30
0.000000
  70
    32
  0
VERTEX
  8
0
  5
1F82
 10
112.550
 20
101.121
 30
0.000000
  70
    32
  0
VERTEX
  8
0
  5
1F83
 10
112.538
 20
101.114
 30
0.000000
  70
    32
  0
VERTEX
  8
0
  5
1F84
 10
112.527
 20
101.107
 30
0.000000
  70
    32
  0
VERTEX
  8
0
  5
1F85
 10
112.515
 20
101.101
 30
0.000000
  70
    32
  0
VERTEX
  8
0
  5
1F86
 10
112.504
 20
101.094
 30
0.000000
  70
    32
  0
VERTEX
  8
0
  5
1F87
 10
112.492
 20
101.088
 30
0.000000
  70
    32
  0
VERTEX
  8
0
  5
1F88
 10
112.481
 20
101.082
 30
0.000000
  70
    32
  0
VERTEX
  8
0
  5
1F89
 10
112.469
 20
101.076
 30
0.000000
  70
    32
  0
VERTEX
  8
0
  5
1F8A
 10
112.458
 20
101.070
 30
0.000000
  70
    32
  0
VERTEX
  8
0
  5
1F8B
 10
112.446
 20
101.065
 30
0.000000
  70
    32
  0
VERTEX
  8
0
  5
1F8C
 10
112.434
 20
101.059
 30
0.000000
  70
    32
  0
VERTEX
  8
0
  5
1F8D
 10
112.422
 20
101.054
 30
0.000000
  70
    32
  0
VERTEX
  8
0
  5
1F8E
 10
112.410
 20
101.050
 30
0.000000
  70
    32
  0
VERTEX
  8
0
  5
1F8F
 10
112.399
 20
101.045
 30
0.000000
  70
    32
  0
VERTEX
  8
0
  5
1F90
 10
112.387
 20
101.041
 30
0.000000
  70
    32
  0
VERTEX
  8
0
  5
1F91
 10
112.375
 20
101.036
 30
0.000000
  70
    32
  0
VERTEX
  8
0
  5
1F92
 10
112.363
 20
101.033
 30
0.000000
  70
    32
  0
VERTEX
  8
0
  5
1F93
 10
112.351
 20
101.029
 30
0.000000
  70
    32
  0
VERTEX
  8
0
  5
1F94
 10
112.339
 20
101.025
 30
0.000000
  70
    32
  0
VERTEX
  8
0
  5
1F95
 10
112.327
 20
101.022
 30
0.000000
  70
    32
  0
VERTEX
  8
0
  5
1F96
 10
112.314
 20
101.019
 30
0.000000
  70
    32
  0
VERTEX
  8
0
  5
1F97
 10
112.302
 20
101.016
 30
0.000000
  70
    32
  0
VERTEX
  8
0
  5
1F98
 10
112.290
 20
101.014
 30
0.000000
  70
    32
  0
VERTEX
  8
0
  5
1F99
 10
112.278
 20
101.011
 30
0.000000
  70
    32
  0
VERTEX
  8
0
  5
1F9A
 10
112.266
 20
101.009
 30
0.000000
  70
    32
  0
VERTEX
  8
0
  5
1F9B
 10
112.254
 20
101.007
 30
0.000000
  70
    32
  0
VERTEX
  8
0
  5
1F9C
 10
112.241
 20
101.006
 30
0.000000
  70
    32
  0
VERTEX
  8
0
  5
1F9D
 10
112.229
 20
101.004
 30
0.000000
  70
    32
  0
VERTEX
  8
0
  5
1F9E
 10
112.217
 20
101.003
 30
0.000000
  70
    32
  0
VERTEX
  8
0
  5
1F9F
 10
112.205
 20
101.002
 30
0.000000
  70
    32
  0
VERTEX
  8
0
  5
1FA0
 10
112.192
 20
101.001
 30
0.000000
  70
    32
  0
VERTEX
  8
0
  5
1FA1
 10
112.180
 20
101.000
 30
0.000000
  70
    32
  0
VERTEX
  8
0
  5
1FA2
 10
112.168
 20
101.000
 30
0.000000
  70
    32
  0
VERTEX
  8
0
  5
1FA3
 10
112.156
 20
101.000
 30
0.000000
  70
    32
  0
SEQEND
  8
0
  5
1FA4
  0
ARC
  5
192E
  8
0
 10
111.0350084508103
 20
104.0
 30
0.0
 40
1.0
 50
270.00000000000051
 51
0.0
  0
ARC
  5
1972
  8
0
 10
105.96499154918961
 20
104.0
 30
0.0
 40
1.0
 50
180.0
 51
269.99999999999949
  0
POLYLINE
  5
1973
  8
0
 10
103.844425074924
 20
102.49999999999849
 30
0.0
 66
     1
 70
     8
  0
VERTEX
  8
0
  5
1FA5
 10
103.844
 20
102.500
 30
0.000000
  70
    32
  0
VERTEX
  8
0
  5
1FA6
 10
103.845
 20
102.482
 30
0.000000
  70
    32
  0
VERTEX
  8
0
  5
1FA7
 10
103.845
 20
102.463
 30
0.000000
  70
    32
  0
VERTEX
  8
0
  5
1FA8
 10
103.845
 20
102.445
 30
0.000000
  70
    32
  0
VERTEX
  8
0
  5
1FA9
 10
103.846
 20
102.426
 30
0.000000
  70
    32
  0
VERTEX
  8
0
  5
1FAA
 10
103.846
 20
102.408
 30
0.000000
  70
    32
  0
VERTEX
  8
0
  5
1FAB
 10
103.847
 20
102.390
 30
0.000000
  70
    32
  0
VERTEX
  8
0
  5
1FAC
 10
103.848
 20
102.371
 30
0.000000
  70
    32
  0
VERTEX
  8
0
  5
1FAD
 10
103.849
 20
102.353
 30
0.000000
  70
    32
  0
VERTEX
  8
0
  5
1FAE
 10
103.851
 20
102.335
 30
0.000000
  70
    32
  0
VERTEX
  8
0
  5
1FAF
 10
103.852
 20
102.316
 30
0.000000
  70
    32
  0
VERTEX
  8
0
  5
1FB0
 10
103.854
 20
102.298
 30
0.000000
  70
    32
  0
VERTEX
  8
0
  5
1FB1
 10
103.855
 20
102.280
 30
0.000000
  70
    32
  0
VERTEX
  8
0
  5
1FB2
 10
103.857
 20
102.262
 30
0.000000
  70
    32
  0
VERTEX
  8
0
  5
1FB3
 10
103.859
 20
102.244
 30
0.000000
  70
    32
  0
VERTEX
  8
0
  5
1FB4
 10
103.861
 20
102.225
 30
0.000000
  70
    32
  0
VERTEX
  8
0
  5
1FB5
 10
103.864
 20
102.207
 30
0.000000
  70
    32
  0
VERTEX
  8
0
  5
1FB6
 10
103.866
 20
102.189
 30
0.000000
  70
    32
  0
VERTEX
  8
0
  5
1FB7
 10
103.869
 20
102.171
 30
0.000000
  70
    32
  0
VERTEX
  8
0
  5
1FB8
 10
103.871
 20
102.153
 30
0.000000
  70
    32
  0
VERTEX
  8
0
  5
1FB9
 10
103.874
 20
102.136
 30
0.000000
  70
    32
  0
VERTEX
  8
0
  5
1FBA
 10
103.877
 20
102.118
 30
0.000000
  70
    32
  0
VERTEX
  8
0
  5
1FBB
 10
103.881
 20
102.100
 30
0.000000
  70
    32
  0
VERTEX
  8
0
  5
1FBC
 10
103.884
 20
102.082
 30
0.000000
  70
    32
  0
VERTEX
  8
0
  5
1FBD
 10
103.887
 20
102.065
 30
0.000000
  70
    32
  0
VERTEX
  8
0
  5
1FBE
 10
103.891
 20
102.047
 30
0.000000
  70
    32
  0
VERTEX
  8
0
  5
1FBF
 10
103.895
 20
102.029
 30
0.000000
  70
    32
  0
VERTEX
  8
0
  5
1FC0
 10
103.899
 20
102.012
 30
0.000000
  70
    32
  0
VERTEX
  8
0
  5
1FC1
 10
103.903
 20
101.995
 30
0.000000
  70
    32
  0
VERTEX
  8
0
  5
1FC2
 10
103.907
 20
101.977
 30
0.000000
  70
    32
  0
VERTEX
  8
0
  5
1FC3
 10
103.911
 20
101.960
 30
0.000000
  70
    32
  0
VERTEX
  8
0
  5
1FC4
 10
103.916
 20
101.943
 30
0.000000
  70
    32
  0
VERTEX
  8
0
  5
1FC5
 10
103.921
 20
101.926
 30
0.000000
  70
    32
  0
VERTEX
  8
0
  5
1FC6
 10
103.925
 20
101.909
 30
0.000000
  70
    32
  0
VERTEX
  8
0
  5
1FC7
 10
103.930
 20
101.892
 30
0.000000
  70
    32
  0
VERTEX
  8
0
  5
1FC8
 10
103.935
 20
101.875
 30
0.000000
  70
    32
  0
VERTEX
  8
0
  5
1FC9
 10
103.940
 20
101.859
 30
0.000000
  70
    32
  0
VERTEX
  8
0
  5
1FCA
 10
103.946
 20
101.842
 30
0.000000
  70
    32
  0
VERTEX
  8
0
  5
1FCB
 10
103.951
 20
101.826
 30
0.000000
  70
    32
  0
VERTEX
  8
0
  5
1FCC
 10
103.957
 20
101.809
 30
0.000000
  70
    32
  0
VERTEX
  8
0
  5
1FCD
 10
103.963
 20
101.793
 30
0.000000
  70
    32
  0
VERTEX
  8
0
  5
1FCE
 10
103.968
 20
101.777
 30
0.000000
  70
    32
  0
VERTEX
  8
0
  5
1FCF
 10
103.974
 20
101.761
 30
0.000000
  70
    32
  0
VERTEX
  8
0
  5
1FD0
 10
103.980
 20
101.745
 30
0.000000
  70
    32
  0
VERTEX
  8
0
  5
1FD1
 10
103.987
 20
101.729
 30
0.000000
  70
    32
  0
VERTEX
  8
0
  5
1FD2
 10
103.993
 20
101.713
 30
0.000000
  70
    32
  0
VERTEX
  8
0
  5
1FD3
 10
104.000
 20
101.698
 30
0.000000
  70
    32
  0
VERTEX
  8
0
  5
1FD4
 10
104.006
 20
101.682
 30
0.000000
  70
    32
  0
VERTEX
  8
0
  5
1FD5
 10
104.013
 20
101.667
 30
0.000000
  70
    32
  0
VERTEX
  8
0
  5
1FD6
 10
104.020
 20
101.651
 30
0.000000
  70
    32
  0
VERTEX
  8
0
  5
1FD7
 10
104.027
 20
101.636
 30
0.000000
  70
    32
  0
VERTEX
  8
0
  5
1FD8
 10
104.034
 20
101.621
 30
0.000000
  70
    32
  0
VERTEX
  8
0
  5
1FD9
 10
104.041
 20
101.606
 30
0.000000
  70
    32
  0
VERTEX
  8
0
  5
1FDA
 10
104.049
 20
101.592
 30
0.000000
  70
    32
  0
VERTEX
  8
0
  5
1FDB
 10
104.056
 20
101.577
 30
0.000000
  70
    32
  0
VERTEX
  8
0
  5
1FDC
 10
104.064
 20
101.563
 30
0.000000
  70
    32
  0
VERTEX
  8
0
  5
1FDD
 10
104.071
 20
101.548
 30
0.000000
  70
    32
  0
VERTEX
  8
0
  5
1FDE
 10
104.079
 20
101.534
 30
0.000000
  70
    32
  0
VERTEX
  8
0
  5
1FDF
 10
104.087
 20
101.520
 30
0.000000
  70
    32
  0
VERTEX
  8
0
  5
1FE0
 10
104.095
 20
101.506
 30
0.000000
  70
    32
  0
VERTEX
  8
0
  5
1FE1
 10
104.103
 20
101.493
 30
0.000000
  70
    32
  0
VERTEX
  8
0
  5
1FE2
 10
104.112
 20
101.479
 30
0.000000
  70
    32
  0
VERTEX
  8
0
  5
1FE3
 10
104.120
 20
101.466
 30
0.000000
  70
    32
  0
VERTEX
  8
0
  5
1FE4
 10
104.129
 20
101.452
 30
0.000000
  70
    32
  0
VERTEX
  8
0
  5
1FE5
 10
104.137
 20
101.439
 30
0.000000
  70
    32
  0
VERTEX
  8
0
  5
1FE6
 10
104.146
 20
101.426
 30
0.000000
  70
    32
  0
VERTEX
  8
0
  5
1FE7
 10
104.155
 20
101.414
 30
0.000000
  70
    32
  0
VERTEX
  8
0
  5
1FE8
 10
104.164
 20
101.401
 30
0.000000
  70
    32
  0
VERTEX
  8
0
  5
1FE9
 10
104.173
 20
101.389
 30
0.000000
  70
    32
  0
VERTEX
  8
0
  5
1FEA
 10
104.182
 20
101.376
 30
0.000000
  70
    32
  0
VERTEX
  8
0
  5
1FEB
 10
104.191
 20
101.364
 30
0.000000
  70
    32
  0
VERTEX
  8
0
  5
1FEC
 10
104.201
 20
101.352
 30
0.000000
  70
    32
  0
VERTEX
  8
0
  5
1FED
 10
104.210
 20
101.340
 30
0.000000
  70
    32
  0
VERTEX
  8
0
  5
1FEE
 10
104.220
 20
101.329
 30
0.000000
  70
    32
  0
VERTEX
  8
0
  5
1FEF
 10
104.229
 20
101.317
 30
0.000000
  70
    32
  0
VERTEX
  8
0
  5
1FF0
 10
104.239
 20
101.306
 30
0.000000
  70
    32
  0
VERTEX
  8
0
  5
1FF1
 10
104.249
 20
101.295
 30
0.000000
  70
    32
  0
VERTEX
  8
0
  5
1FF2
 10
104.259
 20
101.284
 30
0.000000
  70
    32
  0
VERTEX
  8
0
  5
1FF3
 10
104.269
 20
101.274
 30
0.000000
  70
    32
  0
VERTEX
  8
0
  5
1FF4
 10
104.279
 20
101.263
 30
0.000000
  70
    32
  0
VERTEX
  8
0
  5
1FF5
 10
104.289
 20
101.253
 30
0.000000
  70
    32
  0
VERTEX
  8
0
  5
1FF6
 10
104.299
 20
101.243
 30
0.000000
  70
    32
  0
VERTEX
  8
0
  5
1FF7
 10
104.309
 20
101.233
 30
0.000000
  70
    32
  0
VERTEX
  8
0
  5
1FF8
 10
104.320
 20
101.223
 30
0.000000
  70
    32
  0
VERTEX
  8
0
  5
1FF9
 10
104.330
 20
101.213
 30
0.000000
  70
    32
  0
VERTEX
  8
0
  5
1FFA
 10
104.341
 20
101.204
 30
0.000000
  70
    32
  0
VERTEX
  8
0
  5
1FFB
 10
104.352
 20
101.195
 30
0.000000
  70
    32
  0
VERTEX
  8
0
  5
1FFC
 10
104.362
 20
101.186
 30
0.000000
  70
    32
  0
VERTEX
  8
0
  5
1FFD
 10
104.373
 20
101.177
 30
0.000000
  70
    32
  0
VERTEX
  8
0
  5
1FFE
 10
104.384
 20
101.169
 30
0.000000
  70
    32
  0
VERTEX
  8
0
  5
1FFF
 10
104.395
 20
101.160
 30
0.000000
  70
    32
  0
VERTEX
  8
0
  5
2000
 10
104.406
 20
101.152
 30
0.000000
  70
    32
  0
VERTEX
  8
0
  5
2001
 10
104.417
 20
101.144
 30
0.000000
  70
    32
  0
VERTEX
  8
0
  5
2002
 10
104.428
 20
101.136
 30
0.000000
  70
    32
  0
VERTEX
  8
0
  5
2003
 10
104.439
 20
101.129
 30
0.000000
  70
    32
  0
VERTEX
  8
0
  5
2004
 10
104.450
 20
101.121
 30
0.000000
  70
    32
  0
VERTEX
  8
0
  5
2005
 10
104.462
 20
101.114
 30
0.000000
  70
    32
  0
VERTEX
  8
0
  5
2006
 10
104.473
 20
101.107
 30
0.000000
  70
    32
  0
VERTEX
  8
0
  5
2007
 10
104.485
 20
101.101
 30
0.000000
  70
    32
  0
VERTEX
  8
0
  5
2008
 10
104.496
 20
101.094
 30
0.000000
  70
    32
  0
VERTEX
  8
0
  5
2009
 10
104.508
 20
101.088
 30
0.000000
  70
    32
  0
VERTEX
  8
0
  5
200A
 10
104.519
 20
101.082
 30
0.000000
  70
    32
  0
VERTEX
  8
0
  5
200B
 10
104.531
 20
101.076
 30
0.000000
  70
    32
  0
VERTEX
  8
0
  5
200C
 10
104.542
 20
101.070
 30
0.000000
  70
    32
  0
VERTEX
  8
0
  5
200D
 10
104.554
 20
101.065
 30
0.000000
  70
    32
  0
VERTEX
  8
0
  5
200E
 10
104.566
 20
101.059
 30
0.000000
  70
    32
  0
VERTEX
  8
0
  5
200F
 10
104.578
 20
101.054
 30
0.000000
  70
    32
  0
VERTEX
  8
0
  5
2010
 10
104.590
 20
101.050
 30
0.000000
  70
    32
  0
VERTEX
  8
0
  5
2011
 10
104.601
 20
101.045
 30
0.000000
  70
    32
  0
VERTEX
  8
0
  5
2012
 10
104.613
 20
101.041
 30
0.000000
  70
    32
  0
VERTEX
  8
0
  5
2013
 10
104.625
 20
101.036
 30
0.000000
  70
    32
  0
VERTEX
  8
0
  5
2014
 10
104.637
 20
101.033
 30
0.000000
  70
    32
  0
VERTEX
  8
0
  5
2015
 10
104.649
 20
101.029
 30
0.000000
  70
    32
  0
VERTEX
  8
0
  5
2016
 10
104.661
 20
101.025
 30
0.000000
  70
    32
  0
VERTEX
  8
0
  5
2017
 10
104.673
 20
101.022
 30
0.000000
  70
    32
  0
VERTEX
  8
0
  5
2018
 10
104.686
 20
101.019
 30
0.000000
  70
    32
  0
VERTEX
  8
0
  5
2019
 10
104.698
 20
101.016
 30
0.000000
  70
    32
  0
VERTEX
  8
0
  5
201A
 10
104.710
 20
101.014
 30
0.000000
  70
    32
  0
VERTEX
  8
0
  5
201B
 10
104.722
 20
101.011
 30
0.000000
  70
    32
  0
VERTEX
  8
0
  5
201C
 10
104.734
 20
101.009
 30
0.000000
  70
    32
  0
VERTEX
  8
0
  5
201D
 10
104.746
 20
101.007
 30
0.000000
  70
    32
  0
VERTEX
  8
0
  5
201E
 10
104.759
 20
101.006
 30
0.000000
  70
    32
  0
VERTEX
  8
0
  5
201F
 10
104.771
 20
101.004
 30
0.000000
  70
    32
  0
VERTEX
  8
0
  5
2020
 10
104.783
 20
101.003
 30
0.000000
  70
    32
  0
VERTEX
  8
0
  5
2021
 10
104.795
 20
101.002
 30
0.000000
  70
    32
  0
VERTEX
  8
0
  5
2022
 10
104.808
 20
101.001
 30
0.000000
  70
    32
  0
VERTEX
  8
0
  5
2023
 10
104.820
 20
101.000
 30
0.000000
  70
    32
  0
VERTEX
  8
0
  5
2024
 10
104.832
 20
101.000
 30
0.000000
  70
    32
  0
VERTEX
  8
0
  5
2025
 10
104.844
 20
101.000
 30
0.000000
  70
    32
  0
SEQEND
  8
0
  5
2026
  0
POLYLINE
  5
1974
  8
0
 10
103.844425074924
 20
109.5
 30
0.0
 66
     1
 70
     8
  0
VERTEX
  8
0
  5
2027
 10
103.844
 20
109.500
 30
0.000000
  70
    32
  0
VERTEX
  8
0
  5
2028
 10
103.845
 20
109.518
 30
0.000000
  70
    32
  0
VERTEX
  8
0
  5
2029
 10
103.845
 20
109.537
 30
0.000000
  70
    32
  0
VERTEX
  8
0
  5
202A
 10
103.845
 20
109.555
 30
0.000000
  70
    32
  0
VERTEX
  8
0
  5
202B
 10
103.846
 20
109.574
 30
0.000000
  70
    32
  0
VERTEX
  8
0
  5
202C
 10
103.846
 20
109.592
 30
0.000000
  70
    32
  0
VERTEX
  8
0
  5
202D
 10
103.847
 20
109.610
 30
0.000000
  70
    32
  0
VERTEX
  8
0
  5
202E
 10
103.848
 20
109.629
 30
0.000000
  70
    32
  0
VERTEX
  8
0
  5
202F
 10
103.849
 20
109.647
 30
0.000000
  70
    32
  0
VERTEX
  8
0
  5
2030
 10
103.851
 20
109.665
 30
0.000000
  70
    32
  0
VERTEX
  8
0
  5
2031
 10
103.852
 20
109.684
 30
0.000000
  70
    32
  0
VERTEX
  8
0
  5
2032
 10
103.854
 20
109.702
 30
0.000000
  70
    32
  0
VERTEX
  8
0
  5
2033
 10
103.855
 20
109.720
 30
0.000000
  70
    32
  0
VERTEX
  8
0
  5
2034
 10
103.857
 20
109.738
 30
0.000000
  70
    32
  0
VERTEX
  8
0
  5
2035
 10
103.859
 20
109.756
 30
0.000000
  70
    32
  0
VERTEX
  8
0
  5
2036
 10
103.861
 20
109.775
 30
0.000000
  70
    32
  0
VERTEX
  8
0
  5
2037
 10
103.864
 20
109.793
 30
0.000000
  70
    32
  0
VERTEX
  8
0
  5
2038
 10
103.866
 20
109.811
 30
0.000000
  70
    32
  0
VERTEX
  8
0
  5
2039
 10
103.869
 20
109.829
 30
0.000000
  70
    32
  0
VERTEX
  8
0
  5
203A
 10
103.871
 20
109.847
 30
0.000000
  70
    32
  0
VERTEX
  8
0
  5
203B
 10
103.874
 20
109.864
 30
0.000000
  70
    32
  0
VERTEX
  8
0
  5
203C
 10
103.877
 20
109.882
 30
0.000000
  70
    32
  0
VERTEX
  8
0
  5
203D
 10
103.881
 20
109.900
 30
0.000000
  70
    32
  0
VERTEX
  8
0
  5
203E
 10
103.884
 20
109.918
 30
0.000000
  70
    32
  0
VERTEX
  8
0
  5
203F
 10
103.887
 20
109.935
 30
0.000000
  70
    32
  0
VERTEX
  8
0
  5
2040
 10
103.891
 20
109.953
 30
0.000000
  70
    32
  0
VERTEX
  8
0
  5
2041
 10
103.895
 20
109.971
 30
0.000000
  70
    32
  0
VERTEX
  8
0
  5
2042
 10
103.899
 20
109.988
 30
0.000000
  70
    32
  0
VERTEX
  8
0
  5
2043
 10
103.903
 20
110.005
 30
0.000000
  70
    32
  0
VERTEX
  8
0
  5
2044
 10
103.907
 20
110.023
 30
0.000000
  70
    32
  0
VERTEX
  8
0
  5
2045
 10
103.911
 20
110.040
 30
0.000000
  70
    32
  0
VERTEX
  8
0
  5
2046
 10
103.916
 20
110.057
 30
0.000000
  70
    32
  0
VERTEX
  8
0
  5
2047
 10
103.921
 20
110.074
 30
0.000000
  70
    32
  0
VERTEX
  8
0
  5
2048
 10
103.925
 20
110.091
 30
0.000000
  70
    32
  0
VERTEX
  8
0
  5
2049
 10
103.930
 20
110.108
 30
0.000000
  70
    32
  0
VERTEX
  8
0
  5
204A
 10
103.935
 20
110.125
 30
0.000000
  70
    32
  0
VERTEX
  8
0
  5
204B
 10
103.940
 20
110.141
 30
0.000000
  70
    32
  0
VERTEX
  8
0
  5
204C
 10
103.946
 20
110.158
 30
0.000000
  70
    32
  0
VERTEX
  8
0
  5
204D
 10
103.951
 20
110.174
 30
0.000000
  70
    32
  0
VERTEX
  8
0
  5
204E
 10
103.957
 20
110.191
 30
0.000000
  70
    32
  0
VERTEX
  8
0
  5
204F
 10
103.963
 20
110.207
 30
0.000000
  70
    32
  0
VERTEX
  8
0
  5
2050
 10
103.968
 20
110.223
 30
0.000000
  70
    32
  0
VERTEX
  8
0
  5
2051
 10
103.974
 20
110.239
 30
0.000000
  70
    32
  0
VERTEX
  8
0
  5
2052
 10
103.980
 20
110.255
 30
0.000000
  70
    32
  0
VERTEX
  8
0
  5
2053
 10
103.987
 20
110.271
 30
0.000000
  70
    32
  0
VERTEX
  8
0
  5
2054
 10
103.993
 20
110.287
 30
0.000000
  70
    32
  0
VERTEX
  8
0
  5
2055
 10
104.000
 20
110.302
 30
0.000000
  70
    32
  0
VERTEX
  8
0
  5
2056
 10
104.006
 20
110.318
 30
0.000000
  70
    32
  0
VERTEX
  8
0
  5
2057
 10
104.013
 20
110.333
 30
0.000000
  70
    32
  0
VERTEX
  8
0
  5
2058
 10
104.020
 20
110.349
 30
0.000000
  70
    32
  0
VERTEX
  8
0
  5
2059
 10
104.027
 20
110.364
 30
0.000000
  70
    32
  0
VERTEX
  8
0
  5
205A
 10
104.034
 20
110.379
 30
0.000000
  70
    32
  0
VERTEX
  8
0
  5
205B
 10
104.041
 20
110.394
 30
0.000000
  70
    32
  0
VERTEX
  8
0
  5
205C
 10
104.049
 20
110.408
 30
0.000000
  70
    32
  0
VERTEX
  8
0
  5
205D
 10
104.056
 20
110.423
 30
0.000000
  70
    32
  0
VERTEX
  8
0
  5
205E
 10
104.064
 20
110.437
 30
0.000000
  70
    32
  0
VERTEX
  8
0
  5
205F
 10
104.071
 20
110.452
 30
0.000000
  70
    32
  0
VERTEX
  8
0
  5
2060
 10
104.079
 20
110.466
 30
0.000000
  70
    32
  0
VERTEX
  8
0
  5
2061
 10
104.087
 20
110.480
 30
0.000000
  70
    32
  0
VERTEX
  8
0
  5
2062
 10
104.095
 20
110.494
 30
0.000000
  70
    32
  0
VERTEX
  8
0
  5
2063
 10
104.103
 20
110.507
 30
0.000000
  70
    32
  0
VERTEX
  8
0
  5
2064
 10
104.112
 20
110.521
 30
0.000000
  70
    32
  0
VERTEX
  8
0
  5
2065
 10
104.120
 20
110.534
 30
0.000000
  70
    32
  0
VERTEX
  8
0
  5
2066
 10
104.129
 20
110.548
 30
0.000000
  70
    32
  0
VERTEX
  8
0
  5
2067
 10
104.137
 20
110.561
 30
0.000000
  70
    32
  0
VERTEX
  8
0
  5
2068
 10
104.146
 20
110.574
 30
0.000000
  70
    32
  0
VERTEX
  8
0
  5
2069
 10
104.155
 20
110.586
 30
0.000000
  70
    32
  0
VERTEX
  8
0
  5
206A
 10
104.164
 20
110.599
 30
0.000000
  70
    32
  0
VERTEX
  8
0
  5
206B
 10
104.173
 20
110.611
 30
0.000000
  70
    32
  0
VERTEX
  8
0
  5
206C
 10
104.182
 20
110.624
 30
0.000000
  70
    32
  0
VERTEX
  8
0
  5
206D
 10
104.191
 20
110.636
 30
0.000000
  70
    32
  0
VERTEX
  8
0
  5
206E
 10
104.201
 20
110.648
 30
0.000000
  70
    32
  0
VERTEX
  8
0
  5
206F
 10
104.210
 20
110.660
 30
0.000000
  70
    32
  0
VERTEX
  8
0
  5
2070
 10
104.220
 20
110.671
 30
0.000000
  70
    32
  0
VERTEX
  8
0
  5
2071
 10
104.229
 20
110.683
 30
0.000000
  70
    32
  0
VERTEX
  8
0
  5
2072
 10
104.239
 20
110.694
 30
0.000000
  70
    32
  0
VERTEX
  8
0
  5
2073
 10
104.249
 20
110.705
 30
0.000000
  70
    32
  0
VERTEX
  8
0
  5
2074
 10
104.259
 20
110.716
 30
0.000000
  70
    32
  0
VERTEX
  8
0
  5
2075
 10
104.269
 20
110.726
 30
0.000000
  70
    32
  0
VERTEX
  8
0
  5
2076
 10
104.279
 20
110.737
 30
0.000000
  70
    32
  0
VERTEX
  8
0
  5
2077
 10
104.289
 20
110.747
 30
0.000000
  70
    32
  0
VERTEX
  8
0
  5
2078
 10
104.299
 20
110.757
 30
0.000000
  70
    32
  0
VERTEX
  8
0
  5
2079
 10
104.309
 20
110.767
 30
0.000000
  70
    32
  0
VERTEX
  8
0
  5
207A
 10
104.320
 20
110.777
 30
0.000000
  70
    32
  0
VERTEX
  8
0
  5
207B
 10
104.330
 20
110.787
 30
0.000000
  70
    32
  0
VERTEX
  8
0
  5
207C
 10
104.341
 20
110.796
 30
0.000000
  70
    32
  0
VERTEX
  8
0
  5
207D
 10
104.352
 20
110.805
 30
0.000000
  70
    32
  0
VERTEX
  8
0
  5
207E
 10
104.362
 20
110.814
 30
0.000000
  70
    32
  0
VERTEX
  8
0
  5
207F
 10
104.373
 20
110.823
 30
0.000000
  70
    32
  0
VERTEX
  8
0
  5
2080
 10
104.384
 20
110.831
 30
0.000000
  70
    32
  0
VERTEX
  8
0
  5
2081
 10
104.395
 20
110.840
 30
0.000000
  70
    32
  0
VERTEX
  8
0
  5
2082
 10
104.406
 20
110.848
 30
0.000000
  70
    32
  0
VERTEX
  8
0
  5
2083
 10
104.417
 20
110.856
 30
0.000000
  70
    32
  0
VERTEX
  8
0
  5
2084
 10
104.428
 20
110.864
 30
0.000000
  70
    32
  0
VERTEX
  8
0
  5
2085
 10
104.439
 20
110.871
 30
0.000000
  70
    32
  0
VERTEX
  8
0
  5
2086
 10
104.450
 20
110.879
 30
0.000000
  70
    32
  0
VERTEX
  8
0
  5
2087
 10
104.462
 20
110.886
 30
0.000000
  70
    32
  0
VERTEX
  8
0
  5
2088
 10
104.473
 20
110.893
 30
0.000000
  70
    32
  0
VERTEX
  8
0
  5
2089
 10
104.485
 20
110.899
 30
0.000000
  70
    32
  0
VERTEX
  8
0
  5
208A
 10
104.496
 20
110.906
 30
0.000000
  70
    32
  0
VERTEX
  8
0
  5
208B
 10
104.508
 20
110.912
 30
0.000000
  70
    32
  0
VERTEX
  8
0
  5
208C
 10
104.519
 20
110.918
 30
0.000000
  70
    32
  0
VERTEX
  8
0
  5
208D
 10
104.531
 20
110.924
 30
0.000000
  70
    32
  0
VERTEX
  8
0
  5
208E
 10
104.542
 20
110.930
 30
0.000000
  70
    32
  0
VERTEX
  8
0
  5
208F
 10
104.554
 20
110.935
 30
0.000000
  70
    32
  0
VERTEX
  8
0
  5
2090
 10
104.566
 20
110.941
 30
0.000000
  70
    32
  0
VERTEX
  8
0
  5
2091
 10
104.578
 20
110.946
 30
0.000000
  70
    32
  0
VERTEX
  8
0
  5
2092
 10
104.590
 20
110.950
 30
0.000000
  70
    32
  0
VERTEX
  8
0
  5
2093
 10
104.601
 20
110.955
 30
0.000000
  70
    32
  0
VERTEX
  8
0
  5
2094
 10
104.613
 20
110.959
 30
0.000000
  70
    32
  0
VERTEX
  8
0
  5
2095
 10
104.625
 20
110.964
 30
0.000000
  70
    32
  0
VERTEX
  8
0
  5
2096
 10
104.637
 20
110.967
 30
0.000000
  70
    32
  0
VERTEX
  8
0
  5
2097
 10
104.649
 20
110.971
 30
0.000000
  70
    32
  0
VERTEX
  8
0
  5
2098
 10
104.661
 20
110.975
 30
0.000000
  70
    32
  0
VERTEX
  8
0
  5
2099
 10
104.673
 20
110.978
 30
0.000000
  70
    32
  0
VERTEX
  8
0
  5
209A
 10
104.686
 20
110.981
 30
0.000000
  70
    32
  0
VERTEX
  8
0
  5
209B
 10
104.698
 20
110.984
 30
0.000000
  70
    32
  0
VERTEX
  8
0
  5
209C
 10
104.710
 20
110.986
 30
0.000000
  70
    32
  0
VERTEX
  8
0
  5
209D
 10
104.722
 20
110.989
 30
0.000000
  70
    32
  0
VERTEX
  8
0
  5
209E
 10
104.734
 20
110.991
 30
0.000000
  70
    32
  0
VERTEX
  8
0
  5
209F
 10
104.746
 20
110.993
 30
0.000000
  70
    32
  0
VERTEX
  8
0
  5
20A0
 10
104.759
 20
110.994
 30
0.000000
  70
    32
  0
VERTEX
  8
0
  5
20A1
 10
104.771
 20
110.996
 30
0.000000
  70
    32
  0
VERTEX
  8
0
  5
20A2
 10
104.783
 20
110.997
 30
0.000000
  70
    32
  0
VERTEX
  8
0
  5
20A3
 10
104.795
 20
110.998
 30
0.000000
  70
    32
  0
VERTEX
  8
0
  5
20A4
 10
104.808
 20
110.999
 30
0.000000
  70
    32
  0
VERTEX
  8
0
  5
20A5
 10
104.820
 20
111.000
 30
0.000000
  70
    32
  0
VERTEX
  8
0
  5
20A6
 10
104.832
 20
111.000
 30
0.000000
  70
    32
  0
VERTEX
  8
0
  5
20A7
 10
104.844
 20
111.000
 30
0.000000
  70
    32
  0
SEQEND
  8
0
  5
20A8
  0
LINE
  5
1975
  8
0
 10
103.844425074924
 20
109.5
 30
0.0
 11
103.844425074924
 21
102.49999999999849
 31
0.0
  0
ARC
  5
1976
  8
0
 10
105.96499154918961
 20
107.6925304673795
 30
0.0
 40
1.0
 50
90.000000000000483
 51
180.0
  0
LINE
  5
1977
  8
0
 10
104.96499154918961
 20
107.6925304673795
 30
0.0
 11
104.96499154918961
 21
104.0
 31
0.0
  0
LINE
  5
1978
  8
0
 10
112.1555749250759
 20
111.0
 30
0.0
 11
111.3558911457271
 21
108.63964941244549
 31
0.0
  0
LINE
  5
1979
  8
0
 10
112.0350084508103
 20
107.6925304673795
 30
0.0
 11
113.1555749250759
 21
109.5
 31
0.0
  0
LINE
  5
197B
  8
0
 10
103.844425074924
 20
109.5
 30
0.0
 11
104.96499154918961
 21
107.6925304673795
 31
0.0
  0
LINE
  5
197C
  8
0
 10
104.844425074924
 20
111.0
 30
0.0
 11
105.9649915491897
 21
108.6925304673796
 31
0.0
  0
LINE
  5
1982
  8
0
 10
104.96499154918961
 20
104.0
 30
0.0
 11
103.844425074924
 21
102.49999999999849
 31
0.0
  0
LINE
  5
1983
  8
0
 10
105.96499154918961
 20
103.0
 30
0.0
 11
104.844425074924
 21
100.99999999999849
 31
0.0
  0
LINE
  5
1985
  8
0
 10
112.0350084508103
 20
104.0
 30
0.0
 11
113.1555749250759
 21
102.49999999999849
 31
0.0
  0
LINE
  5
1986
  8
0
 10
111.0350084508103
 20
103.0
 30
0.0
 11
112.1555749250759
 21
100.99999999999849
 31
0.0
  0
ARC
  5
1990
  8
0
 10
52.300000037359979
 20
41.02534145845933
 30
0.0
 40
1.1999999999999991
 50
305.6874738861348
 51
54.312955212552353
  0
TEXT
  5
1A61
  8
0
 62
     3
 10
0.0
 20
0.0
 30
0.0
 40
10.0
  1
BJ773-06040-SUS
  7
STANDARD1
  0
LINE
  5
1B00
  8
0
 10
44.499999999999979
 20
82.0
 30
0.0
 11
44.499999999999979
 21
101.0
 31
0.0
  0
LINE
  5
1B01
  8
0
 10
55.499999999999979
 20
101.0
 30
0.0
 11
55.499999999999979
 21
82.0
 31
0.0
  0
LINE
  5
1B04
  8
0
 10
103.0
 20
81.999999999999986
 30
0.0
 11
102.9999999999999
 21
110.0
 31
0.0
  0
LINE
  5
1B05
  8
0
 10
114.0
 20
81.999999999999986
 30
0.0
 11
114.0
 21
110.0
 31
0.0
  0
ARC
  5
1B95
  8
0
 10
49.999999999999972
 20
149.5
 30
0.0
 40
5.5
 50
55.952694506586703
 51
124.0473054934133
  0
ARC
  5
1B96
  8
0
 10
53.919140376013907
 20
155.30002919933139
 30
0.0
 40
1.5
 50
235.95269450658679
 51
267.58702154851591
  0
ARC
  5
1B97
  8
0
 10
53.919140376013921
 20
143.6999708006685
 30
0.0
 40
1.5
 50
92.412978451484065
 51
124.0473054934137
  0
ARC
  5
1B99
  8
0
 10
46.080859623986044
 20
143.6999708006685
 30
0.0
 40
1.5
 50
55.95269450658698
 51
87.587021548516176
  0
ARC
  5
1B9A
  8
0
 10
46.080859623986044
 20
155.30002919933139
 30
0.0
 40
1.5
 50
272.41297845148392
 51
304.04730549341321
  0
ARC
  5
1B9B
  8
0
 10
49.999999999999972
 20
149.5
 30
0.0
 40
5.5
 50
235.95269450658671
 51
304.04730549341349
  0
ARC
  5
1BA6
  8
0
 10
57.711608845878352
 20
104.26220354722309
 30
0.0
 40
4.0569661539432289
 50
198.12674337949019
 51
233.5233568839958
  0
POLYLINE
  5
1BA9
  8
0
 10
44.700237486321683
 20
100.9999999999999
 30
0.0
 66
     1
 70
     8
  0
VERTEX
  8
0
  5
20A9
 10
44.7002
 20
101.000
 30
0.000000
  70
    32
  0
VERTEX
  8
0
  5
20AA
 10
44.7000
 20
101.025
 30
0.000000
  70
    32
  0
VERTEX
  8
0
  5
20AB
 10
44.6995
 20
101.049
 30
0.000000
  70
    32
  0
VERTEX
  8
0
  5
20AC
 10
44.6985
 20
101.074
 30
0.000000
  70
    32
  0
VERTEX
  8
0
  5
20AD
 10
44.6972
 20
101.098
 30
0.000000
  70
    32
  0
VERTEX
  8
0
  5
20AE
 10
44.6955
 20
101.123
 30
0.000000
  70
    32
  0
VERTEX
  8
0
  5
20AF
 10
44.6934
 20
101.147
 30
0.000000
  70
    32
  0
VERTEX
  8
0
  5
20B0
 10
44.6910
 20
101.172
 30
0.000000
  70
    32
  0
VERTEX
  8
0
  5
20B1
 10
44.6882
 20
101.196
 30
0.000000
  70
    32
  0
VERTEX
  8
0
  5
20B2
 10
44.6850
 20
101.220
 30
0.000000
  70
    32
  0
VERTEX
  8
0
  5
20B3
 10
44.6814
 20
101.245
 30
0.000000
  70
    32
  0
VERTEX
  8
0
  5
20B4
 10
44.6774
 20
101.269
 30
0.000000
  70
    32
  0
VERTEX
  8
0
  5
20B5
 10
44.6731
 20
101.293
 30
0.000000
  70
    32
  0
VERTEX
  8
0
  5
20B6
 10
44.6684
 20
101.318
 30
0.000000
  70
    32
  0
VERTEX
  8
0
  5
20B7
 10
44.6633
 20
101.342
 30
0.000000
  70
    32
  0
VERTEX
  8
0
  5
20B8
 10
44.6579
 20
101.366
 30
0.000000
  70
    32
  0
VERTEX
  8
0
  5
20B9
 10
44.6520
 20
101.390
 30
0.000000
  70
    32
  0
VERTEX
  8
0
  5
20BA
 10
44.6459
 20
101.414
 30
0.000000
  70
    32
  0
VERTEX
  8
0
  5
20BB
 10
44.6393
 20
101.438
 30
0.000000
  70
    32
  0
VERTEX
  8
0
  5
20BC
 10
44.6324
 20
101.462
 30
0.000000
  70
    32
  0
VERTEX
  8
0
  5
20BD
 10
44.6251
 20
101.486
 30
0.000000
  70
    32
  0
VERTEX
  8
0
  5
20BE
 10
44.6174
 20
101.510
 30
0.000000
  70
    32
  0
VERTEX
  8
0
  5
20BF
 10
44.6094
 20
101.533
 30
0.000000
  70
    32
  0
VERTEX
  8
0
  5
20C0
 10
44.6010
 20
101.557
 30
0.000000
  70
    32
  0
VERTEX
  8
0
  5
20C1
 10
44.5922
 20
101.581
 30
0.000000
  70
    32
  0
VERTEX
  8
0
  5
20C2
 10
44.5831
 20
101.604
 30
0.000000
  70
    32
  0
VERTEX
  8
0
  5
20C3
 10
44.5737
 20
101.627
 30
0.000000
  70
    32
  0
VERTEX
  8
0
  5
20C4
 10
44.5638
 20
101.651
 30
0.000000
  70
    32
  0
VERTEX
  8
0
  5
20C5
 10
44.5536
 20
101.674
 30
0.000000
  70
    32
  0
VERTEX
  8
0
  5
20C6
 10
44.5431
 20
101.697
 30
0.000000
  70
    32
  0
VERTEX
  8
0
  5
20C7
 10
44.5322
 20
101.720
 30
0.000000
  70
    32
  0
VERTEX
  8
0
  5
20C8
 10
44.5209
 20
101.743
 30
0.000000
  70
    32
  0
VERTEX
  8
0
  5
20C9
 10
44.5093
 20
101.765
 30
0.000000
  70
    32
  0
VERTEX
  8
0
  5
20CA
 10
44.4974
 20
101.788
 30
0.000000
  70
    32
  0
VERTEX
  8
0
  5
20CB
 10
44.4851
 20
101.810
 30
0.000000
  70
    32
  0
VERTEX
  8
0
  5
20CC
 10
44.4724
 20
101.833
 30
0.000000
  70
    32
  0
VERTEX
  8
0
  5
20CD
 10
44.4594
 20
101.855
 30
0.000000
  70
    32
  0
VERTEX
  8
0
  5
20CE
 10
44.4461
 20
101.877
 30
0.000000
  70
    32
  0
VERTEX
  8
0
  5
20CF
 10
44.4324
 20
101.899
 30
0.000000
  70
    32
  0
VERTEX
  8
0
  5
20D0
 10
44.4184
 20
101.921
 30
0.000000
  70
    32
  0
VERTEX
  8
0
  5
20D1
 10
44.4041
 20
101.943
 30
0.000000
  70
    32
  0
VERTEX
  8
0
  5
20D2
 10
44.3894
 20
101.964
 30
0.000000
  70
    32
  0
VERTEX
  8
0
  5
20D3
 10
44.3744
 20
101.986
 30
0.000000
  70
    32
  0
VERTEX
  8
0
  5
20D4
 10
44.3591
 20
102.007
 30
0.000000
  70
    32
  0
VERTEX
  8
0
  5
20D5
 10
44.3434
 20
102.028
 30
0.000000
  70
    32
  0
VERTEX
  8
0
  5
20D6
 10
44.3274
 20
102.049
 30
0.000000
  70
    32
  0
VERTEX
  8
0
  5
20D7
 10
44.3111
 20
102.070
 30
0.000000
  70
    32
  0
VERTEX
  8
0
  5
20D8
 10
44.2945
 20
102.091
 30
0.000000
  70
    32
  0
VERTEX
  8
0
  5
20D9
 10
44.2776
 20
102.111
 30
0.000000
  70
    32
  0
VERTEX
  8
0
  5
20DA
 10
44.2603
 20
102.131
 30
0.000000
  70
    32
  0
VERTEX
  8
0
  5
20DB
 10
44.2427
 20
102.152
 30
0.000000
  70
    32
  0
VERTEX
  8
0
  5
20DC
 10
44.2249
 20
102.172
 30
0.000000
  70
    32
  0
VERTEX
  8
0
  5
20DD
 10
44.2067
 20
102.191
 30
0.000000
  70
    32
  0
VERTEX
  8
0
  5
20DE
 10
44.1882
 20
102.211
 30
0.000000
  70
    32
  0
VERTEX
  8
0
  5
20DF
 10
44.1694
 20
102.230
 30
0.000000
  70
    32
  0
VERTEX
  8
0
  5
20E0
 10
44.1503
 20
102.250
 30
0.000000
  70
    32
  0
VERTEX
  8
0
  5
20E1
 10
44.1310
 20
102.269
 30
0.000000
  70
    32
  0
VERTEX
  8
0
  5
20E2
 10
44.1113
 20
102.288
 30
0.000000
  70
    32
  0
VERTEX
  8
0
  5
20E3
 10
44.0913
 20
102.306
 30
0.000000
  70
    32
  0
VERTEX
  8
0
  5
20E4
 10
44.0711
 20
102.325
 30
0.000000
  70
    32
  0
VERTEX
  8
0
  5
20E5
 10
44.0505
 20
102.343
 30
0.000000
  70
    32
  0
VERTEX
  8
0
  5
20E6
 10
44.0297
 20
102.361
 30
0.000000
  70
    32
  0
VERTEX
  8
0
  5
20E7
 10
44.0087
 20
102.379
 30
0.000000
  70
    32
  0
VERTEX
  8
0
  5
20E8
 10
43.9873
 20
102.397
 30
0.000000
  70
    32
  0
VERTEX
  8
0
  5
20E9
 10
43.9657
 20
102.414
 30
0.000000
  70
    32
  0
VERTEX
  8
0
  5
20EA
 10
43.9438
 20
102.431
 30
0.000000
  70
    32
  0
VERTEX
  8
0
  5
20EB
 10
43.9216
 20
102.448
 30
0.000000
  70
    32
  0
VERTEX
  8
0
  5
20EC
 10
43.8992
 20
102.465
 30
0.000000
  70
    32
  0
VERTEX
  8
0
  5
20ED
 10
43.8765
 20
102.482
 30
0.000000
  70
    32
  0
VERTEX
  8
0
  5
20EE
 10
43.8536
 20
102.498
 30
0.000000
  70
    32
  0
VERTEX
  8
0
  5
20EF
 10
43.8304
 20
102.514
 30
0.000000
  70
    32
  0
VERTEX
  8
0
  5
20F0
 10
43.8070
 20
102.530
 30
0.000000
  70
    32
  0
VERTEX
  8
0
  5
20F1
 10
43.7833
 20
102.546
 30
0.000000
  70
    32
  0
VERTEX
  8
0
  5
20F2
 10
43.7594
 20
102.561
 30
0.000000
  70
    32
  0
VERTEX
  8
0
  5
20F3
 10
43.7352
 20
102.577
 30
0.000000
  70
    32
  0
VERTEX
  8
0
  5
20F4
 10
43.7109
 20
102.592
 30
0.000000
  70
    32
  0
VERTEX
  8
0
  5
20F5
 10
43.6863
 20
102.606
 30
0.000000
  70
    32
  0
VERTEX
  8
0
  5
20F6
 10
43.6614
 20
102.621
 30
0.000000
  70
    32
  0
VERTEX
  8
0
  5
20F7
 10
43.6364
 20
102.635
 30
0.000000
  70
    32
  0
VERTEX
  8
0
  5
20F8
 10
43.6111
 20
102.649
 30
0.000000
  70
    32
  0
VERTEX
  8
0
  5
20F9
 10
43.5856
 20
102.663
 30
0.000000
  70
    32
  0
VERTEX
  8
0
  5
20FA
 10
43.5599
 20
102.676
 30
0.000000
  70
    32
  0
VERTEX
  8
0
  5
20FB
 10
43.5340
 20
102.690
 30
0.000000
  70
    32
  0
VERTEX
  8
0
  5
20FC
 10
43.5079
 20
102.703
 30
0.000000
  70
    32
  0
VERTEX
  8
0
  5
20FD
 10
43.4816
 20
102.715
 30
0.000000
  70
    32
  0
VERTEX
  8
0
  5
20FE
 10
43.4551
 20
102.728
 30
0.000000
  70
    32
  0
VERTEX
  8
0
  5
20FF
 10
43.4284
 20
102.740
 30
0.000000
  70
    32
  0
VERTEX
  8
0
  5
2100
 10
43.4016
 20
102.752
 30
0.000000
  70
    32
  0
VERTEX
  8
0
  5
2101
 10
43.3745
 20
102.764
 30
0.000000
  70
    32
  0
VERTEX
  8
0
  5
2102
 10
43.3473
 20
102.775
 30
0.000000
  70
    32
  0
VERTEX
  8
0
  5
2103
 10
43.3199
 20
102.786
 30
0.000000
  70
    32
  0
VERTEX
  8
0
  5
2104
 10
43.2923
 20
102.797
 30
0.000000
  70
    32
  0
VERTEX
  8
0
  5
2105
 10
43.2646
 20
102.808
 30
0.000000
  70
    32
  0
VERTEX
  8
0
  5
2106
 10
43.2367
 20
102.818
 30
0.000000
  70
    32
  0
VERTEX
  8
0
  5
2107
 10
43.2086
 20
102.828
 30
0.000000
  70
    32
  0
VERTEX
  8
0
  5
2108
 10
43.1804
 20
102.838
 30
0.000000
  70
    32
  0
VERTEX
  8
0
  5
2109
 10
43.1520
 20
102.848
 30
0.000000
  70
    32
  0
VERTEX
  8
0
  5
210A
 10
43.1235
 20
102.857
 30
0.000000
  70
    32
  0
VERTEX
  8
0
  5
210B
 10
43.0949
 20
102.866
 30
0.000000
  70
    32
  0
VERTEX
  8
0
  5
210C
 10
43.0661
 20
102.875
 30
0.000000
  70
    32
  0
VERTEX
  8
0
  5
210D
 10
43.0372
 20
102.883
 30
0.000000
  70
    32
  0
VERTEX
  8
0
  5
210E
 10
43.0081
 20
102.891
 30
0.000000
  70
    32
  0
VERTEX
  8
0
  5
210F
 10
42.9790
 20
102.899
 30
0.000000
  70
    32
  0
VERTEX
  8
0
  5
2110
 10
42.9497
 20
102.907
 30
0.000000
  70
    32
  0
VERTEX
  8
0
  5
2111
 10
42.9203
 20
102.914
 30
0.000000
  70
    32
  0
VERTEX
  8
0
  5
2112
 10
42.8908
 20
102.921
 30
0.000000
  70
    32
  0
VERTEX
  8
0
  5
2113
 10
42.8612
 20
102.928
 30
0.000000
  70
    32
  0
VERTEX
  8
0
  5
2114
 10
42.8315
 20
102.934
 30
0.000000
  70
    32
  0
VERTEX
  8
0
  5
2115
 10
42.8016
 20
102.940
 30
0.000000
  70
    32
  0
VERTEX
  8
0
  5
2116
 10
42.7717
 20
102.946
 30
0.000000
  70
    32
  0
VERTEX
  8
0
  5
2117
 10
42.7418
 20
102.951
 30
0.000000
  70
    32
  0
VERTEX
  8
0
  5
2118
 10
42.7117
 20
102.957
 30
0.000000
  70
    32
  0
VERTEX
  8
0
  5
2119
 10
42.6815
 20
102.962
 30
0.000000
  70
    32
  0
VERTEX
  8
0
  5
211A
 10
42.6513
 20
102.966
 30
0.000000
  70
    32
  0
VERTEX
  8
0
  5
211B
 10
42.6210
 20
102.971
 30
0.000000
  70
    32
  0
VERTEX
  8
0
  5
211C
 10
42.5907
 20
102.975
 30
0.000000
  70
    32
  0
VERTEX
  8
0
  5
211D
 10
42.5602
 20
102.978
 30
0.000000
  70
    32
  0
VERTEX
  8
0
  5
211E
 10
42.5298
 20
102.982
 30
0.000000
  70
    32
  0
VERTEX
  8
0
  5
211F
 10
42.4993
 20
102.985
 30
0.000000
  70
    32
  0
VERTEX
  8
0
  5
2120
 10
42.4687
 20
102.988
 30
0.000000
  70
    32
  0
VERTEX
  8
0
  5
2121
 10
42.4381
 20
102.990
 30
0.000000
  70
    32
  0
VERTEX
  8
0
  5
2122
 10
42.4074
 20
102.993
 30
0.000000
  70
    32
  0
VERTEX
  8
0
  5
2123
 10
42.3767
 20
102.995
 30
0.000000
  70
    32
  0
VERTEX
  8
0
  5
2124
 10
42.3460
 20
102.996
 30
0.000000
  70
    32
  0
VERTEX
  8
0
  5
2125
 10
42.3153
 20
102.998
 30
0.000000
  70
    32
  0
VERTEX
  8
0
  5
2126
 10
42.2846
 20
102.999
 30
0.000000
  70
    32
  0
VERTEX
  8
0
  5
2127
 10
42.2538
 20
102.999
 30
0.000000
  70
    32
  0
VERTEX
  8
0
  5
2128
 10
42.2230
 20
103.000
 30
0.000000
  70
    32
  0
VERTEX
  8
0
  5
2129
 10
42.1923
 20
103.000
 30
0.000000
  70
    32
  0
SEQEND
  8
0
  5
212A
  0
LINE
  5
1BAA
  8
0
 10
27.999999999999829
 20
103.0
 30
0.0
 11
46.144012579990253
 21
103.0000000000001
 31
0.0
  0
ARC
  5
1BAB
  8
0
 10
42.288391154121911
 20
104.2622035472228
 30
0.0
 40
4.0569661539427448
 50
306.47664311600249
 51
341.87325662051421
  0
ARC
  5
1BFE
  8
0
 10
52.751977304540063
 20
109.9002035022004
 30
0.0
 40
1.1054665848126659
 50
2.9414616346621449
 51
72.775479670840085
  0
LINE
  5
1BFF
  8
0
 10
53.855987420009647
 20
103.0
 30
0.0
 11
53.855987420009683
 21
109.956931229796
 31
0.0
  0
ARC
  5
1C06
  8
0
 10
47.248022695459809
 20
109.9002035022004
 30
0.0
 40
1.1054665848126659
 50
107.2245203291595
 51
177.0585383653378
  0
LINE
  5
1C07
  8
0
 10
46.144012579990232
 20
103.0
 30
0.0
 11
46.144012579990203
 21
109.956931229796
 31
0.0
  0
ENDSEC
  0
EOF
