  0
SECTION
  2
HEADER
  9
$ACADVER
  1
AC1009
  9
$INSBASE
 10
0.0
 20
0.0
 30
0.0
  9
$EXTMIN
 10
0.0
 20
-1.4802182810368341
 30
0.0
  9
$EXTMAX
 10
140.92217771278689
 20
109.005703770317
 30
0.0
  9
$LIMMIN
 10
0.0
 20
0.0
  9
$LIMMAX
 10
187.5
 20
135.0
  9
$ORTHOMODE
 70
     1
  9
$REGENMODE
 70
     1
  9
$FILLMODE
 70
     1
  9
$QTEXTMODE
 70
     0
  9
$MIRRTEXT
 70
     0
  9
$DRAGMODE
 70
     2
  9
$LTSCALE
 40
5.0
  9
$OSMODE
 70
  3071
  9
$ATTMODE
 70
     1
  9
$TEXTSIZE
 40
2.0000000000000502
  9
$TRACEWID
 40
0.05
  9
$TEXTSTYLE
  7
STANDARD
  9
$CLAYER
  8
0
  9
$CELTYPE
  6
BYLAYER
  9
$CECOLOR
 62
   256
  9
$DIMSCALE
 40
0.5
  9
$DIMASZ
 40
3.0
  9
$DIMEXO
 40
2.0
  9
$DIMDLI
 40
10.0
  9
$DIMRND
 40
0.0
  9
$DIMDLE
 40
0.0
  9
$DIMEXE
 40
2.0
  9
$DIMTP
 40
0.0
  9
$DIMTM
 40
0.0
  9
$DIMTXT
 40
3.2000000000000002
  9
$DIMCEN
 40
0.0
  9
$DIMTSZ
 40
0.0
  9
$DIMTOL
 70
     0
  9
$DIMLIM
 70
     0
  9
$DIMTIH
 70
     0
  9
$DIMTOH
 70
     0
  9
$DIMSE1
 70
     0
  9
$DIMSE2
 70
     0
  9
$DIMTAD
 70
     1
  9
$DIMZIN
 70
     0
  9
$DIMBLK
  1

  9
$DIMASO
 70
     0
  9
$DIMSHO
 70
     0
  9
$DIMPOST
  1

  9
$DIMAPOST
  1

  9
$DIMALT
 70
     0
  9
$DIMALTD
 70
     2
  9
$DIMALTF
 40
25.399999999999999
  9
$DIMLFAC
 40
1.0
  9
$DIMTOFL
 70
     1
  9
$DIMTVP
 40
1.6000000000000001
  9
$DIMTIX
 70
     1
  9
$DIMSOXD
 70
     0
  9
$DIMSAH
 70
     0
  9
$DIMBLK1
  1

  9
$DIMBLK2
  1

  9
$DIMSTYLE
  2
STANDARD
  9
$DIMCLRD
 70
     0
  9
$DIMCLRE
 70
     0
  9
$DIMCLRT
 70
     0
  9
$DIMTFAC
 40
1.0
  9
$DIMGAP
 40
0.09
  9
$LUNITS
 70
     2
  9
$LUPREC
 70
     4
  9
$SKETCHINC
 40
0.1
  9
$FILLETRAD
 40
0.0
  9
$AUNITS
 70
     0
  9
$AUPREC
 70
     4
  9
$MENU
  1
E:\r13\win\SUPPORT\ACAD
  9
$ELEVATION
 40
0.0
  9
$PELEVATION
 40
0.0
  9
$THICKNESS
 40
0.0
  9
$LIMCHECK
 70
     0
  9
$BLIPMODE
 70
     0
  9
$CHAMFERA
 40
0.0
  9
$CHAMFERB
 40
0.0
  9
$SKPOLY
 70
     0
  9
$TDCREATE
 40
2449840.6235763892
  9
$TDUPDATE
 40
2456598.3715016209
  9
$TDINDWG
 40
0.0000972222
  9
$TDUSRTIMER
 40
0.0000972222
  9
$USRTIMER
 70
     1
  9
$ANGBASE
 50
0.0
  9
$ANGDIR
 70
     0
  9
$PDMODE
 70
    35
  9
$PDSIZE
 40
0.0
  9
$PLINEWID
 40
0.0
  9
$COORDS
 70
     1
  9
$SPLFRAME
 70
     0
  9
$SPLINETYPE
 70
     6
  9
$SPLINESEGS
 70
     8
  9
$ATTDIA
 70
     0
  9
$ATTREQ
 70
     1
  9
$HANDLING
 70
     1
  9
$HANDSEED
  5
24E
  9
$SURFTAB1
 70
     6
  9
$SURFTAB2
 70
     6
  9
$SURFTYPE
 70
     6
  9
$SURFU
 70
     6
  9
$SURFV
 70
     6
  9
$UCSNAME
  2

  9
$UCSORG
 10
0.0
 20
0.0
 30
0.0
  9
$UCSXDIR
 10
1.0
 20
0.0
 30
0.0
  9
$UCSYDIR
 10
0.0
 20
1.0
 30
0.0
  9
$PUCSNAME
  2

  9
$PUCSORG
 10
0.0
 20
0.0
 30
0.0
  9
$PUCSXDIR
 10
1.0
 20
0.0
 30
0.0
  9
$PUCSYDIR
 10
0.0
 20
1.0
 30
0.0
  9
$USERI1
 70
     0
  9
$USERI2
 70
     1
  9
$USERI3
 70
     0
  9
$USERI4
 70
     0
  9
$USERI5
 70
     0
  9
$USERR1
 40
0.0
  9
$USERR2
 40
0.0
  9
$USERR3
 40
0.0
  9
$USERR4
 40
0.0
  9
$USERR5
 40
0.0
  9
$WORLDVIEW
 70
     1
  9
$SHADEDGE
 70
     3
  9
$SHADEDIF
 70
    70
  9
$TILEMODE
 70
     1
  9
$MAXACTVP
 70
    16
  9
$PLIMCHECK
 70
     0
  9
$PEXTMIN
 10
1.0000000000000000E+020
 20
1.0000000000000000E+020
 30
1.0000000000000000E+020
  9
$PEXTMAX
 10
-1.0000000000000000E+020
 20
-1.0000000000000000E+020
 30
-1.0000000000000000E+020
  9
$PLIMMIN
 10
0.0
 20
0.0
  9
$PLIMMAX
 10
12.0
 20
9.0
  9
$UNITMODE
 70
     0
  9
$VISRETAIN
 70
     0
  9
$PLINEGEN
 70
     0
  9
$PSLTSCALE
 70
     0
  0
ENDSEC
  0
SECTION
  2
TABLES
  0
TABLE
  2
VPORT
 70
     1
  0
VPORT
  2
*ACTIVE
 70
     0
 10
0.0
 20
0.0
 11
1.0
 21
1.0
 12
97.52905416604365
 22
66.75636307133405
 13
0.0
 23
0.0
 14
5.0
 24
5.0
 15
5.0
 25
5.0
 16
0.0
 26
0.0
 36
1.0
 17
0.0
 27
0.0
 37
0.0
 40
137.71137496815999
 41
1.831871345029239
 42
50.0
 43
0.0
 44
0.0
 50
0.0
 51
0.0
 71
     0
 72
   500
 73
     1
 74
     0
 75
     0
 76
     0
 77
     0
 78
     2
  0
ENDTAB
  0
TABLE
  2
LTYPE
 70
     3
  0
LTYPE
  2
CONTINUOUS
 70
     0
  3
Solid Line
 72
    65
 73
     0
 40
0.0
  0
LTYPE
  2
CENTER
 70
     0
  3
____ _ ____ _ ____ _ ____ _ ____ _ ____ _ ____
 72
    65
 73
     4
 40
2.0
 49
1.25
 49
-0.25
 49
0.25
 49
-0.25
  0
LTYPE
  2
PHANTOM2
 70
     0
  3
___ _ _ ___ _ _ ___ _ _ ___ _ _
 72
    65
 73
     6
 40
1.25
 49
0.625
 49
-0.125
 49
0.125
 49
-0.125
 49
0.125
 49
-0.125
  0
ENDTAB
  0
TABLE
  2
LAYER
 70
     3
  0
LAYER
  2
0
 70
     0
 62
     7
  6
CONTINUOUS
  0
LAYER
  2
1
 70
     0
 62
     1
  6
CENTER
  0
LAYER
  2
3
 70
     0
 62
     3
  6
CONTINUOUS
  0
ENDTAB
  0
TABLE
  2
STYLE
 70
     2
  0
STYLE
  2
STANDARD
 70
     0
 40
0.0
 41
1.0
 50
0.0
 71
     0
 42
2.0000000000000502
  3
ROMANS
  4
BIGFONT
  0
STYLE
  2
STANDARD1
 70
     0
 40
0.0
 41
1.0
 50
0.0
 71
     0
 42
3.0
  3
txt
  4

  0
ENDTAB
  0
TABLE
  2
VIEW
 70
     1
  0
VIEW
  2
ALL
 70
     0
 40
135.16666666666671
 10
110.6322128851541
 20
67.416666666666671
 41
0.0
 11
0.0
 21
0.0
 31
1.0
 12
0.0
 22
0.0
 32
0.0
 42
0.0
 43
0.0
 44
0.0
 50
0.0
 71
     0
  0
ENDTAB
  0
TABLE
  2
UCS
 70
     0
  0
ENDTAB
  0
TABLE
  2
APPID
 70
     3
  0
APPID
  2
ACAD
 70
     0
  0
APPID
  2
ACAD_MLEADERVER
 70
     0
  0
APPID
  2
ACAD_NAV_VCDISPLAY
 70
     0
  0
ENDTAB
  0
TABLE
  2
DIMSTYLE
 70
     1
  0
DIMSTYLE
  2
STANDARD
 70
     0
  3

  4

  5

  6

  7

 40
1.0
 41
0.18
 42
0.0625
 43
0.38
 44
0.18
 45
0.0
 46
0.0
 47
0.0
 48
0.0
140
0.18
141
0.09
142
0.0
143
25.399999999999999
144
1.0
145
0.0
146
1.0
147
0.09
 71
     0
 72
     0
 73
     1
 74
     1
 75
     0
 76
     0
 77
     0
 78
     0
170
     0
171
     2
172
     0
173
     0
174
     0
175
     0
176
     0
177
     0
178
     0
  0
ENDTAB
  0
ENDSEC
  0
SECTION
  2
BLOCKS
  0
BLOCK
  8
0
  2
$MODEL_SPACE
 70
     0
 10
0.0
 20
0.0
 30
0.0
  3
$MODEL_SPACE
  1

  0
ENDBLK
  5
104
  8
0
  0
BLOCK
 67
     1
  8
0
  2
$PAPER_SPACE
 70
     0
 10
0.0
 20
0.0
 30
0.0
  3
$PAPER_SPACE
  1

  0
ENDBLK
  5
102
 67
     1
  8
0
  0
ENDSEC
  0
SECTION
  2
ENTITIES
  0
LINE
  5
36
  8
0
 10
88.774812438165867
 20
49.494837711231902
 30
0.0
 11
88.774812438165867
 21
48.942591753253723
 31
0.0
  0
LINE
  5
37
  8
0
 10
83.474812438165813
 20
49.494837711231902
 30
0.0
 11
83.474812438165813
 21
48.942591753253708
 31
0.0
  0
LINE
  5
38
  8
0
 10
81.243332402566153
 20
59.560393683563213
 30
0.0
 11
83.474812438165813
 21
49.494837711231902
 31
0.0
  0
LINE
  5
39
  8
0
 10
91.006292473765527
 20
59.560393683563213
 30
0.0
 11
88.774812438165867
 21
49.494837711231902
 31
0.0
  0
ARC
  5
3A
  8
0
 10
78.824812438165836
 20
32.142591753253718
 30
0.0
 40
0.7
 50
180.0
 51
269.99999999999989
  0
ARC
  5
3B
  8
0
 10
93.424812438165844
 20
32.142591753253718
 30
0.0
 40
0.7
 50
270.0
 51
0.0
  0
ARC
  5
3C
  8
0
 10
93.424812438165844
 20
48.242591753253727
 30
0.0
 40
0.7
 50
0.0
 51
90.0
  0
ARC
  5
3D
  8
0
 10
78.824812438165836
 20
48.242591753253727
 30
0.0
 40
0.7
 50
90.0
 51
179.99999999999989
  0
LINE
  5
3E
  8
0
 10
94.124812438165847
 20
48.242591753253727
 30
0.0
 11
94.124812438165847
 21
32.142591753253718
 31
0.0
  0
LINE
  5
3F
  8
0
 10
78.124812438165847
 20
48.242591753253727
 30
0.0
 11
78.124812438165847
 21
32.142591753253718
 31
0.0
  0
LINE
  5
40
  8
0
 10
93.424812438165844
 20
31.442591753253719
 30
0.0
 11
78.824812438165836
 21
31.442591753253719
 31
0.0
  0
LINE
  5
41
  8
0
 10
93.424812438165844
 20
48.94259175325373
 30
0.0
 11
78.824812438165836
 21
48.942591753253701
 31
0.0
  0
ARC
  5
42
  8
0
 10
86.124812438165847
 20
60.642591753253718
 30
0.0
 40
5.0
 50
347.49999999999989
 51
192.50000000000011
  0
LINE
  5
43
  8
1
 10
86.124812438165847
 20
28.942591753253719
 30
0.0
 11
86.124812438165847
 21
68.142591753253726
 31
0.0
  0
CIRCLE
  5
44
  8
0
 10
86.124812438165847
 20
98.505703770317055
 30
0.0
 40
8.0
  0
LINE
  5
45
  8
1
 10
96.624812438165861
 20
98.505703770317055
 30
0.0
 11
75.624812438165847
 21
98.505703770317055
 31
0.0
  0
LINE
  5
46
  8
1
 10
86.124812438165847
 20
109.005703770317
 30
0.0
 11
86.124812438165847
 21
88.005703770317055
 31
0.0
  0
CIRCLE
  5
47
  8
0
 10
86.124812438165847
 20
98.505703770317055
 30
0.0
 40
6.0
  0
CIRCLE
  5
48
  8
0
 10
86.124812438165847
 20
98.505703770317055
 30
0.0
 40
5.0
  0
LINE
  5
49
  8
3
 10
86.124812438165847
 20
48.942591753253708
 30
0.0
 11
86.124812438165876
 21
43.942591753253708
 31
0.0
  0
LINE
  5
4A
  8
3
 10
85.32481243816585
 20
48.942591753253708
 30
0.0
 11
85.324812438165864
 21
43.942591753253708
 31
0.0
  0
LINE
  5
4B
  8
3
 10
84.524812438165853
 20
48.942591753253708
 30
0.0
 11
84.524812438165867
 21
43.942591753253708
 31
0.0
  0
LINE
  5
4C
  8
3
 10
83.774812438165853
 20
48.942591753253708
 30
0.0
 11
83.774812438165867
 21
43.942591753253708
 31
0.0
  0
LINE
  5
4D
  8
3
 10
83.07481243816585
 20
48.942591753253708
 30
0.0
 11
83.074812438165864
 21
43.942591753253708
 31
0.0
  0
LINE
  5
4E
  8
3
 10
82.424812438165844
 20
48.942591753253708
 30
0.0
 11
82.424812438165858
 21
43.942591753253708
 31
0.0
  0
LINE
  5
4F
  8
3
 10
81.82481243816585
 20
48.942591753253708
 30
0.0
 11
81.824812438165864
 21
43.942591753253708
 31
0.0
  0
LINE
  5
50
  8
3
 10
81.274812438165853
 20
48.942591753253708
 30
0.0
 11
81.274812438165867
 21
43.942591753253708
 31
0.0
  0
LINE
  5
51
  8
3
 10
80.774812438165853
 20
48.942591753253708
 30
0.0
 11
80.774812438165867
 21
43.942591753253708
 31
0.0
  0
LINE
  5
52
  8
3
 10
80.32481243816585
 20
48.942591753253708
 30
0.0
 11
80.324812438165864
 21
43.942591753253708
 31
0.0
  0
LINE
  5
53
  8
3
 10
79.924812438165844
 20
48.942591753253708
 30
0.0
 11
79.924812438165858
 21
43.942591753253708
 31
0.0
  0
LINE
  5
54
  8
3
 10
79.57481243816585
 20
48.942591753253708
 30
0.0
 11
79.574812438165864
 21
43.942591753253708
 31
0.0
  0
LINE
  5
55
  8
3
 10
79.274812438165853
 20
48.942591753253708
 30
0.0
 11
79.274812438165867
 21
43.942591753253708
 31
0.0
  0
LINE
  5
56
  8
3
 10
78.974812438165856
 20
48.942591753253708
 30
0.0
 11
78.97481243816587
 21
43.942591753253708
 31
0.0
  0
LINE
  5
57
  8
3
 10
78.724812438165856
 20
48.942591753253708
 30
0.0
 11
78.724812438165856
 21
43.942591753253708
 31
0.0
  0
LINE
  5
58
  8
3
 10
78.474812438165856
 20
48.848809535901957
 30
0.0
 11
78.47481243816587
 21
43.942591753253708
 31
0.0
  0
LINE
  5
59
  8
3
 10
78.274812438165853
 20
48.675604455147003
 30
0.0
 11
78.274812438165867
 21
43.942591753253708
 31
0.0
  0
LINE
  5
5A
  8
3
 10
93.974812438165827
 20
48.675604455147003
 30
0.0
 11
93.974812438165827
 21
43.942591753253708
 31
0.0
  0
LINE
  5
5B
  8
3
 10
93.774812438165839
 20
48.848809535901957
 30
0.0
 11
93.774812438165824
 21
43.942591753253708
 31
0.0
  0
LINE
  5
5C
  8
3
 10
93.524812438165824
 20
48.942591753253708
 30
0.0
 11
93.524812438165824
 21
43.942591753253708
 31
0.0
  0
LINE
  5
5D
  8
3
 10
93.274812438165824
 20
48.942591753253708
 30
0.0
 11
93.274812438165824
 21
43.942591753253708
 31
0.0
  0
LINE
  5
5E
  8
3
 10
92.974812438165841
 20
48.942591753253708
 30
0.0
 11
92.974812438165813
 21
43.942591753253708
 31
0.0
  0
LINE
  5
5F
  8
3
 10
92.674812438165844
 20
48.942591753253708
 30
0.0
 11
92.67481243816583
 21
43.942591753253708
 31
0.0
  0
LINE
  5
60
  8
3
 10
92.324812438165836
 20
48.942591753253708
 30
0.0
 11
92.324812438165836
 21
43.942591753253708
 31
0.0
  0
LINE
  5
61
  8
3
 10
91.924812438165844
 20
48.942591753253708
 30
0.0
 11
91.92481243816583
 21
43.942591753253708
 31
0.0
  0
LINE
  5
62
  8
3
 10
91.474812438165827
 20
48.942591753253708
 30
0.0
 11
91.474812438165827
 21
43.942591753253708
 31
0.0
  0
LINE
  5
63
  8
3
 10
90.974812438165841
 20
48.942591753253708
 30
0.0
 11
90.974812438165827
 21
43.942591753253708
 31
0.0
  0
LINE
  5
64
  8
3
 10
90.424812438165844
 20
48.942591753253708
 30
0.0
 11
90.42481243816583
 21
43.942591753253708
 31
0.0
  0
LINE
  5
65
  8
3
 10
89.824812438165836
 20
48.942591753253708
 30
0.0
 11
89.824812438165836
 21
43.942591753253708
 31
0.0
  0
LINE
  5
66
  8
3
 10
89.174812438165844
 20
48.942591753253708
 30
0.0
 11
89.17481243816583
 21
43.942591753253708
 31
0.0
  0
LINE
  5
67
  8
3
 10
88.474812438165841
 20
48.942591753253708
 30
0.0
 11
88.474812438165827
 21
43.942591753253708
 31
0.0
  0
LINE
  5
68
  8
3
 10
87.724812438165827
 20
48.942591753253708
 30
0.0
 11
87.724812438165827
 21
43.942591753253708
 31
0.0
  0
LINE
  5
69
  8
3
 10
86.924812438165844
 20
48.942591753253708
 30
0.0
 11
86.92481243816583
 21
43.942591753253708
 31
0.0
  0
LINE
  5
73
  8
3
 10
133.7221777127869
 20
48.942591753253708
 30
0.0
 11
133.7221777127869
 21
43.942591753253708
 31
0.0
  0
LINE
  5
74
  8
3
 10
134.522177712787
 20
48.942591753253708
 30
0.0
 11
134.52217771278691
 21
43.942591753253708
 31
0.0
  0
LINE
  5
75
  8
3
 10
135.27217771278691
 20
48.942591753253708
 30
0.0
 11
135.27217771278691
 21
43.942591753253708
 31
0.0
  0
LINE
  5
76
  8
3
 10
135.9721777127869
 20
48.942591753253708
 30
0.0
 11
135.9721777127869
 21
43.942591753253708
 31
0.0
  0
LINE
  5
77
  8
3
 10
136.62217771278691
 20
48.942591753253708
 30
0.0
 11
136.62217771278691
 21
43.942591753253708
 31
0.0
  0
LINE
  5
78
  8
3
 10
137.2221777127869
 20
48.942591753253708
 30
0.0
 11
137.2221777127869
 21
43.942591753253708
 31
0.0
  0
LINE
  5
79
  8
3
 10
137.772177712787
 20
48.942591753253708
 30
0.0
 11
137.77217771278691
 21
43.942591753253708
 31
0.0
  0
LINE
  5
7A
  8
3
 10
138.27217771278691
 20
48.942591753253708
 30
0.0
 11
138.27217771278691
 21
43.942591753253708
 31
0.0
  0
LINE
  5
7B
  8
3
 10
138.7221777127869
 20
48.942591753253708
 30
0.0
 11
138.7221777127869
 21
43.942591753253708
 31
0.0
  0
LINE
  5
7C
  8
3
 10
139.12217771278691
 20
48.942591753253708
 30
0.0
 11
139.12217771278691
 21
43.942591753253708
 31
0.0
  0
LINE
  5
7D
  8
3
 10
139.4721777127869
 20
48.942591753253708
 30
0.0
 11
139.4721777127869
 21
43.942591753253708
 31
0.0
  0
LINE
  5
7E
  8
3
 10
139.772177712787
 20
48.942591753253708
 30
0.0
 11
139.77217771278691
 21
43.942591753253708
 31
0.0
  0
LINE
  5
7F
  8
3
 10
140.0721777127869
 20
48.942591753253708
 30
0.0
 11
140.0721777127869
 21
43.942591753253708
 31
0.0
  0
LINE
  5
80
  8
3
 10
140.3221777127869
 20
48.942591753253708
 30
0.0
 11
140.3221777127869
 21
43.942591753253708
 31
0.0
  0
LINE
  5
81
  8
3
 10
140.5721777127869
 20
48.848809535901957
 30
0.0
 11
140.5721777127869
 21
43.942591753253708
 31
0.0
  0
LINE
  5
82
  8
3
 10
140.772177712787
 20
48.675604455147003
 30
0.0
 11
140.77217771278691
 21
43.942591753253708
 31
0.0
  0
LINE
  5
83
  8
3
 10
125.072177712787
 20
48.675604455147003
 30
0.0
 11
125.072177712787
 21
43.942591753253708
 31
0.0
  0
LINE
  5
84
  8
3
 10
125.272177712787
 20
48.848809535901957
 30
0.0
 11
125.272177712787
 21
43.942591753253708
 31
0.0
  0
LINE
  5
85
  8
3
 10
125.5221777127869
 20
48.942591753253708
 30
0.0
 11
125.522177712787
 21
43.942591753253708
 31
0.0
  0
LINE
  5
86
  8
3
 10
125.7721777127869
 20
48.942591753253708
 30
0.0
 11
125.772177712787
 21
43.942591753253708
 31
0.0
  0
LINE
  5
87
  8
3
 10
126.0721777127869
 20
48.942591753253708
 30
0.0
 11
126.072177712787
 21
43.942591753253708
 31
0.0
  0
LINE
  5
88
  8
3
 10
126.37217771278689
 20
48.942591753253708
 30
0.0
 11
126.37217771278689
 21
43.942591753253708
 31
0.0
  0
LINE
  5
89
  8
3
 10
126.7221777127869
 20
48.942591753253708
 30
0.0
 11
126.7221777127869
 21
43.942591753253708
 31
0.0
  0
LINE
  5
8A
  8
3
 10
127.12217771278689
 20
48.942591753253708
 30
0.0
 11
127.12217771278689
 21
43.942591753253708
 31
0.0
  0
LINE
  5
8B
  8
3
 10
127.5721777127869
 20
48.942591753253708
 30
0.0
 11
127.572177712787
 21
43.942591753253708
 31
0.0
  0
LINE
  5
8C
  8
3
 10
128.07217771278701
 20
48.942591753253708
 30
0.0
 11
128.07217771278701
 21
43.942591753253708
 31
0.0
  0
LINE
  5
8D
  8
3
 10
128.62217771278691
 20
48.942591753253708
 30
0.0
 11
128.62217771278699
 21
43.942591753253708
 31
0.0
  0
LINE
  5
8E
  8
3
 10
129.2221777127869
 20
48.942591753253708
 30
0.0
 11
129.2221777127869
 21
43.942591753253708
 31
0.0
  0
LINE
  5
8F
  8
3
 10
129.87217771278691
 20
48.942591753253708
 30
0.0
 11
129.87217771278699
 21
43.942591753253708
 31
0.0
  0
LINE
  5
90
  8
3
 10
130.5721777127869
 20
48.942591753253708
 30
0.0
 11
130.5721777127869
 21
43.942591753253708
 31
0.0
  0
LINE
  5
91
  8
3
 10
131.32217771278701
 20
48.942591753253708
 30
0.0
 11
131.32217771278701
 21
43.942591753253708
 31
0.0
  0
LINE
  5
92
  8
3
 10
132.12217771278691
 20
48.942591753253708
 30
0.0
 11
132.12217771278699
 21
43.942591753253708
 31
0.0
  0
LINE
  5
93
  8
3
 10
132.92217771278689
 20
48.942591753253708
 30
0.0
 11
132.922177712787
 21
43.942591753253708
 31
0.0
  0
LINE
  5
94
  8
1
 10
132.92217771278689
 20
28.942591753253719
 30
0.0
 11
132.92217771278689
 21
68.142591753253726
 31
0.0
  0
ARC
  5
95
  8
0
 10
132.92217771278689
 20
60.642591753253718
 30
0.0
 40
5.0
 50
347.49999999999989
 51
192.50000000000011
  0
LINE
  5
96
  8
0
 10
140.2221777127869
 20
48.94259175325373
 30
0.0
 11
125.62217771278689
 21
48.942591753253701
 31
0.0
  0
LINE
  5
97
  8
0
 10
140.2221777127869
 20
31.442591753253719
 30
0.0
 11
125.62217771278689
 21
31.442591753253719
 31
0.0
  0
LINE
  5
98
  8
0
 10
124.9221777127869
 20
48.242591753253727
 30
0.0
 11
124.9221777127869
 21
32.142591753253718
 31
0.0
  0
LINE
  5
99
  8
0
 10
140.92217771278689
 20
48.242591753253727
 30
0.0
 11
140.92217771278689
 21
32.142591753253718
 31
0.0
  0
ARC
  5
9A
  8
0
 10
125.62217771278689
 20
48.242591753253727
 30
0.0
 40
0.7
 50
90.0
 51
179.99999999999989
  0
ARC
  5
9B
  8
0
 10
140.2221777127869
 20
48.242591753253727
 30
0.0
 40
0.7
 50
0.0
 51
90.0
  0
ARC
  5
9C
  8
0
 10
140.2221777127869
 20
32.142591753253718
 30
0.0
 40
0.7
 50
270.0
 51
0.0
  0
ARC
  5
9D
  8
0
 10
125.62217771278689
 20
32.142591753253718
 30
0.0
 40
0.7
 50
180.0
 51
269.99999999999989
  0
LINE
  5
9E
  8
0
 10
137.8036577483866
 20
59.560393683563213
 30
0.0
 11
135.57217771278701
 21
49.494837711231902
 31
0.0
  0
LINE
  5
9F
  8
0
 10
128.04069767718721
 20
59.560393683563213
 30
0.0
 11
130.27217771278691
 21
49.494837711231902
 31
0.0
  0
LINE
  5
A0
  8
0
 10
130.27217771278691
 20
49.494837711231902
 30
0.0
 11
130.27217771278691
 21
48.942591753253708
 31
0.0
  0
LINE
  5
A1
  8
0
 10
135.57217771278701
 20
49.494837711231902
 30
0.0
 11
135.57217771278701
 21
48.942591753253723
 31
0.0
  0
LINE
  5
A2
  8
0
 10
36.67744716354472
 20
49.494837711231902
 30
0.0
 11
36.67744716354472
 21
48.942591753253723
 31
0.0
  0
LINE
  5
A3
  8
0
 10
41.977447163544781
 20
49.494837711231902
 30
0.0
 11
41.977447163544781
 21
48.942591753253708
 31
0.0
  0
LINE
  5
A4
  8
0
 10
44.208927199144419
 20
59.560393683563213
 30
0.0
 11
41.977447163544781
 21
49.494837711231902
 31
0.0
  0
LINE
  5
A5
  8
0
 10
34.445967127945067
 20
59.560393683563213
 30
0.0
 11
36.67744716354472
 21
49.494837711231902
 31
0.0
  0
ARC
  5
A6
  8
0
 10
46.627447163544737
 20
32.142591753253718
 30
0.0
 40
0.7
 50
270.00000000000011
 51
360.0
  0
ARC
  5
A7
  8
0
 10
32.027447163544728
 20
32.142591753253718
 30
0.0
 40
0.7
 50
180.0
 51
270.00000000000011
  0
ARC
  5
A8
  8
0
 10
32.027447163544728
 20
48.242591753253727
 30
0.0
 40
0.7
 50
90.000000000000028
 51
180.0
  0
ARC
  5
A9
  8
0
 10
46.627447163544737
 20
48.242591753253727
 30
0.0
 40
0.7
 50
0.0000000000000763
 51
90.000000000000028
  0
LINE
  5
AA
  8
0
 10
31.32744716354475
 20
48.242591753253727
 30
0.0
 11
31.32744716354475
 21
32.142591753253718
 31
0.0
  0
LINE
  5
AB
  8
0
 10
47.327447163544733
 20
48.242591753253727
 30
0.0
 11
47.327447163544733
 21
32.142591753253718
 31
0.0
  0
LINE
  5
AC
  8
0
 10
32.027447163544728
 20
31.442591753253719
 30
0.0
 11
46.627447163544737
 21
31.442591753253719
 31
0.0
  0
LINE
  5
AD
  8
0
 10
32.027447163544728
 20
48.94259175325373
 30
0.0
 11
46.627447163544737
 21
48.942591753253701
 31
0.0
  0
ARC
  5
AE
  8
0
 10
39.327447163544747
 20
60.642591753253718
 30
0.0
 40
5.0
 50
347.49999999999989
 51
192.50000000000011
  0
LINE
  5
AF
  8
1
 10
39.327447163544747
 20
28.942591753253719
 30
0.0
 11
39.327447163544747
 21
68.142591753253726
 31
0.0
  0
LINE
  5
B0
  8
3
 10
39.327447163544747
 20
48.942591753253708
 30
0.0
 11
39.327447163544718
 21
43.942591753253708
 31
0.0
  0
LINE
  5
B1
  8
3
 10
40.12744716354473
 20
48.942591753253708
 30
0.0
 11
40.127447163544701
 21
43.942591753253708
 31
0.0
  0
LINE
  5
B2
  8
3
 10
40.927447163544713
 20
48.942591753253708
 30
0.0
 11
40.927447163544713
 21
43.942591753253708
 31
0.0
  0
LINE
  5
B3
  8
3
 10
41.677447163544713
 20
48.942591753253708
 30
0.0
 11
41.677447163544713
 21
43.942591753253708
 31
0.0
  0
LINE
  5
B4
  8
3
 10
42.377447163544723
 20
48.942591753253708
 30
0.0
 11
42.377447163544701
 21
43.942591753253708
 31
0.0
  0
LINE
  5
B5
  8
3
 10
43.027447163544743
 20
48.942591753253708
 30
0.0
 11
43.027447163544743
 21
43.942591753253708
 31
0.0
  0
LINE
  5
B6
  8
3
 10
43.627447163544723
 20
48.942591753253708
 30
0.0
 11
43.627447163544701
 21
43.942591753253708
 31
0.0
  0
LINE
  5
B7
  8
3
 10
44.177447163544713
 20
48.942591753253708
 30
0.0
 11
44.177447163544713
 21
43.942591753253708
 31
0.0
  0
LINE
  5
B8
  8
3
 10
44.677447163544727
 20
48.942591753253708
 30
0.0
 11
44.677447163544713
 21
43.942591753253708
 31
0.0
  0
LINE
  5
B9
  8
3
 10
45.12744716354473
 20
48.942591753253708
 30
0.0
 11
45.127447163544709
 21
43.942591753253708
 31
0.0
  0
LINE
  5
BA
  8
3
 10
45.527447163544743
 20
48.942591753253708
 30
0.0
 11
45.527447163544721
 21
43.942591753253708
 31
0.0
  0
LINE
  5
BB
  8
3
 10
45.87744716354473
 20
48.942591753253708
 30
0.0
 11
45.877447163544709
 21
43.942591753253708
 31
0.0
  0
LINE
  5
BC
  8
3
 10
46.17744716354472
 20
48.942591753253708
 30
0.0
 11
46.177447163544713
 21
43.942591753253708
 31
0.0
  0
LINE
  5
BD
  8
3
 10
46.477447163544717
 20
48.942591753253708
 30
0.0
 11
46.47744716354471
 21
43.942591753253708
 31
0.0
  0
LINE
  5
BE
  8
3
 10
46.727447163544717
 20
48.942591753253708
 30
0.0
 11
46.72744716354471
 21
43.942591753253708
 31
0.0
  0
LINE
  5
BF
  8
3
 10
46.977447163544717
 20
48.848809535901957
 30
0.0
 11
46.977447163544703
 21
43.942591753253708
 31
0.0
  0
LINE
  5
C0
  8
3
 10
47.177447163544727
 20
48.675604455147003
 30
0.0
 11
47.177447163544713
 21
43.942591753253708
 31
0.0
  0
LINE
  5
C1
  8
3
 10
31.477447163544721
 20
48.675604455147003
 30
0.0
 11
31.47744716354476
 21
43.942591753253708
 31
0.0
  0
LINE
  5
C2
  8
3
 10
31.677447163544741
 20
48.848809535901957
 30
0.0
 11
31.67744716354477
 21
43.942591753253708
 31
0.0
  0
LINE
  5
C3
  8
3
 10
31.927447163544741
 20
48.942591753253708
 30
0.0
 11
31.92744716354477
 21
43.942591753253708
 31
0.0
  0
LINE
  5
C4
  8
3
 10
32.177447163544741
 20
48.942591753253708
 30
0.0
 11
32.17744716354477
 21
43.942591753253708
 31
0.0
  0
LINE
  5
C5
  8
3
 10
32.477447163544731
 20
48.942591753253708
 30
0.0
 11
32.477447163544753
 21
43.942591753253708
 31
0.0
  0
LINE
  5
C6
  8
3
 10
32.777447163544743
 20
48.942591753253708
 30
0.0
 11
32.777447163544743
 21
43.942591753253708
 31
0.0
  0
LINE
  5
C7
  8
3
 10
33.12744716354473
 20
48.942591753253708
 30
0.0
 11
33.127447163544758
 21
43.942591753253708
 31
0.0
  0
LINE
  5
C8
  8
3
 10
33.527447163544743
 20
48.942591753253708
 30
0.0
 11
33.527447163544743
 21
43.942591753253708
 31
0.0
  0
LINE
  5
C9
  8
3
 10
33.977447163544717
 20
48.942591753253708
 30
0.0
 11
33.97744716354476
 21
43.942591753253708
 31
0.0
  0
LINE
  5
CA
  8
3
 10
34.477447163544731
 20
48.942591753253708
 30
0.0
 11
34.477447163544753
 21
43.942591753253708
 31
0.0
  0
LINE
  5
CB
  8
3
 10
35.027447163544743
 20
48.942591753253708
 30
0.0
 11
35.027447163544743
 21
43.942591753253708
 31
0.0
  0
LINE
  5
CC
  8
3
 10
35.62744716354473
 20
48.942591753253708
 30
0.0
 11
35.627447163544758
 21
43.942591753253708
 31
0.0
  0
LINE
  5
CD
  8
3
 10
36.277447163544743
 20
48.942591753253708
 30
0.0
 11
36.277447163544743
 21
43.942591753253708
 31
0.0
  0
LINE
  5
CE
  8
3
 10
36.977447163544731
 20
48.942591753253708
 30
0.0
 11
36.977447163544753
 21
43.942591753253708
 31
0.0
  0
LINE
  5
CF
  8
3
 10
37.727447163544717
 20
48.942591753253708
 30
0.0
 11
37.72744716354476
 21
43.942591753253708
 31
0.0
  0
LINE
  5
D0
  8
3
 10
38.527447163544743
 20
48.942591753253708
 30
0.0
 11
38.527447163544743
 21
43.942591753253708
 31
0.0
  0
TEXT
  5
1BD
  8
0
 62
     3
 10
0.0
 20
0.0
 30
0.0
 40
5.0
  1
BJ766-10001
  7
STANDARD1
  0
ENDSEC
  0
EOF
