  0
SECTION
  2
HEADER
  9
$ACADVER
  1
AC1009
  9
$INSBASE
 10
0.0
 20
0.0
 30
0.0
  9
$EXTMIN
 10
0.0
 20
-1.4802182810368341
 30
0.0
  9
$EXTMAX
 10
137.15837304389069
 20
108.01577904343191
 30
0.0
  9
$LIMMIN
 10
0.0
 20
0.0
  9
$LIMMAX
 10
187.5
 20
135.0
  9
$ORTHOMODE
 70
     1
  9
$REGENMODE
 70
     1
  9
$FILLMODE
 70
     1
  9
$QTEXTMODE
 70
     0
  9
$MIRRTEXT
 70
     0
  9
$DRAGMODE
 70
     2
  9
$LTSCALE
 40
5.0
  9
$OSMODE
 70
  3071
  9
$ATTMODE
 70
     1
  9
$TEXTSIZE
 40
2.0000000000000502
  9
$TRACEWID
 40
0.05
  9
$TEXTSTYLE
  7
STANDARD
  9
$CLAYER
  8
0
  9
$CELTYPE
  6
BYLAYER
  9
$CECOLOR
 62
   256
  9
$DIMSCALE
 40
0.5
  9
$DIMASZ
 40
3.0
  9
$DIMEXO
 40
2.0
  9
$DIMDLI
 40
10.0
  9
$DIMRND
 40
0.0
  9
$DIMDLE
 40
0.0
  9
$DIMEXE
 40
2.0
  9
$DIMTP
 40
0.0
  9
$DIMTM
 40
0.0
  9
$DIMTXT
 40
3.2000000000000002
  9
$DIMCEN
 40
0.0
  9
$DIMTSZ
 40
0.0
  9
$DIMTOL
 70
     0
  9
$DIMLIM
 70
     0
  9
$DIMTIH
 70
     0
  9
$DIMTOH
 70
     0
  9
$DIMSE1
 70
     0
  9
$DIMSE2
 70
     0
  9
$DIMTAD
 70
     1
  9
$DIMZIN
 70
     0
  9
$DIMBLK
  1

  9
$DIMASO
 70
     0
  9
$DIMSHO
 70
     0
  9
$DIMPOST
  1

  9
$DIMAPOST
  1

  9
$DIMALT
 70
     0
  9
$DIMALTD
 70
     2
  9
$DIMALTF
 40
25.399999999999999
  9
$DIMLFAC
 40
1.0
  9
$DIMTOFL
 70
     1
  9
$DIMTVP
 40
1.6000000000000001
  9
$DIMTIX
 70
     1
  9
$DIMSOXD
 70
     0
  9
$DIMSAH
 70
     0
  9
$DIMBLK1
  1

  9
$DIMBLK2
  1

  9
$DIMSTYLE
  2
STANDARD
  9
$DIMCLRD
 70
     0
  9
$DIMCLRE
 70
     0
  9
$DIMCLRT
 70
     0
  9
$DIMTFAC
 40
1.0
  9
$DIMGAP
 40
0.09
  9
$LUNITS
 70
     2
  9
$LUPREC
 70
     4
  9
$SKETCHINC
 40
0.1
  9
$FILLETRAD
 40
0.0
  9
$AUNITS
 70
     0
  9
$AUPREC
 70
     4
  9
$MENU
  1
E:\r13\win\SUPPORT\ACAD
  9
$ELEVATION
 40
0.0
  9
$PELEVATION
 40
0.0
  9
$THICKNESS
 40
0.0
  9
$LIMCHECK
 70
     0
  9
$BLIPMODE
 70
     0
  9
$CHAMFERA
 40
0.0
  9
$CHAMFERB
 40
0.0
  9
$SKPOLY
 70
     0
  9
$TDCREATE
 40
2449840.6235532411
  9
$TDUPDATE
 40
2456598.3714349889
  9
$TDINDWG
 40
0.0001033102
  9
$TDUSRTIMER
 40
0.0001033102
  9
$USRTIMER
 70
     1
  9
$ANGBASE
 50
0.0
  9
$ANGDIR
 70
     0
  9
$PDMODE
 70
    35
  9
$PDSIZE
 40
0.0
  9
$PLINEWID
 40
0.0
  9
$COORDS
 70
     1
  9
$SPLFRAME
 70
     0
  9
$SPLINETYPE
 70
     6
  9
$SPLINESEGS
 70
     8
  9
$ATTDIA
 70
     0
  9
$ATTREQ
 70
     1
  9
$HANDLING
 70
     1
  9
$HANDSEED
  5
260
  9
$SURFTAB1
 70
     6
  9
$SURFTAB2
 70
     6
  9
$SURFTYPE
 70
     6
  9
$SURFU
 70
     6
  9
$SURFV
 70
     6
  9
$UCSNAME
  2

  9
$UCSORG
 10
0.0
 20
0.0
 30
0.0
  9
$UCSXDIR
 10
1.0
 20
0.0
 30
0.0
  9
$UCSYDIR
 10
0.0
 20
1.0
 30
0.0
  9
$PUCSNAME
  2

  9
$PUCSORG
 10
0.0
 20
0.0
 30
0.0
  9
$PUCSXDIR
 10
1.0
 20
0.0
 30
0.0
  9
$PUCSYDIR
 10
0.0
 20
1.0
 30
0.0
  9
$USERI1
 70
     0
  9
$USERI2
 70
     1
  9
$USERI3
 70
     0
  9
$USERI4
 70
     0
  9
$USERI5
 70
     0
  9
$USERR1
 40
0.0
  9
$USERR2
 40
0.0
  9
$USERR3
 40
0.0
  9
$USERR4
 40
0.0
  9
$USERR5
 40
0.0
  9
$WORLDVIEW
 70
     1
  9
$SHADEDGE
 70
     3
  9
$SHADEDIF
 70
    70
  9
$TILEMODE
 70
     1
  9
$MAXACTVP
 70
    16
  9
$PLIMCHECK
 70
     0
  9
$PEXTMIN
 10
1.0000000000000000E+020
 20
1.0000000000000000E+020
 30
1.0000000000000000E+020
  9
$PEXTMAX
 10
-1.0000000000000000E+020
 20
-1.0000000000000000E+020
 30
-1.0000000000000000E+020
  9
$PLIMMIN
 10
0.0
 20
0.0
  9
$PLIMMAX
 10
12.0
 20
9.0
  9
$UNITMODE
 70
     0
  9
$VISRETAIN
 70
     0
  9
$PLINEGEN
 70
     0
  9
$PSLTSCALE
 70
     0
  0
ENDSEC
  0
SECTION
  2
TABLES
  0
TABLE
  2
VPORT
 70
     1
  0
VPORT
  2
*ACTIVE
 70
     0
 10
0.0
 20
0.0
 11
1.0
 21
1.0
 12
97.52905416604365
 22
66.75636307133405
 13
0.0
 23
0.0
 14
5.0
 24
5.0
 15
5.0
 25
5.0
 16
0.0
 26
0.0
 36
1.0
 17
0.0
 27
0.0
 37
0.0
 40
137.71137496815999
 41
1.831871345029239
 42
50.0
 43
0.0
 44
0.0
 50
0.0
 51
0.0
 71
     0
 72
   500
 73
     1
 74
     0
 75
     0
 76
     0
 77
     0
 78
     2
  0
ENDTAB
  0
TABLE
  2
LTYPE
 70
     3
  0
LTYPE
  2
CONTINUOUS
 70
     0
  3
Solid Line
 72
    65
 73
     0
 40
0.0
  0
LTYPE
  2
CENTER
 70
     0
  3
____ _ ____ _ ____ _ ____ _ ____ _ ____ _ ____
 72
    65
 73
     4
 40
2.0
 49
1.25
 49
-0.25
 49
0.25
 49
-0.25
  0
LTYPE
  2
PHANTOM2
 70
     0
  3
___ _ _ ___ _ _ ___ _ _ ___ _ _
 72
    65
 73
     6
 40
1.25
 49
0.625
 49
-0.125
 49
0.125
 49
-0.125
 49
0.125
 49
-0.125
  0
ENDTAB
  0
TABLE
  2
LAYER
 70
     3
  0
LAYER
  2
0
 70
     0
 62
     7
  6
CONTINUOUS
  0
LAYER
  2
1
 70
     0
 62
     1
  6
CENTER
  0
LAYER
  2
3
 70
     0
 62
     3
  6
CONTINUOUS
  0
ENDTAB
  0
TABLE
  2
STYLE
 70
     2
  0
STYLE
  2
STANDARD
 70
     0
 40
0.0
 41
1.0
 50
0.0
 71
     0
 42
2.0000000000000502
  3
ROMANS
  4
BIGFONT
  0
STYLE
  2
STANDARD1
 70
     0
 40
0.0
 41
1.0
 50
0.0
 71
     0
 42
3.0
  3
txt
  4

  0
ENDTAB
  0
TABLE
  2
VIEW
 70
     1
  0
VIEW
  2
ALL
 70
     0
 40
135.16666666666671
 10
110.6322128851541
 20
67.416666666666671
 41
0.0
 11
0.0
 21
0.0
 31
1.0
 12
0.0
 22
0.0
 32
0.0
 42
0.0
 43
0.0
 44
0.0
 50
0.0
 71
     0
  0
ENDTAB
  0
TABLE
  2
UCS
 70
     0
  0
ENDTAB
  0
TABLE
  2
APPID
 70
     3
  0
APPID
  2
ACAD
 70
     0
  0
APPID
  2
ACAD_MLEADERVER
 70
     0
  0
APPID
  2
ACAD_NAV_VCDISPLAY
 70
     0
  0
ENDTAB
  0
TABLE
  2
DIMSTYLE
 70
     1
  0
DIMSTYLE
  2
STANDARD
 70
     0
  3

  4

  5

  6

  7

 40
1.0
 41
0.18
 42
0.0625
 43
0.38
 44
0.18
 45
0.0
 46
0.0
 47
0.0
 48
0.0
140
0.18
141
0.09
142
0.0
143
25.399999999999999
144
1.0
145
0.0
146
1.0
147
0.09
 71
     0
 72
     0
 73
     1
 74
     1
 75
     0
 76
     0
 77
     0
 78
     0
170
     0
171
     2
172
     0
173
     0
174
     0
175
     0
176
     0
177
     0
178
     0
  0
ENDTAB
  0
ENDSEC
  0
SECTION
  2
BLOCKS
  0
BLOCK
  8
0
  2
$MODEL_SPACE
 70
     0
 10
0.0
 20
0.0
 30
0.0
  3
$MODEL_SPACE
  1

  0
ENDBLK
  5
116
  8
0
  0
BLOCK
 67
     1
  8
0
  2
$PAPER_SPACE
 70
     0
 10
0.0
 20
0.0
 30
0.0
  3
$PAPER_SPACE
  1

  0
ENDBLK
  5
114
 67
     1
  8
0
  0
ENDSEC
  0
SECTION
  2
ENTITIES
  0
LINE
  5
36
  8
0
 10
85.223347533557899
 20
59.536667858608951
 30
0.0
 11
87.128531562037608
 21
50.942938060304392
 31
0.0
  0
LINE
  5
37
  8
0
 10
91.128531562037622
 20
50.94293806030425
 30
0.0
 11
91.128531562037637
 21
50.502426314361358
 31
0.0
  0
LINE
  5
38
  8
0
 10
87.128531562037608
 20
50.942938060304392
 30
0.0
 11
87.128531562037608
 21
50.502426314361372
 31
0.0
  0
LINE
  5
39
  8
0
 10
93.033715590517374
 20
59.536667858608951
 30
0.0
 11
91.128531562037622
 21
50.94293806030425
 31
0.0
  0
ARC
  5
3A
  8
0
 10
94.428531562037634
 20
38.402426314361378
 30
0.0
 40
0.7
 50
270.0
 51
0.0
  0
ARC
  5
3B
  8
0
 10
83.828531562037611
 20
38.402426314361378
 30
0.0
 40
0.7
 50
179.99999999999989
 51
269.99999999999989
  0
ARC
  5
3C
  8
0
 10
94.428531562037634
 20
49.802426314361341
 30
0.0
 40
0.7
 50
0.0
 51
89.999999999999844
  0
ARC
  5
3D
  8
0
 10
83.828531562037611
 20
49.802426314361377
 30
0.0
 40
0.7
 50
90.0
 51
179.99999999999989
  0
LINE
  5
3E
  8
0
 10
95.128531562037622
 20
49.802426314361341
 30
0.0
 11
95.128531562037622
 21
38.402426314361378
 31
0.0
  0
LINE
  5
3F
  8
0
 10
83.128531562037637
 20
49.802426314361377
 30
0.0
 11
83.128531562037637
 21
38.402426314361378
 31
0.0
  0
LINE
  5
40
  8
0
 10
94.428531562037634
 20
37.702426314361382
 30
0.0
 11
83.828531562037611
 21
37.702426314361382
 31
0.0
  0
LINE
  5
41
  8
0
 10
94.428531562037634
 20
50.502426314361337
 30
0.0
 11
83.828531562037611
 21
50.502426314361372
 31
0.0
  0
ARC
  5
42
  8
0
 10
89.128531562037622
 20
60.402426314361357
 30
0.0
 40
4.0
 50
347.49999999999932
 51
192.5000000000006
  0
LINE
  5
43
  8
1
 10
89.128531562037622
 20
35.202426314361382
 30
0.0
 11
89.128531562037622
 21
66.902426314361364
 31
0.0
  0
CIRCLE
  5
44
  8
0
 10
89.128531562037622
 20
99.515779043431905
 30
0.0
 40
6.0
  0
LINE
  5
45
  8
1
 10
97.628531562037622
 20
99.515779043431905
 30
0.0
 11
80.628531562037637
 21
99.515779043431905
 31
0.0
  0
LINE
  5
46
  8
1
 10
89.128531562037622
 20
108.01577904343191
 30
0.0
 11
89.128531562037622
 21
91.015779043431905
 31
0.0
  0
CIRCLE
  5
47
  8
0
 10
89.128531562037622
 20
99.515779043431891
 30
0.0
 40
5.0
  0
CIRCLE
  5
48
  8
0
 10
89.128531562037622
 20
99.515779043431891
 30
0.0
 40
4.0
  0
LINE
  5
49
  8
3
 10
89.128531562037637
 20
50.502426314361372
 30
0.0
 11
89.128531562037622
 21
45.002426314361337
 31
0.0
  0
LINE
  5
4A
  8
3
 10
88.628531562037637
 20
50.502426314361372
 30
0.0
 11
88.628531562037622
 21
45.002426314361337
 31
0.0
  0
LINE
  5
4B
  8
3
 10
88.128531562037637
 20
50.502426314361372
 30
0.0
 11
88.128531562037637
 21
45.002426314361337
 31
0.0
  0
LINE
  5
4C
  8
3
 10
87.628531562037637
 20
50.502426314361372
 30
0.0
 11
87.628531562037622
 21
45.002426314361337
 31
0.0
  0
LINE
  5
4D
  8
3
 10
87.178531562037634
 20
50.502426314361372
 30
0.0
 11
87.17853156203762
 21
45.002426314361337
 31
0.0
  0
LINE
  5
4E
  8
3
 10
86.728531562037617
 20
50.502426314361372
 30
0.0
 11
86.728531562037617
 21
45.002426314361337
 31
0.0
  0
LINE
  5
4F
  8
3
 10
86.328531562037625
 20
50.502426314361372
 30
0.0
 11
86.328531562037611
 21
45.002426314361337
 31
0.0
  0
LINE
  5
50
  8
3
 10
85.928531562037634
 20
50.502426314361372
 30
0.0
 11
85.92853156203762
 21
45.002426314361337
 31
0.0
  0
LINE
  5
51
  8
3
 10
85.578531562037639
 20
50.502426314361372
 30
0.0
 11
85.578531562037597
 21
45.002426314361337
 31
0.0
  0
LINE
  5
52
  8
3
 10
85.228531562037645
 20
50.502426314361372
 30
0.0
 11
85.228531562037617
 21
45.002426314361337
 31
0.0
  0
LINE
  5
53
  8
3
 10
84.928531562037634
 20
50.502426314361372
 30
0.0
 11
84.928531562037634
 21
45.002426314361337
 31
0.0
  0
LINE
  5
54
  8
3
 10
84.628531562037637
 20
50.502426314361372
 30
0.0
 11
84.628531562037608
 21
45.002426314361337
 31
0.0
  0
LINE
  5
55
  8
3
 10
84.378531562037637
 20
50.502426314361372
 30
0.0
 11
84.378531562037637
 21
45.002426314361337
 31
0.0
  0
LINE
  5
56
  8
3
 10
84.128531562037637
 20
50.502426314361372
 30
0.0
 11
84.128531562037622
 21
45.002426314361337
 31
0.0
  0
LINE
  5
57
  8
3
 10
83.928531562037634
 20
50.502426314361372
 30
0.0
 11
83.928531562037605
 21
45.002426314361337
 31
0.0
  0
LINE
  5
58
  8
3
 10
83.728531562037631
 20
50.502426314361372
 30
0.0
 11
83.728531562037617
 21
45.002426314361337
 31
0.0
  0
LINE
  5
59
  8
3
 10
83.578531562037654
 20
50.45626115589284
 30
0.0
 11
83.578531562037611
 21
45.002426314361337
 31
0.0
  0
LINE
  5
5A
  8
3
 10
83.428531562037634
 20
50.376882579015323
 30
0.0
 11
83.42853156203762
 21
45.002426314361337
 31
0.0
  0
LINE
  5
5B
  8
3
 10
83.328531562037625
 20
50.292324262918029
 30
0.0
 11
83.328531562037597
 21
45.002426314361337
 31
0.0
  0
LINE
  5
5C
  8
3
 10
83.228531562037631
 20
50.162981441908251
 30
0.0
 11
83.228531562037617
 21
45.002426314361337
 31
0.0
  0
LINE
  5
5D
  8
3
 10
95.028531562037614
 20
50.162981441908251
 30
0.0
 11
95.028531562037614
 21
45.002426314361337
 31
0.0
  0
LINE
  5
5E
  8
3
 10
94.928531562037634
 20
50.292324262918029
 30
0.0
 11
94.928531562037634
 21
45.002426314361337
 31
0.0
  0
LINE
  5
5F
  8
3
 10
94.828531562037611
 20
50.376882579015323
 30
0.0
 11
94.828531562037654
 21
45.002426314361337
 31
0.0
  0
LINE
  5
60
  8
3
 10
94.678531562037605
 20
50.45626115589284
 30
0.0
 11
94.678531562037634
 21
45.002426314361337
 31
0.0
  0
LINE
  5
61
  8
3
 10
94.528531562037614
 20
50.502426314361372
 30
0.0
 11
94.528531562037628
 21
45.002426314361337
 31
0.0
  0
LINE
  5
62
  8
3
 10
94.328531562037597
 20
50.502426314361372
 30
0.0
 11
94.328531562037625
 21
45.002426314361337
 31
0.0
  0
LINE
  5
63
  8
3
 10
94.128531562037608
 20
50.502426314361372
 30
0.0
 11
94.128531562037622
 21
45.002426314361337
 31
0.0
  0
LINE
  5
64
  8
3
 10
93.878531562037594
 20
50.502426314361372
 30
0.0
 11
93.878531562037622
 21
45.002426314361337
 31
0.0
  0
LINE
  5
65
  8
3
 10
93.628531562037594
 20
50.502426314361372
 30
0.0
 11
93.628531562037622
 21
45.002426314361337
 31
0.0
  0
LINE
  5
66
  8
3
 10
93.328531562037611
 20
50.502426314361372
 30
0.0
 11
93.328531562037625
 21
45.002426314361337
 31
0.0
  0
LINE
  5
67
  8
3
 10
93.028531562037614
 20
50.502426314361372
 30
0.0
 11
93.028531562037628
 21
45.002426314361337
 31
0.0
  0
LINE
  5
68
  8
3
 10
92.678531562037605
 20
50.502426314361372
 30
0.0
 11
92.678531562037634
 21
45.002426314361337
 31
0.0
  0
LINE
  5
69
  8
3
 10
92.328531562037611
 20
50.502426314361372
 30
0.0
 11
92.328531562037625
 21
45.002426314361337
 31
0.0
  0
LINE
  5
6A
  8
3
 10
91.928531562037605
 20
50.502426314361372
 30
0.0
 11
91.928531562037634
 21
45.002426314361337
 31
0.0
  0
LINE
  5
6B
  8
3
 10
91.528531562037614
 20
50.502426314361372
 30
0.0
 11
91.528531562037628
 21
45.002426314361337
 31
0.0
  0
LINE
  5
6C
  8
3
 10
91.078531562037611
 20
50.502426314361372
 30
0.0
 11
91.078531562037625
 21
45.002426314361337
 31
0.0
  0
LINE
  5
6D
  8
3
 10
90.628531562037608
 20
50.502426314361372
 30
0.0
 11
90.628531562037637
 21
45.002426314361337
 31
0.0
  0
LINE
  5
6E
  8
3
 10
90.128531562037594
 20
50.502426314361372
 30
0.0
 11
90.128531562037622
 21
45.002426314361337
 31
0.0
  0
LINE
  5
6F
  8
3
 10
89.628531562037608
 20
50.502426314361372
 30
0.0
 11
89.628531562037608
 21
45.002426314361337
 31
0.0
  0
LINE
  5
79
  8
3
 10
131.65837304389069
 20
50.502426314361372
 30
0.0
 11
131.65837304389069
 21
45.002426314361337
 31
0.0
  0
LINE
  5
7A
  8
3
 10
132.15837304389069
 20
50.502426314361372
 30
0.0
 11
132.15837304389069
 21
45.002426314361337
 31
0.0
  0
LINE
  5
7B
  8
3
 10
132.65837304389069
 20
50.502426314361372
 30
0.0
 11
132.65837304389069
 21
45.002426314361337
 31
0.0
  0
LINE
  5
7C
  8
3
 10
133.10837304389071
 20
50.502426314361372
 30
0.0
 11
133.10837304389071
 21
45.002426314361337
 31
0.0
  0
LINE
  5
7D
  8
3
 10
133.5583730438907
 20
50.502426314361372
 30
0.0
 11
133.5583730438907
 21
45.002426314361337
 31
0.0
  0
LINE
  5
7E
  8
3
 10
133.95837304389059
 20
50.502426314361372
 30
0.0
 11
133.9583730438907
 21
45.002426314361337
 31
0.0
  0
LINE
  5
7F
  8
3
 10
134.35837304389071
 20
50.502426314361372
 30
0.0
 11
134.35837304389071
 21
45.002426314361337
 31
0.0
  0
LINE
  5
80
  8
3
 10
134.70837304389059
 20
50.502426314361372
 30
0.0
 11
134.7083730438907
 21
45.002426314361337
 31
0.0
  0
LINE
  5
81
  8
3
 10
135.0583730438907
 20
50.502426314361372
 30
0.0
 11
135.0583730438907
 21
45.002426314361337
 31
0.0
  0
LINE
  5
82
  8
3
 10
135.35837304389071
 20
50.502426314361372
 30
0.0
 11
135.35837304389071
 21
45.002426314361337
 31
0.0
  0
LINE
  5
83
  8
3
 10
135.65837304389069
 20
50.502426314361372
 30
0.0
 11
135.65837304389069
 21
45.002426314361337
 31
0.0
  0
LINE
  5
84
  8
3
 10
135.90837304389069
 20
50.502426314361372
 30
0.0
 11
135.90837304389069
 21
45.002426314361337
 31
0.0
  0
LINE
  5
85
  8
3
 10
136.15837304389069
 20
50.502426314361372
 30
0.0
 11
136.15837304389069
 21
45.002426314361337
 31
0.0
  0
LINE
  5
86
  8
3
 10
136.35837304389071
 20
50.502426314361372
 30
0.0
 11
136.35837304389071
 21
45.002426314361337
 31
0.0
  0
LINE
  5
87
  8
3
 10
136.5583730438907
 20
50.502426314361372
 30
0.0
 11
136.5583730438907
 21
45.002426314361337
 31
0.0
  0
LINE
  5
88
  8
3
 10
136.70837304389059
 20
50.45626115589284
 30
0.0
 11
136.7083730438907
 21
45.002426314361337
 31
0.0
  0
LINE
  5
89
  8
3
 10
136.85837304389071
 20
50.376882579015323
 30
0.0
 11
136.85837304389071
 21
45.002426314361337
 31
0.0
  0
LINE
  5
8A
  8
3
 10
136.9583730438907
 20
50.292324262918029
 30
0.0
 11
136.9583730438907
 21
45.002426314361337
 31
0.0
  0
LINE
  5
8B
  8
3
 10
137.0583730438907
 20
50.162981441908251
 30
0.0
 11
137.0583730438907
 21
45.002426314361337
 31
0.0
  0
LINE
  5
8C
  8
3
 10
125.2583730438907
 20
50.162981441908251
 30
0.0
 11
125.2583730438907
 21
45.002426314361337
 31
0.0
  0
LINE
  5
8D
  8
3
 10
125.35837304389069
 20
50.292324262918029
 30
0.0
 11
125.35837304389069
 21
45.002426314361337
 31
0.0
  0
LINE
  5
8E
  8
3
 10
125.4583730438907
 20
50.376882579015323
 30
0.0
 11
125.4583730438907
 21
45.002426314361337
 31
0.0
  0
LINE
  5
8F
  8
3
 10
125.60837304389069
 20
50.45626115589284
 30
0.0
 11
125.60837304389069
 21
45.002426314361337
 31
0.0
  0
LINE
  5
90
  8
3
 10
125.7583730438907
 20
50.502426314361372
 30
0.0
 11
125.7583730438907
 21
45.002426314361337
 31
0.0
  0
LINE
  5
91
  8
3
 10
125.9583730438907
 20
50.502426314361372
 30
0.0
 11
125.9583730438907
 21
45.002426314361337
 31
0.0
  0
LINE
  5
92
  8
3
 10
126.15837304389071
 20
50.502426314361372
 30
0.0
 11
126.15837304389071
 21
45.002426314361337
 31
0.0
  0
LINE
  5
93
  8
3
 10
126.40837304389071
 20
50.502426314361372
 30
0.0
 11
126.40837304389071
 21
45.002426314361337
 31
0.0
  0
LINE
  5
94
  8
3
 10
126.65837304389071
 20
50.502426314361372
 30
0.0
 11
126.65837304389071
 21
45.002426314361337
 31
0.0
  0
LINE
  5
95
  8
3
 10
126.9583730438907
 20
50.502426314361372
 30
0.0
 11
126.9583730438907
 21
45.002426314361337
 31
0.0
  0
LINE
  5
96
  8
3
 10
127.2583730438907
 20
50.502426314361372
 30
0.0
 11
127.2583730438907
 21
45.002426314361337
 31
0.0
  0
LINE
  5
97
  8
3
 10
127.60837304389069
 20
50.502426314361372
 30
0.0
 11
127.60837304389069
 21
45.002426314361337
 31
0.0
  0
LINE
  5
98
  8
3
 10
127.9583730438907
 20
50.502426314361372
 30
0.0
 11
127.9583730438907
 21
45.002426314361337
 31
0.0
  0
LINE
  5
99
  8
3
 10
128.35837304389071
 20
50.502426314361372
 30
0.0
 11
128.35837304389071
 21
45.002426314361337
 31
0.0
  0
LINE
  5
9A
  8
3
 10
128.75837304389071
 20
50.502426314361372
 30
0.0
 11
128.75837304389071
 21
45.002426314361337
 31
0.0
  0
LINE
  5
9B
  8
3
 10
129.2083730438907
 20
50.502426314361372
 30
0.0
 11
129.2083730438907
 21
45.002426314361337
 31
0.0
  0
LINE
  5
9C
  8
3
 10
129.65837304389069
 20
50.502426314361372
 30
0.0
 11
129.65837304389069
 21
45.002426314361337
 31
0.0
  0
LINE
  5
9D
  8
3
 10
130.15837304389069
 20
50.502426314361372
 30
0.0
 11
130.15837304389069
 21
45.002426314361337
 31
0.0
  0
LINE
  5
9E
  8
3
 10
130.65837304389069
 20
50.502426314361372
 30
0.0
 11
130.65837304389069
 21
45.002426314361337
 31
0.0
  0
LINE
  5
9F
  8
3
 10
131.15837304389069
 20
50.502426314361372
 30
0.0
 11
131.15837304389069
 21
45.002426314361337
 31
0.0
  0
LINE
  5
A0
  8
1
 10
131.15837304389069
 20
35.202426314361382
 30
0.0
 11
131.15837304389069
 21
66.902426314361364
 31
0.0
  0
ARC
  5
A1
  8
0
 10
131.15837304389069
 20
60.402426314361357
 30
0.0
 40
4.0
 50
347.49999999999932
 51
192.5000000000006
  0
LINE
  5
A2
  8
0
 10
136.4583730438907
 20
50.502426314361337
 30
0.0
 11
125.85837304389069
 21
50.502426314361372
 31
0.0
  0
LINE
  5
A3
  8
0
 10
136.4583730438907
 20
37.702426314361382
 30
0.0
 11
125.85837304389069
 21
37.702426314361382
 31
0.0
  0
LINE
  5
A4
  8
0
 10
125.15837304389071
 20
49.802426314361377
 30
0.0
 11
125.15837304389071
 21
38.402426314361378
 31
0.0
  0
LINE
  5
A5
  8
0
 10
137.15837304389069
 20
49.802426314361341
 30
0.0
 11
137.15837304389069
 21
38.402426314361378
 31
0.0
  0
ARC
  5
A6
  8
0
 10
125.85837304389069
 20
49.802426314361377
 30
0.0
 40
0.7
 50
90.0
 51
179.99999999999989
  0
ARC
  5
A7
  8
0
 10
136.4583730438907
 20
49.802426314361341
 30
0.0
 40
0.7
 50
0.0
 51
89.999999999999844
  0
ARC
  5
A8
  8
0
 10
125.85837304389069
 20
38.402426314361378
 30
0.0
 40
0.7
 50
179.99999999999989
 51
269.99999999999989
  0
ARC
  5
A9
  8
0
 10
136.4583730438907
 20
38.402426314361378
 30
0.0
 40
0.7
 50
270.0
 51
0.0
  0
LINE
  5
AA
  8
0
 10
135.06355707237049
 20
59.536667858608951
 30
0.0
 11
133.15837304389069
 21
50.94293806030425
 31
0.0
  0
LINE
  5
AB
  8
0
 10
129.15837304389069
 20
50.942938060304392
 30
0.0
 11
129.15837304389069
 21
50.502426314361372
 31
0.0
  0
LINE
  5
AC
  8
0
 10
133.15837304389069
 20
50.94293806030425
 30
0.0
 11
133.15837304389069
 21
50.502426314361358
 31
0.0
  0
LINE
  5
AD
  8
0
 10
127.253189015411
 20
59.536667858608951
 30
0.0
 11
129.15837304389069
 21
50.942938060304392
 31
0.0
  0
LINE
  5
AE
  8
0
 10
51.003874108664242
 20
59.536667858608951
 30
0.0
 11
49.098690080184532
 21
50.942938060304392
 31
0.0
  0
LINE
  5
AF
  8
0
 10
45.098690080184518
 20
50.94293806030425
 30
0.0
 11
45.098690080184518
 21
50.502426314361358
 31
0.0
  0
LINE
  5
B0
  8
0
 10
49.098690080184532
 20
50.942938060304392
 30
0.0
 11
49.098690080184532
 21
50.502426314361372
 31
0.0
  0
LINE
  5
B1
  8
0
 10
43.193506051704759
 20
59.536667858608951
 30
0.0
 11
45.098690080184518
 21
50.94293806030425
 31
0.0
  0
ARC
  5
B2
  8
0
 10
41.798690080184507
 20
38.402426314361378
 30
0.0
 40
0.7
 50
180.0
 51
270.00000000000011
  0
ARC
  5
B3
  8
0
 10
52.398690080184551
 20
38.402426314361378
 30
0.0
 40
0.7
 50
270.00000000000011
 51
0.0000000000001272
  0
ARC
  5
B4
  8
0
 10
41.798690080184507
 20
49.802426314361341
 30
0.0
 40
0.7
 50
90.000000000000185
 51
180.0
  0
ARC
  5
B5
  8
0
 10
52.398690080184551
 20
49.802426314361377
 30
0.0
 40
0.7
 50
0.0000000000000763
 51
90.000000000000028
  0
LINE
  5
B6
  8
0
 10
41.098690080184518
 20
49.802426314361341
 30
0.0
 11
41.098690080184518
 21
38.402426314361378
 31
0.0
  0
LINE
  5
B7
  8
0
 10
53.098690080184518
 20
49.802426314361377
 30
0.0
 11
53.098690080184518
 21
38.402426314361378
 31
0.0
  0
LINE
  5
B8
  8
0
 10
41.798690080184507
 20
37.702426314361382
 30
0.0
 11
52.398690080184551
 21
37.702426314361382
 31
0.0
  0
LINE
  5
B9
  8
0
 10
41.798690080184507
 20
50.502426314361337
 30
0.0
 11
52.398690080184551
 21
50.502426314361372
 31
0.0
  0
ARC
  5
BA
  8
0
 10
47.098690080184518
 20
60.402426314361357
 30
0.0
 40
4.0
 50
347.49999999999937
 51
192.50000000000071
  0
LINE
  5
BB
  8
1
 10
47.098690080184518
 20
35.202426314361382
 30
0.0
 11
47.098690080184518
 21
66.902426314361364
 31
0.0
  0
LINE
  5
BC
  8
3
 10
47.098690080184518
 20
50.502426314361372
 30
0.0
 11
47.098690080184518
 21
45.002426314361337
 31
0.0
  0
LINE
  5
BD
  8
3
 10
47.598690080184518
 20
50.502426314361372
 30
0.0
 11
47.598690080184518
 21
45.002426314361337
 31
0.0
  0
LINE
  5
BE
  8
3
 10
48.098690080184518
 20
50.502426314361372
 30
0.0
 11
48.098690080184518
 21
45.002426314361337
 31
0.0
  0
LINE
  5
BF
  8
3
 10
48.598690080184532
 20
50.502426314361372
 30
0.0
 11
48.598690080184532
 21
45.002426314361337
 31
0.0
  0
LINE
  5
C0
  8
3
 10
49.048690080184507
 20
50.502426314361372
 30
0.0
 11
49.048690080184542
 21
45.002426314361337
 31
0.0
  0
LINE
  5
C1
  8
3
 10
49.498690080184531
 20
50.502426314361372
 30
0.0
 11
49.498690080184559
 21
45.002426314361337
 31
0.0
  0
LINE
  5
C2
  8
3
 10
49.898690080184537
 20
50.502426314361372
 30
0.0
 11
49.898690080184537
 21
45.002426314361337
 31
0.0
  0
LINE
  5
C3
  8
3
 10
50.298690080184528
 20
50.502426314361372
 30
0.0
 11
50.298690080184542
 21
45.002426314361337
 31
0.0
  0
LINE
  5
C4
  8
3
 10
50.648690080184522
 20
50.502426314361372
 30
0.0
 11
50.648690080184551
 21
45.002426314361337
 31
0.0
  0
LINE
  5
C5
  8
3
 10
50.998690080184531
 20
50.502426314361372
 30
0.0
 11
50.998690080184552
 21
45.002426314361337
 31
0.0
  0
LINE
  5
C6
  8
3
 10
51.298690080184521
 20
50.502426314361372
 30
0.0
 11
51.298690080184542
 21
45.002426314361337
 31
0.0
  0
LINE
  5
C7
  8
3
 10
51.598690080184532
 20
50.502426314361372
 30
0.0
 11
51.598690080184532
 21
45.002426314361337
 31
0.0
  0
LINE
  5
C8
  8
3
 10
51.848690080184518
 20
50.502426314361372
 30
0.0
 11
51.848690080184539
 21
45.002426314361337
 31
0.0
  0
LINE
  5
C9
  8
3
 10
52.098690080184518
 20
50.502426314361372
 30
0.0
 11
52.098690080184539
 21
45.002426314361337
 31
0.0
  0
LINE
  5
CA
  8
3
 10
52.298690080184528
 20
50.502426314361372
 30
0.0
 11
52.298690080184542
 21
45.002426314361337
 31
0.0
  0
LINE
  5
CB
  8
3
 10
52.498690080184531
 20
50.502426314361372
 30
0.0
 11
52.498690080184538
 21
45.002426314361337
 31
0.0
  0
LINE
  5
CC
  8
3
 10
52.648690080184522
 20
50.45626115589284
 30
0.0
 11
52.648690080184551
 21
45.002426314361337
 31
0.0
  0
LINE
  5
CD
  8
3
 10
52.798690080184528
 20
50.376882579015323
 30
0.0
 11
52.798690080184542
 21
45.002426314361337
 31
0.0
  0
LINE
  5
CE
  8
3
 10
52.898690080184529
 20
50.292324262918029
 30
0.0
 11
52.898690080184558
 21
45.002426314361337
 31
0.0
  0
LINE
  5
CF
  8
3
 10
52.998690080184531
 20
50.162981441908251
 30
0.0
 11
52.998690080184538
 21
45.002426314361337
 31
0.0
  0
LINE
  5
D0
  8
3
 10
41.198690080184541
 20
50.162981441908251
 30
0.0
 11
41.198690080184541
 21
45.002426314361337
 31
0.0
  0
LINE
  5
D1
  8
3
 10
41.298690080184542
 20
50.292324262918029
 30
0.0
 11
41.298690080184507
 21
45.002426314361337
 31
0.0
  0
LINE
  5
D2
  8
3
 10
41.398690080184529
 20
50.376882579015323
 30
0.0
 11
41.398690080184529
 21
45.002426314361337
 31
0.0
  0
LINE
  5
D3
  8
3
 10
41.548690080184571
 20
50.45626115589284
 30
0.0
 11
41.548690080184507
 21
45.002426314361337
 31
0.0
  0
LINE
  5
D4
  8
3
 10
41.698690080184541
 20
50.502426314361372
 30
0.0
 11
41.698690080184541
 21
45.002426314361337
 31
0.0
  0
LINE
  5
D5
  8
3
 10
41.898690080184537
 20
50.502426314361372
 30
0.0
 11
41.898690080184537
 21
45.002426314361337
 31
0.0
  0
LINE
  5
D6
  8
3
 10
42.098690080184547
 20
50.502426314361372
 30
0.0
 11
42.098690080184518
 21
45.002426314361337
 31
0.0
  0
LINE
  5
D7
  8
3
 10
42.348690080184547
 20
50.502426314361372
 30
0.0
 11
42.348690080184518
 21
45.002426314361337
 31
0.0
  0
LINE
  5
D8
  8
3
 10
42.598690080184547
 20
50.502426314361372
 30
0.0
 11
42.598690080184518
 21
45.002426314361337
 31
0.0
  0
LINE
  5
D9
  8
3
 10
42.898690080184529
 20
50.502426314361372
 30
0.0
 11
42.898690080184529
 21
45.002426314361337
 31
0.0
  0
LINE
  5
DA
  8
3
 10
43.198690080184541
 20
50.502426314361372
 30
0.0
 11
43.198690080184541
 21
45.002426314361337
 31
0.0
  0
LINE
  5
DB
  8
3
 10
43.548690080184556
 20
50.502426314361372
 30
0.0
 11
43.548690080184507
 21
45.002426314361337
 31
0.0
  0
LINE
  5
DC
  8
3
 10
43.898690080184529
 20
50.502426314361372
 30
0.0
 11
43.898690080184529
 21
45.002426314361337
 31
0.0
  0
LINE
  5
DD
  8
3
 10
44.298690080184571
 20
50.502426314361372
 30
0.0
 11
44.298690080184507
 21
45.002426314361337
 31
0.0
  0
LINE
  5
DE
  8
3
 10
44.698690080184548
 20
50.502426314361372
 30
0.0
 11
44.698690080184548
 21
45.002426314361337
 31
0.0
  0
LINE
  5
DF
  8
3
 10
45.148690080184529
 20
50.502426314361372
 30
0.0
 11
45.148690080184529
 21
45.002426314361337
 31
0.0
  0
LINE
  5
E0
  8
3
 10
45.598690080184547
 20
50.502426314361372
 30
0.0
 11
45.598690080184518
 21
45.002426314361337
 31
0.0
  0
LINE
  5
E1
  8
3
 10
46.098690080184547
 20
50.502426314361372
 30
0.0
 11
46.098690080184518
 21
45.002426314361337
 31
0.0
  0
LINE
  5
E2
  8
3
 10
46.598690080184547
 20
50.502426314361372
 30
0.0
 11
46.598690080184532
 21
45.002426314361337
 31
0.0
  0
TEXT
  5
1CF
  8
0
 62
     3
 10
0.0
 20
0.0
 30
0.0
 40
5.0
  1
BJ766-08001
  7
STANDARD1
  0
ENDSEC
  0
EOF
