  0
SECTION
  2
HEADER
  9
$ACADVER
  1
AC1009
  9
$INSBASE
 10
0.0
 20
0.0
 30
0.0
  9
$EXTMIN
 10
0.0
 20
-1.4802182810368341
 30
0.0
  9
$EXTMAX
 10
132.4610058318633
 20
103.4515387689848
 30
0.0
  9
$LIMMIN
 10
0.0
 20
0.0
  9
$LIMMAX
 10
187.5
 20
135.0
  9
$ORTHOMODE
 70
     1
  9
$REGENMODE
 70
     1
  9
$FILLMODE
 70
     1
  9
$QTEXTMODE
 70
     0
  9
$MIRRTEXT
 70
     0
  9
$DRAGMODE
 70
     2
  9
$LTSCALE
 40
5.0
  9
$OSMODE
 70
  3071
  9
$ATTMODE
 70
     1
  9
$TEXTSIZE
 40
2.0000000000000502
  9
$TRACEWID
 40
0.05
  9
$TEXTSTYLE
  7
STANDARD
  9
$CLAYER
  8
0
  9
$CELTYPE
  6
BYLAYER
  9
$CECOLOR
 62
   256
  9
$DIMSCALE
 40
0.5
  9
$DIMASZ
 40
3.0
  9
$DIMEXO
 40
2.0
  9
$DIMDLI
 40
10.0
  9
$DIMRND
 40
0.0
  9
$DIMDLE
 40
0.0
  9
$DIMEXE
 40
2.0
  9
$DIMTP
 40
0.0
  9
$DIMTM
 40
0.0
  9
$DIMTXT
 40
3.2000000000000002
  9
$DIMCEN
 40
0.0
  9
$DIMTSZ
 40
0.0
  9
$DIMTOL
 70
     0
  9
$DIMLIM
 70
     0
  9
$DIMTIH
 70
     0
  9
$DIMTOH
 70
     0
  9
$DIMSE1
 70
     0
  9
$DIMSE2
 70
     0
  9
$DIMTAD
 70
     1
  9
$DIMZIN
 70
     0
  9
$DIMBLK
  1

  9
$DIMASO
 70
     0
  9
$DIMSHO
 70
     0
  9
$DIMPOST
  1

  9
$DIMAPOST
  1

  9
$DIMALT
 70
     0
  9
$DIMALTD
 70
     2
  9
$DIMALTF
 40
25.399999999999999
  9
$DIMLFAC
 40
1.0
  9
$DIMTOFL
 70
     1
  9
$DIMTVP
 40
1.6000000000000001
  9
$DIMTIX
 70
     1
  9
$DIMSOXD
 70
     0
  9
$DIMSAH
 70
     0
  9
$DIMBLK1
  1

  9
$DIMBLK2
  1

  9
$DIMSTYLE
  2
STANDARD
  9
$DIMCLRD
 70
     0
  9
$DIMCLRE
 70
     0
  9
$DIMCLRT
 70
     0
  9
$DIMTFAC
 40
1.0
  9
$DIMGAP
 40
0.09
  9
$LUNITS
 70
     2
  9
$LUPREC
 70
     4
  9
$SKETCHINC
 40
0.1
  9
$FILLETRAD
 40
0.0
  9
$AUNITS
 70
     0
  9
$AUPREC
 70
     4
  9
$MENU
  1
E:\r13\win\SUPPORT\ACAD
  9
$ELEVATION
 40
0.0
  9
$PELEVATION
 40
0.0
  9
$THICKNESS
 40
0.0
  9
$LIMCHECK
 70
     0
  9
$BLIPMODE
 70
     0
  9
$CHAMFERA
 40
0.0
  9
$CHAMFERB
 40
0.0
  9
$SKPOLY
 70
     0
  9
$TDCREATE
 40
2449840.6236226852
  9
$TDUPDATE
 40
2456598.3710292829
  9
$TDINDWG
 40
0.000108669
  9
$TDUSRTIMER
 40
0.000108669
  9
$USRTIMER
 70
     1
  9
$ANGBASE
 50
0.0
  9
$ANGDIR
 70
     0
  9
$PDMODE
 70
    35
  9
$PDSIZE
 40
0.0
  9
$PLINEWID
 40
0.0
  9
$COORDS
 70
     1
  9
$SPLFRAME
 70
     0
  9
$SPLINETYPE
 70
     6
  9
$SPLINESEGS
 70
     8
  9
$ATTDIA
 70
     0
  9
$ATTREQ
 70
     1
  9
$HANDLING
 70
     1
  9
$HANDSEED
  5
255
  9
$SURFTAB1
 70
     6
  9
$SURFTAB2
 70
     6
  9
$SURFTYPE
 70
     6
  9
$SURFU
 70
     6
  9
$SURFV
 70
     6
  9
$UCSNAME
  2

  9
$UCSORG
 10
0.0
 20
0.0
 30
0.0
  9
$UCSXDIR
 10
1.0
 20
0.0
 30
0.0
  9
$UCSYDIR
 10
0.0
 20
1.0
 30
0.0
  9
$PUCSNAME
  2

  9
$PUCSORG
 10
0.0
 20
0.0
 30
0.0
  9
$PUCSXDIR
 10
1.0
 20
0.0
 30
0.0
  9
$PUCSYDIR
 10
0.0
 20
1.0
 30
0.0
  9
$USERI1
 70
     0
  9
$USERI2
 70
     1
  9
$USERI3
 70
     0
  9
$USERI4
 70
     0
  9
$USERI5
 70
     0
  9
$USERR1
 40
0.0
  9
$USERR2
 40
0.0
  9
$USERR3
 40
0.0
  9
$USERR4
 40
0.0
  9
$USERR5
 40
0.0
  9
$WORLDVIEW
 70
     1
  9
$SHADEDGE
 70
     3
  9
$SHADEDIF
 70
    70
  9
$TILEMODE
 70
     1
  9
$MAXACTVP
 70
    16
  9
$PLIMCHECK
 70
     0
  9
$PEXTMIN
 10
1.0000000000000000E+020
 20
1.0000000000000000E+020
 30
1.0000000000000000E+020
  9
$PEXTMAX
 10
-1.0000000000000000E+020
 20
-1.0000000000000000E+020
 30
-1.0000000000000000E+020
  9
$PLIMMIN
 10
0.0
 20
0.0
  9
$PLIMMAX
 10
12.0
 20
9.0
  9
$UNITMODE
 70
     0
  9
$VISRETAIN
 70
     0
  9
$PLINEGEN
 70
     0
  9
$PSLTSCALE
 70
     0
  0
ENDSEC
  0
SECTION
  2
TABLES
  0
TABLE
  2
VPORT
 70
     1
  0
VPORT
  2
*ACTIVE
 70
     0
 10
0.0
 20
0.0
 11
1.0
 21
1.0
 12
97.52905416604365
 22
66.75636307133405
 13
0.0
 23
0.0
 14
5.0
 24
5.0
 15
5.0
 25
5.0
 16
0.0
 26
0.0
 36
1.0
 17
0.0
 27
0.0
 37
0.0
 40
137.71137496815999
 41
1.831871345029239
 42
50.0
 43
0.0
 44
0.0
 50
0.0
 51
0.0
 71
     0
 72
   500
 73
     1
 74
     0
 75
     0
 76
     0
 77
     0
 78
     2
  0
ENDTAB
  0
TABLE
  2
LTYPE
 70
     3
  0
LTYPE
  2
CONTINUOUS
 70
     0
  3
Solid Line
 72
    65
 73
     0
 40
0.0
  0
LTYPE
  2
CENTER
 70
     0
  3
____ _ ____ _ ____ _ ____ _ ____ _ ____ _ ____
 72
    65
 73
     4
 40
2.0
 49
1.25
 49
-0.25
 49
0.25
 49
-0.25
  0
LTYPE
  2
PHANTOM2
 70
     0
  3
___ _ _ ___ _ _ ___ _ _ ___ _ _
 72
    65
 73
     6
 40
1.25
 49
0.625
 49
-0.125
 49
0.125
 49
-0.125
 49
0.125
 49
-0.125
  0
ENDTAB
  0
TABLE
  2
LAYER
 70
     3
  0
LAYER
  2
0
 70
     0
 62
     7
  6
CONTINUOUS
  0
LAYER
  2
1
 70
     0
 62
     1
  6
CENTER
  0
LAYER
  2
3
 70
     0
 62
     3
  6
CONTINUOUS
  0
ENDTAB
  0
TABLE
  2
STYLE
 70
     2
  0
STYLE
  2
STANDARD
 70
     0
 40
0.0
 41
1.0
 50
0.0
 71
     0
 42
2.0000000000000502
  3
ROMANS
  4
BIGFONT
  0
STYLE
  2
STANDARD1
 70
     0
 40
0.0
 41
1.0
 50
0.0
 71
     0
 42
3.0
  3
txt
  4

  0
ENDTAB
  0
TABLE
  2
VIEW
 70
     1
  0
VIEW
  2
ALL
 70
     0
 40
135.16666666666671
 10
110.6322128851541
 20
67.416666666666671
 41
0.0
 11
0.0
 21
0.0
 31
1.0
 12
0.0
 22
0.0
 32
0.0
 42
0.0
 43
0.0
 44
0.0
 50
0.0
 71
     0
  0
ENDTAB
  0
TABLE
  2
UCS
 70
     0
  0
ENDTAB
  0
TABLE
  2
APPID
 70
     3
  0
APPID
  2
ACAD
 70
     0
  0
APPID
  2
ACAD_MLEADERVER
 70
     0
  0
APPID
  2
ACAD_NAV_VCDISPLAY
 70
     0
  0
ENDTAB
  0
TABLE
  2
DIMSTYLE
 70
     1
  0
DIMSTYLE
  2
STANDARD
 70
     0
  3

  4

  5

  6

  7

 40
1.0
 41
0.18
 42
0.0625
 43
0.38
 44
0.18
 45
0.0
 46
0.0
 47
0.0
 48
0.0
140
0.18
141
0.09
142
0.0
143
25.399999999999999
144
1.0
145
0.0
146
1.0
147
0.09
 71
     0
 72
     0
 73
     1
 74
     1
 75
     0
 76
     0
 77
     0
 78
     0
170
     0
171
     2
172
     0
173
     0
174
     0
175
     0
176
     0
177
     0
178
     0
  0
ENDTAB
  0
ENDSEC
  0
SECTION
  2
BLOCKS
  0
BLOCK
  8
0
  2
$MODEL_SPACE
 70
     0
 10
0.0
 20
0.0
 30
0.0
  3
$MODEL_SPACE
  1

  0
ENDBLK
  5
10B
  8
0
  0
BLOCK
 67
     1
  8
0
  2
$PAPER_SPACE
 70
     0
 10
0.0
 20
0.0
 30
0.0
  3
$PAPER_SPACE
  1

  0
ENDBLK
  5
109
 67
     1
  8
0
  0
ENDSEC
  0
SECTION
  2
ENTITIES
  0
LINE
  5
36
  8
1
 10
87.936477844510193
 20
43.656947775113252
 30
0.0
 11
87.936477844510193
 21
65.356947775113241
 31
0.0
  0
LINE
  5
37
  8
3
 10
87.536477844510173
 20
51.856947775113028
 30
0.0
 11
87.536477844510173
 21
55.856947775112999
 31
0.0
  0
LINE
  5
38
  8
3
 10
87.136477844510196
 20
51.856947775113028
 30
0.0
 11
87.136477844510168
 21
55.856947775112999
 31
0.0
  0
LINE
  5
39
  8
3
 10
86.736477844510205
 20
51.856947775113028
 30
0.0
 11
86.736477844510205
 21
55.856947775112999
 31
0.0
  0
LINE
  5
3A
  8
3
 10
86.336477844510185
 20
51.856947775113028
 30
0.0
 11
86.336477844510185
 21
55.856947775112999
 31
0.0
  0
LINE
  5
3B
  8
3
 10
86.036477844510202
 20
51.856947775113028
 30
0.0
 11
86.036477844510202
 21
55.856947775112999
 31
0.0
  0
LINE
  5
3C
  8
3
 10
85.736477844510205
 20
51.856947775113028
 30
0.0
 11
85.736477844510205
 21
55.856947775112999
 31
0.0
  0
LINE
  5
3D
  8
3
 10
85.436477844510208
 20
51.856947775113028
 30
0.0
 11
85.436477844510193
 21
55.856947775112999
 31
0.0
  0
LINE
  5
3E
  8
3
 10
85.136477844510225
 20
51.856947775113028
 30
0.0
 11
85.136477844510225
 21
55.856947775112999
 31
0.0
  0
LINE
  5
3F
  8
3
 10
84.836477844510199
 20
51.856947775113028
 30
0.0
 11
84.836477844510199
 21
55.856947775112999
 31
0.0
  0
LINE
  5
40
  8
3
 10
84.586477844510213
 20
51.856947775113028
 30
0.0
 11
84.586477844510199
 21
55.856947775112999
 31
0.0
  0
LINE
  5
41
  8
3
 10
84.336477844510213
 20
51.856947775113028
 30
0.0
 11
84.336477844510213
 21
55.856947775112999
 31
0.0
  0
LINE
  5
42
  8
3
 10
84.086477844510213
 20
51.856947775113028
 30
0.0
 11
84.086477844510185
 21
55.856947775112999
 31
0.0
  0
LINE
  5
43
  8
3
 10
83.886477844510225
 20
51.856947775113028
 30
0.0
 11
83.886477844510225
 21
55.856947775112999
 31
0.0
  0
LINE
  5
44
  8
3
 10
83.686477844510193
 20
51.856947775113028
 30
0.0
 11
83.686477844510179
 21
55.856947775112999
 31
0.0
  0
LINE
  5
45
  8
3
 10
83.486477844510205
 20
51.856947775113028
 30
0.0
 11
83.486477844510205
 21
55.856947775112999
 31
0.0
  0
LINE
  5
46
  8
3
 10
83.336477844510199
 20
51.856947775113028
 30
0.0
 11
83.336477844510199
 21
55.856947775112999
 31
0.0
  0
LINE
  5
47
  8
3
 10
83.186477844510208
 20
51.856947775113028
 30
0.0
 11
83.186477844510208
 21
55.856947775112999
 31
0.0
  0
LINE
  5
48
  8
3
 10
83.036477844510216
 20
51.856947775113028
 30
0.0
 11
83.036477844510216
 21
55.856947775112999
 31
0.0
  0
LINE
  5
49
  8
3
 10
87.936477844510193
 20
51.856947775113028
 30
0.0
 11
87.936477844510193
 21
55.856947775112999
 31
0.0
  0
LINE
  5
4A
  8
3
 10
92.836477844510185
 20
51.856947775113028
 30
0.0
 11
92.836477844510185
 21
55.856947775112999
 31
0.0
  0
LINE
  5
4B
  8
3
 10
92.686477844510165
 20
51.856947775113028
 30
0.0
 11
92.686477844510165
 21
55.856947775112999
 31
0.0
  0
LINE
  5
4C
  8
3
 10
92.536477844510159
 20
51.856947775113028
 30
0.0
 11
92.536477844510159
 21
55.856947775112999
 31
0.0
  0
LINE
  5
4D
  8
3
 10
92.386477844510182
 20
51.856947775113028
 30
0.0
 11
92.386477844510182
 21
55.856947775112999
 31
0.0
  0
LINE
  5
4E
  8
3
 10
92.186477844510179
 20
51.856947775113028
 30
0.0
 11
92.186477844510179
 21
55.856947775112999
 31
0.0
  0
LINE
  5
4F
  8
3
 10
91.986477844510176
 20
51.856947775113028
 30
0.0
 11
91.986477844510176
 21
55.856947775112999
 31
0.0
  0
LINE
  5
50
  8
3
 10
91.786477844510173
 20
51.856947775113028
 30
0.0
 11
91.786477844510173
 21
55.856947775112999
 31
0.0
  0
LINE
  5
51
  8
3
 10
91.536477844510173
 20
51.856947775113028
 30
0.0
 11
91.536477844510173
 21
55.856947775112999
 31
0.0
  0
LINE
  5
52
  8
3
 10
91.286477844510159
 20
51.856947775113028
 30
0.0
 11
91.286477844510159
 21
55.856947775112999
 31
0.0
  0
LINE
  5
53
  8
3
 10
91.036477844510173
 20
51.856947775113028
 30
0.0
 11
91.036477844510173
 21
55.856947775112999
 31
0.0
  0
LINE
  5
54
  8
3
 10
90.736477844510176
 20
51.856947775113028
 30
0.0
 11
90.736477844510176
 21
55.856947775112999
 31
0.0
  0
LINE
  5
55
  8
3
 10
90.436477844510165
 20
51.856947775113028
 30
0.0
 11
90.436477844510193
 21
55.856947775112999
 31
0.0
  0
LINE
  5
56
  8
3
 10
90.136477844510182
 20
51.856947775113028
 30
0.0
 11
90.136477844510182
 21
55.856947775112999
 31
0.0
  0
LINE
  5
57
  8
3
 10
89.836477844510185
 20
51.856947775113028
 30
0.0
 11
89.836477844510185
 21
55.856947775112999
 31
0.0
  0
LINE
  5
58
  8
3
 10
89.536477844510188
 20
51.856947775113028
 30
0.0
 11
89.536477844510188
 21
55.856947775112999
 31
0.0
  0
LINE
  5
59
  8
3
 10
89.136477844510182
 20
51.856947775113028
 30
0.0
 11
89.136477844510182
 21
55.856947775112999
 31
0.0
  0
LINE
  5
5A
  8
3
 10
88.73647784451019
 20
51.856947775113028
 30
0.0
 11
88.736477844510205
 21
55.856947775112999
 31
0.0
  0
LINE
  5
5B
  8
3
 10
88.336477844510199
 20
51.856947775113028
 30
0.0
 11
88.336477844510199
 21
55.856947775112999
 31
0.0
  0
CIRCLE
  5
5C
  8
0
 10
87.936477844510193
 20
95.951538768984818
 30
0.0
 40
5.0000000000000142
  0
LINE
  5
5D
  8
1
 10
95.436477844510208
 20
95.951538768984818
 30
0.0
 11
80.436477844510165
 21
95.951538768984818
 31
0.0
  0
LINE
  5
5E
  8
1
 10
87.936477844510193
 20
103.4515387689848
 30
0.0
 11
87.936477844510193
 21
88.451538768984818
 31
0.0
  0
CIRCLE
  5
5F
  8
0
 10
87.936477844510193
 20
95.951538768984818
 30
0.0
 40
2.4999999999999849
  0
ARC
  5
60
  8
0
 10
87.936477844510193
 20
60.356947775112992
 30
0.0
 40
2.5
 50
345.00000000000102
 51
194.99999999999901
  0
LINE
  5
61
  8
0
 10
85.521663278787543
 20
59.709900162356703
 30
0.0
 11
86.286109566993915
 21
56.856947775113042
 31
0.0
  0
LINE
  5
62
  8
0
 10
90.351292410232872
 20
59.709900162356703
 30
0.0
 11
89.586846122026444
 21
56.856947775113007
 31
0.0
  0
LINE
  5
63
  8
0
 10
92.236477844510176
 20
56.856947775113007
 30
0.0
 11
83.636476890835866
 21
56.856947775113042
 31
0.0
  0
ARC
  5
64
  8
0
 10
92.236477844510176
 20
56.156947775113011
 30
0.0
 40
0.7
 50
0.0000000000000509
 51
90.0
  0
LINE
  5
65
  8
0
 10
92.936477844510193
 20
56.156947775113011
 30
0.0
 11
92.936477844510193
 21
46.556947775113031
 31
0.0
  0
ARC
  5
66
  8
0
 10
92.236477844510176
 20
46.556947775113031
 30
0.0
 40
0.7
 50
270.00000000000011
 51
0.0
  0
LINE
  5
67
  8
0
 10
92.236477844510176
 20
45.856947775113028
 30
0.0
 11
83.636477844510182
 21
45.856947775112992
 31
0.0
  0
ARC
  5
68
  8
0
 10
83.636477844510182
 20
46.556947775112988
 30
0.0
 40
0.7
 50
180.0
 51
269.99999999999989
  0
LINE
  5
69
  8
0
 10
82.936477844510165
 20
56.156947775113011
 30
0.0
 11
82.936477844510165
 21
46.556947775112988
 31
0.0
  0
ARC
  5
6A
  8
0
 10
83.636477844510182
 20
56.156947775113011
 30
0.0
 40
0.7
 50
90.0
 51
179.99999999999989
  0
LINE
  5
6B
  8
1
 10
92.936477844510193
 20
95.951538768984818
 30
0.0
 11
92.936477844510193
 21
95.951538768984818
 31
0.0
  0
CIRCLE
  5
6C
  8
0
 10
87.936477844510193
 20
95.951538768984818
 30
0.0
 40
4.0
  0
ARC
  5
76
  8
0
 10
123.16100583186331
 20
56.156947775113011
 30
0.0
 40
0.7
 50
90.0
 51
179.99999999999989
  0
LINE
  5
77
  8
0
 10
122.4610058318633
 20
56.156947775113011
 30
0.0
 11
122.4610058318633
 21
46.556947775112988
 31
0.0
  0
ARC
  5
78
  8
0
 10
123.16100583186331
 20
46.556947775112988
 30
0.0
 40
0.7
 50
180.0
 51
269.99999999999989
  0
LINE
  5
79
  8
0
 10
131.76100583186329
 20
45.856947775113028
 30
0.0
 11
123.16100583186331
 21
45.856947775112992
 31
0.0
  0
ARC
  5
7A
  8
0
 10
131.76100583186329
 20
46.556947775113031
 30
0.0
 40
0.7
 50
270.00000000000011
 51
0.0
  0
LINE
  5
7B
  8
0
 10
132.4610058318633
 20
56.156947775113011
 30
0.0
 11
132.4610058318633
 21
46.556947775113031
 31
0.0
  0
ARC
  5
7C
  8
0
 10
131.76100583186329
 20
56.156947775113011
 30
0.0
 40
0.7
 50
0.0000000000000509
 51
90.0
  0
LINE
  5
7D
  8
0
 10
131.76100583186329
 20
56.856947775113007
 30
0.0
 11
123.161004878189
 21
56.856947775113042
 31
0.0
  0
LINE
  5
7E
  8
0
 10
129.87582039758601
 20
59.709900162356703
 30
0.0
 11
129.1113741093796
 21
56.856947775113007
 31
0.0
  0
LINE
  5
7F
  8
0
 10
125.0461912661407
 20
59.709900162356703
 30
0.0
 11
125.8106375543471
 21
56.856947775113042
 31
0.0
  0
ARC
  5
80
  8
0
 10
127.4610058318633
 20
60.356947775112992
 30
0.0
 40
2.5
 50
345.00000000000102
 51
194.99999999999901
  0
LINE
  5
81
  8
3
 10
127.8610058318633
 20
51.856947775113028
 30
0.0
 11
127.8610058318633
 21
55.856947775112999
 31
0.0
  0
LINE
  5
82
  8
3
 10
128.26100583186329
 20
51.856947775113028
 30
0.0
 11
128.26100583186329
 21
55.856947775112999
 31
0.0
  0
LINE
  5
83
  8
3
 10
128.66100583186329
 20
51.856947775113028
 30
0.0
 11
128.66100583186329
 21
55.856947775112999
 31
0.0
  0
LINE
  5
84
  8
3
 10
129.0610058318633
 20
51.856947775113028
 30
0.0
 11
129.06100583186341
 21
55.856947775112999
 31
0.0
  0
LINE
  5
85
  8
3
 10
129.36100583186331
 20
51.856947775113028
 30
0.0
 11
129.36100583186331
 21
55.856947775112999
 31
0.0
  0
LINE
  5
86
  8
3
 10
129.66100583186329
 20
51.856947775113028
 30
0.0
 11
129.66100583186329
 21
55.856947775112999
 31
0.0
  0
LINE
  5
87
  8
3
 10
129.9610058318633
 20
51.856947775113028
 30
0.0
 11
129.9610058318633
 21
55.856947775112999
 31
0.0
  0
LINE
  5
88
  8
3
 10
130.26100583186329
 20
51.856947775113028
 30
0.0
 11
130.26100583186329
 21
55.856947775112999
 31
0.0
  0
LINE
  5
89
  8
3
 10
130.5610058318633
 20
51.856947775113028
 30
0.0
 11
130.5610058318633
 21
55.856947775112999
 31
0.0
  0
LINE
  5
8A
  8
3
 10
130.8110058318633
 20
51.856947775113028
 30
0.0
 11
130.8110058318633
 21
55.856947775112999
 31
0.0
  0
LINE
  5
8B
  8
3
 10
131.0610058318633
 20
51.856947775113028
 30
0.0
 11
131.0610058318633
 21
55.856947775112999
 31
0.0
  0
LINE
  5
8C
  8
3
 10
131.3110058318633
 20
51.856947775113028
 30
0.0
 11
131.3110058318633
 21
55.856947775112999
 31
0.0
  0
LINE
  5
8D
  8
3
 10
131.51100583186329
 20
51.856947775113028
 30
0.0
 11
131.51100583186329
 21
55.856947775112999
 31
0.0
  0
LINE
  5
8E
  8
3
 10
131.7110058318633
 20
51.856947775113028
 30
0.0
 11
131.7110058318633
 21
55.856947775112999
 31
0.0
  0
LINE
  5
8F
  8
3
 10
131.91100583186329
 20
51.856947775113028
 30
0.0
 11
131.91100583186329
 21
55.856947775112999
 31
0.0
  0
LINE
  5
90
  8
3
 10
132.0610058318633
 20
51.856947775113028
 30
0.0
 11
132.0610058318633
 21
55.856947775112999
 31
0.0
  0
LINE
  5
91
  8
3
 10
132.2110058318633
 20
51.856947775113028
 30
0.0
 11
132.2110058318633
 21
55.856947775112999
 31
0.0
  0
LINE
  5
92
  8
3
 10
132.36100583186331
 20
51.856947775113028
 30
0.0
 11
132.36100583186331
 21
55.856947775112999
 31
0.0
  0
LINE
  5
93
  8
3
 10
127.4610058318633
 20
51.856947775113028
 30
0.0
 11
127.4610058318633
 21
55.856947775112999
 31
0.0
  0
LINE
  5
94
  8
3
 10
122.5610058318634
 20
51.856947775113028
 30
0.0
 11
122.5610058318634
 21
55.856947775112999
 31
0.0
  0
LINE
  5
95
  8
3
 10
122.7110058318634
 20
51.856947775113028
 30
0.0
 11
122.7110058318634
 21
55.856947775112999
 31
0.0
  0
LINE
  5
96
  8
3
 10
122.8610058318633
 20
51.856947775113028
 30
0.0
 11
122.8610058318633
 21
55.856947775112999
 31
0.0
  0
LINE
  5
97
  8
3
 10
123.0110058318633
 20
51.856947775113028
 30
0.0
 11
123.0110058318633
 21
55.856947775112999
 31
0.0
  0
LINE
  5
98
  8
3
 10
123.2110058318633
 20
51.856947775113028
 30
0.0
 11
123.2110058318633
 21
55.856947775112999
 31
0.0
  0
LINE
  5
99
  8
3
 10
123.41100583186331
 20
51.856947775113028
 30
0.0
 11
123.41100583186331
 21
55.856947775112999
 31
0.0
  0
LINE
  5
9A
  8
3
 10
123.6110058318633
 20
51.856947775113028
 30
0.0
 11
123.6110058318633
 21
55.856947775112999
 31
0.0
  0
LINE
  5
9B
  8
3
 10
123.86100583186339
 20
51.856947775113028
 30
0.0
 11
123.86100583186339
 21
55.856947775112999
 31
0.0
  0
LINE
  5
9C
  8
3
 10
124.11100583186339
 20
51.856947775113028
 30
0.0
 11
124.1110058318633
 21
55.856947775112999
 31
0.0
  0
LINE
  5
9D
  8
3
 10
124.36100583186339
 20
51.856947775113028
 30
0.0
 11
124.36100583186339
 21
55.856947775112999
 31
0.0
  0
LINE
  5
9E
  8
3
 10
124.66100583186331
 20
51.856947775113028
 30
0.0
 11
124.66100583186341
 21
55.856947775112999
 31
0.0
  0
LINE
  5
9F
  8
3
 10
124.9610058318634
 20
51.856947775113028
 30
0.0
 11
124.9610058318633
 21
55.856947775112999
 31
0.0
  0
LINE
  5
A0
  8
3
 10
125.2610058318633
 20
51.856947775113028
 30
0.0
 11
125.2610058318633
 21
55.856947775112999
 31
0.0
  0
LINE
  5
A1
  8
3
 10
125.5610058318634
 20
51.856947775113028
 30
0.0
 11
125.5610058318634
 21
55.856947775112999
 31
0.0
  0
LINE
  5
A2
  8
3
 10
125.8610058318633
 20
51.856947775113028
 30
0.0
 11
125.8610058318633
 21
55.856947775112999
 31
0.0
  0
LINE
  5
A3
  8
3
 10
126.2610058318633
 20
51.856947775113028
 30
0.0
 11
126.2610058318633
 21
55.856947775112999
 31
0.0
  0
LINE
  5
A4
  8
3
 10
126.66100583186331
 20
51.856947775113028
 30
0.0
 11
126.66100583186331
 21
55.856947775112999
 31
0.0
  0
LINE
  5
A5
  8
3
 10
127.0610058318633
 20
51.856947775113028
 30
0.0
 11
127.0610058318633
 21
55.856947775112999
 31
0.0
  0
LINE
  5
A6
  8
1
 10
127.4610058318633
 20
43.656947775113252
 30
0.0
 11
127.4610058318633
 21
65.356947775113241
 31
0.0
  0
LINE
  5
A7
  8
1
 10
48.411949857157019
 20
43.656947775113252
 30
0.0
 11
48.411949857157019
 21
65.356947775113241
 31
0.0
  0
LINE
  5
A8
  8
3
 10
48.811949857157032
 20
51.856947775113028
 30
0.0
 11
48.811949857157032
 21
55.856947775112999
 31
0.0
  0
LINE
  5
A9
  8
3
 10
49.211949857157023
 20
51.856947775113028
 30
0.0
 11
49.211949857157038
 21
55.856947775112999
 31
0.0
  0
LINE
  5
AA
  8
3
 10
49.611949857157008
 20
51.856947775113028
 30
0.0
 11
49.611949857157008
 21
55.856947775112999
 31
0.0
  0
LINE
  5
AB
  8
3
 10
50.01194985715702
 20
51.856947775113028
 30
0.0
 11
50.01194985715702
 21
55.856947775112999
 31
0.0
  0
LINE
  5
AC
  8
3
 10
50.311949857157018
 20
51.856947775113028
 30
0.0
 11
50.311949857157018
 21
55.856947775112999
 31
0.0
  0
LINE
  5
AD
  8
3
 10
50.611949857157008
 20
51.856947775113028
 30
0.0
 11
50.611949857157008
 21
55.856947775112999
 31
0.0
  0
LINE
  5
AE
  8
3
 10
50.911949857157012
 20
51.856947775113028
 30
0.0
 11
50.911949857157019
 21
55.856947775112999
 31
0.0
  0
LINE
  5
AF
  8
3
 10
51.211949857157009
 20
51.856947775113028
 30
0.0
 11
51.211949857157002
 21
55.856947775112999
 31
0.0
  0
LINE
  5
B0
  8
3
 10
51.511949857157013
 20
51.856947775113028
 30
0.0
 11
51.511949857157013
 21
55.856947775112999
 31
0.0
  0
LINE
  5
B1
  8
3
 10
51.761949857156999
 20
51.856947775113028
 30
0.0
 11
51.76194985715702
 21
55.856947775112999
 31
0.0
  0
LINE
  5
B2
  8
3
 10
52.011949857157013
 20
51.856947775113028
 30
0.0
 11
52.011949857157013
 21
55.856947775112999
 31
0.0
  0
LINE
  5
B3
  8
3
 10
52.261949857156999
 20
51.856947775113028
 30
0.0
 11
52.26194985715702
 21
55.856947775112999
 31
0.0
  0
LINE
  5
B4
  8
3
 10
52.461949857157009
 20
51.856947775113028
 30
0.0
 11
52.461949857157009
 21
55.856947775112999
 31
0.0
  0
LINE
  5
B5
  8
3
 10
52.661949857157012
 20
51.856947775113028
 30
0.0
 11
52.661949857157033
 21
55.856947775112999
 31
0.0
  0
LINE
  5
B6
  8
3
 10
52.861949857157022
 20
51.856947775113028
 30
0.0
 11
52.861949857157022
 21
55.856947775112999
 31
0.0
  0
LINE
  5
B7
  8
3
 10
53.01194985715702
 20
51.856947775113028
 30
0.0
 11
53.01194985715702
 21
55.856947775112999
 31
0.0
  0
LINE
  5
B8
  8
3
 10
53.161949857157012
 20
51.856947775113028
 30
0.0
 11
53.161949857156998
 21
55.856947775112999
 31
0.0
  0
LINE
  5
B9
  8
3
 10
53.311949857157011
 20
51.856947775113028
 30
0.0
 11
53.311949857157011
 21
55.856947775112999
 31
0.0
  0
LINE
  5
BA
  8
3
 10
48.411949857157019
 20
51.856947775113028
 30
0.0
 11
48.411949857157019
 21
55.856947775112999
 31
0.0
  0
LINE
  5
BB
  8
3
 10
43.511949857157049
 20
51.856947775113028
 30
0.0
 11
43.511949857157049
 21
55.856947775112999
 31
0.0
  0
LINE
  5
BC
  8
3
 10
43.661949857157019
 20
51.856947775113028
 30
0.0
 11
43.661949857157019
 21
55.856947775112999
 31
0.0
  0
LINE
  5
BD
  8
3
 10
43.81194985715706
 20
51.856947775113028
 30
0.0
 11
43.81194985715706
 21
55.856947775112999
 31
0.0
  0
LINE
  5
BE
  8
3
 10
43.961949857157038
 20
51.856947775113028
 30
0.0
 11
43.961949857157038
 21
55.856947775112999
 31
0.0
  0
LINE
  5
BF
  8
3
 10
44.161949857157019
 20
51.856947775113028
 30
0.0
 11
44.161949857157019
 21
55.856947775112999
 31
0.0
  0
LINE
  5
C0
  8
3
 10
44.361949857157043
 20
51.856947775113028
 30
0.0
 11
44.361949857157043
 21
55.856947775112999
 31
0.0
  0
LINE
  5
C1
  8
3
 10
44.56194985715706
 20
51.856947775113028
 30
0.0
 11
44.56194985715706
 21
55.856947775112999
 31
0.0
  0
LINE
  5
C2
  8
3
 10
44.811949857157053
 20
51.856947775113028
 30
0.0
 11
44.811949857157053
 21
55.856947775112999
 31
0.0
  0
LINE
  5
C3
  8
3
 10
45.06194985715706
 20
51.856947775113028
 30
0.0
 11
45.06194985715706
 21
55.856947775112999
 31
0.0
  0
LINE
  5
C4
  8
3
 10
45.31194985715706
 20
51.856947775113028
 30
0.0
 11
45.31194985715706
 21
55.856947775112999
 31
0.0
  0
LINE
  5
C5
  8
3
 10
45.611949857157043
 20
51.856947775113028
 30
0.0
 11
45.611949857157072
 21
55.856947775112999
 31
0.0
  0
LINE
  5
C6
  8
3
 10
45.911949857157019
 20
51.856947775113028
 30
0.0
 11
45.911949857157019
 21
55.856947775112999
 31
0.0
  0
LINE
  5
C7
  8
3
 10
46.21194985715703
 20
51.856947775113028
 30
0.0
 11
46.21194985715703
 21
55.856947775112999
 31
0.0
  0
LINE
  5
C8
  8
3
 10
46.511949857157042
 20
51.856947775113028
 30
0.0
 11
46.511949857157042
 21
55.856947775112999
 31
0.0
  0
LINE
  5
C9
  8
3
 10
46.811949857157032
 20
51.856947775113028
 30
0.0
 11
46.811949857157003
 21
55.856947775112999
 31
0.0
  0
LINE
  5
CA
  8
3
 10
47.211949857157038
 20
51.856947775113028
 30
0.0
 11
47.211949857157038
 21
55.856947775112999
 31
0.0
  0
LINE
  5
CB
  8
3
 10
47.611949857157008
 20
51.856947775113028
 30
0.0
 11
47.611949857157008
 21
55.856947775112999
 31
0.0
  0
LINE
  5
CC
  8
3
 10
48.01194985715702
 20
51.856947775113028
 30
0.0
 11
48.01194985715702
 21
55.856947775112999
 31
0.0
  0
ARC
  5
CD
  8
0
 10
48.411949857157019
 20
60.356947775112992
 30
0.0
 40
2.5
 50
345.00000000000102
 51
194.99999999999901
  0
LINE
  5
CE
  8
0
 10
50.826764422879677
 20
59.709900162356703
 30
0.0
 11
50.062318134673298
 21
56.856947775113042
 31
0.0
  0
LINE
  5
CF
  8
0
 10
45.997135291434347
 20
59.709900162356703
 30
0.0
 11
46.761581579640762
 21
56.856947775113007
 31
0.0
  0
LINE
  5
D0
  8
0
 10
44.111949857157043
 20
56.856947775113007
 30
0.0
 11
52.711950810831347
 21
56.856947775113042
 31
0.0
  0
ARC
  5
D1
  8
0
 10
44.111949857157043
 20
56.156947775113011
 30
0.0
 40
0.7
 50
90.000000000000028
 51
180.0
  0
LINE
  5
D2
  8
0
 10
43.411949857157019
 20
56.156947775113011
 30
0.0
 11
43.411949857157019
 21
46.556947775113031
 31
0.0
  0
ARC
  5
D3
  8
0
 10
44.111949857157043
 20
46.556947775113031
 30
0.0
 40
0.7
 50
180.0
 51
269.99999999999989
  0
LINE
  5
D4
  8
0
 10
44.111949857157043
 20
45.856947775113028
 30
0.0
 11
52.711949857157038
 21
45.856947775112992
 31
0.0
  0
ARC
  5
D5
  8
0
 10
52.711949857157038
 20
46.556947775112988
 30
0.0
 40
0.7
 50
270.00000000000011
 51
0.0000000000000254
  0
LINE
  5
D6
  8
0
 10
53.411949857157062
 20
56.156947775113011
 30
0.0
 11
53.411949857157062
 21
46.556947775112988
 31
0.0
  0
ARC
  5
D7
  8
0
 10
52.711949857157038
 20
56.156947775113011
 30
0.0
 40
0.7
 50
0.0000000000000763
 51
90.000000000000028
  0
TEXT
  5
1C4
  8
0
 62
     3
 10
0.0
 20
0.0
 30
0.0
 40
5.0
  1
BJ765-05002
  7
STANDARD1
  0
ENDSEC
  0
EOF
