  0
SECTION
  2
HEADER
  9
$ACADVER
  1
AC1009
  9
$INSBASE
 10
0.0
 20
0.0
 30
0.0
  9
$EXTMIN
 10
0.0
 20
-1.4802182810368341
 30
0.0
  9
$EXTMAX
 10
55.606707654051711
 20
42.827548123673502
 30
0.0
  9
$LIMMIN
 10
0.0
 20
0.0
  9
$LIMMAX
 10
75.0
 20
54.0
  9
$ORTHOMODE
 70
     1
  9
$REGENMODE
 70
     1
  9
$FILLMODE
 70
     1
  9
$QTEXTMODE
 70
     0
  9
$MIRRTEXT
 70
     0
  9
$DRAGMODE
 70
     2
  9
$LTSCALE
 40
2.0
  9
$OSMODE
 70
  3071
  9
$ATTMODE
 70
     1
  9
$TEXTSIZE
 40
0.800000000000004
  9
$TRACEWID
 40
0.05
  9
$TEXTSTYLE
  7
STANDARD
  9
$CLAYER
  8
0
  9
$CELTYPE
  6
BYLAYER
  9
$CECOLOR
 62
   256
  9
$DIMSCALE
 40
0.2
  9
$DIMASZ
 40
3.0
  9
$DIMEXO
 40
2.0
  9
$DIMDLI
 40
0.38
  9
$DIMRND
 40
0.0
  9
$DIMDLE
 40
0.0
  9
$DIMEXE
 40
2.0
  9
$DIMTP
 40
0.0
  9
$DIMTM
 40
0.0
  9
$DIMTXT
 40
3.2000000000000002
  9
$DIMCEN
 40
0.0
  9
$DIMTSZ
 40
0.0
  9
$DIMTOL
 70
     0
  9
$DIMLIM
 70
     0
  9
$DIMTIH
 70
     0
  9
$DIMTOH
 70
     0
  9
$DIMSE1
 70
     0
  9
$DIMSE2
 70
     0
  9
$DIMTAD
 70
     1
  9
$DIMZIN
 70
     0
  9
$DIMBLK
  1

  9
$DIMASO
 70
     0
  9
$DIMSHO
 70
     0
  9
$DIMPOST
  1

  9
$DIMAPOST
  1

  9
$DIMALT
 70
     0
  9
$DIMALTD
 70
     2
  9
$DIMALTF
 40
25.399999999999999
  9
$DIMLFAC
 40
1.0
  9
$DIMTOFL
 70
     1
  9
$DIMTVP
 40
1.6000000000000001
  9
$DIMTIX
 70
     1
  9
$DIMSOXD
 70
     0
  9
$DIMSAH
 70
     0
  9
$DIMBLK1
  1

  9
$DIMBLK2
  1

  9
$DIMSTYLE
  2
STANDARD
  9
$DIMCLRD
 70
     0
  9
$DIMCLRE
 70
     0
  9
$DIMCLRT
 70
     0
  9
$DIMTFAC
 40
1.0
  9
$DIMGAP
 40
0.09
  9
$LUNITS
 70
     2
  9
$LUPREC
 70
     4
  9
$SKETCHINC
 40
0.1
  9
$FILLETRAD
 40
0.0
  9
$AUNITS
 70
     0
  9
$AUPREC
 70
     4
  9
$MENU
  1
E:\r13\win\SUPPORT\ACAD
  9
$ELEVATION
 40
0.0
  9
$PELEVATION
 40
0.0
  9
$THICKNESS
 40
0.0
  9
$LIMCHECK
 70
     0
  9
$BLIPMODE
 70
     0
  9
$CHAMFERA
 40
0.0
  9
$CHAMFERB
 40
0.0
  9
$SKPOLY
 70
     0
  9
$TDCREATE
 40
2449840.6235995372
  9
$TDUPDATE
 40
2456598.370959769
  9
$TDINDWG
 40
0.0000945255
  9
$TDUSRTIMER
 40
0.0000945255
  9
$USRTIMER
 70
     1
  9
$ANGBASE
 50
0.0
  9
$ANGDIR
 70
     0
  9
$PDMODE
 70
     0
  9
$PDSIZE
 40
0.0
  9
$PLINEWID
 40
0.0
  9
$COORDS
 70
     1
  9
$SPLFRAME
 70
     0
  9
$SPLINETYPE
 70
     6
  9
$SPLINESEGS
 70
     8
  9
$ATTDIA
 70
     0
  9
$ATTREQ
 70
     1
  9
$HANDLING
 70
     1
  9
$HANDSEED
  5
224
  9
$SURFTAB1
 70
     6
  9
$SURFTAB2
 70
     6
  9
$SURFTYPE
 70
     6
  9
$SURFU
 70
     6
  9
$SURFV
 70
     6
  9
$UCSNAME
  2

  9
$UCSORG
 10
0.0
 20
0.0
 30
0.0
  9
$UCSXDIR
 10
1.0
 20
0.0
 30
0.0
  9
$UCSYDIR
 10
0.0
 20
1.0
 30
0.0
  9
$PUCSNAME
  2

  9
$PUCSORG
 10
0.0
 20
0.0
 30
0.0
  9
$PUCSXDIR
 10
1.0
 20
0.0
 30
0.0
  9
$PUCSYDIR
 10
0.0
 20
1.0
 30
0.0
  9
$USERI1
 70
     0
  9
$USERI2
 70
     1
  9
$USERI3
 70
     0
  9
$USERI4
 70
     0
  9
$USERI5
 70
     0
  9
$USERR1
 40
0.0
  9
$USERR2
 40
0.0
  9
$USERR3
 40
0.0
  9
$USERR4
 40
0.0
  9
$USERR5
 40
0.0
  9
$WORLDVIEW
 70
     1
  9
$SHADEDGE
 70
     3
  9
$SHADEDIF
 70
    70
  9
$TILEMODE
 70
     1
  9
$MAXACTVP
 70
    16
  9
$PLIMCHECK
 70
     0
  9
$PEXTMIN
 10
1.0000000000000000E+020
 20
1.0000000000000000E+020
 30
1.0000000000000000E+020
  9
$PEXTMAX
 10
-1.0000000000000000E+020
 20
-1.0000000000000000E+020
 30
-1.0000000000000000E+020
  9
$PLIMMIN
 10
0.0
 20
0.0
  9
$PLIMMAX
 10
12.0
 20
9.0
  9
$UNITMODE
 70
     0
  9
$VISRETAIN
 70
     0
  9
$PLINEGEN
 70
     0
  9
$PSLTSCALE
 70
     0
  0
ENDSEC
  0
SECTION
  2
TABLES
  0
TABLE
  2
VPORT
 70
     1
  0
VPORT
  2
*ACTIVE
 70
     0
 10
0.0
 20
0.0
 11
1.0
 21
1.0
 12
39.036165471588582
 22
26.259658875478959
 13
0.0
 23
0.0
 14
2.0
 24
2.0
 15
2.0
 25
2.0
 16
0.0
 26
0.0
 36
1.0
 17
0.0
 27
0.0
 37
0.0
 40
55.978266843203883
 41
1.831871345029239
 42
50.0
 43
0.0
 44
0.0
 50
0.0
 51
0.0
 71
     0
 72
   500
 73
     1
 74
     0
 75
     0
 76
     0
 77
     0
 78
     2
  0
ENDTAB
  0
TABLE
  2
LTYPE
 70
     3
  0
LTYPE
  2
CONTINUOUS
 70
     0
  3
Solid Line
 72
    65
 73
     0
 40
0.0
  0
LTYPE
  2
CENTER
 70
     0
  3
____ _ ____ _ ____ _ ____ _ ____ _ ____ _ ____
 72
    65
 73
     4
 40
2.0
 49
1.25
 49
-0.25
 49
0.25
 49
-0.25
  0
LTYPE
  2
PHANTOM2
 70
     0
  3
___ _ _ ___ _ _ ___ _ _ ___ _ _
 72
    65
 73
     6
 40
1.25
 49
0.625
 49
-0.125
 49
0.125
 49
-0.125
 49
0.125
 49
-0.125
  0
ENDTAB
  0
TABLE
  2
LAYER
 70
     3
  0
LAYER
  2
0
 70
     0
 62
     7
  6
CONTINUOUS
  0
LAYER
  2
1
 70
     0
 62
     1
  6
CENTER
  0
LAYER
  2
3
 70
     0
 62
     3
  6
CONTINUOUS
  0
ENDTAB
  0
TABLE
  2
STYLE
 70
     2
  0
STYLE
  2
STANDARD
 70
     0
 40
0.0
 41
1.0
 50
0.0
 71
     0
 42
0.800000000000004
  3
ROMANS
  4
BIGFONT
  0
STYLE
  2
STANDARD1
 70
     0
 40
0.0
 41
1.0
 50
0.0
 71
     0
 42
3.0
  3
txt
  4

  0
ENDTAB
  0
TABLE
  2
VIEW
 70
     1
  0
VIEW
  2
ALL
 70
     0
 40
54.06666666666667
 10
44.252885154061623
 20
26.966666666666669
 41
0.0
 11
0.0
 21
0.0
 31
1.0
 12
0.0
 22
0.0
 32
0.0
 42
0.0
 43
0.0
 44
0.0
 50
0.0
 71
     0
  0
ENDTAB
  0
TABLE
  2
UCS
 70
     0
  0
ENDTAB
  0
TABLE
  2
APPID
 70
     3
  0
APPID
  2
ACAD
 70
     0
  0
APPID
  2
ACAD_MLEADERVER
 70
     0
  0
APPID
  2
ACAD_NAV_VCDISPLAY
 70
     0
  0
ENDTAB
  0
TABLE
  2
DIMSTYLE
 70
     1
  0
DIMSTYLE
  2
STANDARD
 70
     0
  3

  4

  5

  6

  7

 40
1.0
 41
0.18
 42
0.0625
 43
0.38
 44
0.18
 45
0.0
 46
0.0
 47
0.0
 48
0.0
140
0.18
141
0.09
142
0.0
143
25.399999999999999
144
1.0
145
0.0
146
1.0
147
0.09
 71
     0
 72
     0
 73
     1
 74
     1
 75
     0
 76
     0
 77
     0
 78
     0
170
     0
171
     2
172
     0
173
     0
174
     0
175
     0
176
     0
177
     0
178
     0
  0
ENDTAB
  0
ENDSEC
  0
SECTION
  2
BLOCKS
  0
BLOCK
  8
0
  2
$MODEL_SPACE
 70
     0
 10
0.0
 20
0.0
 30
0.0
  3
$MODEL_SPACE
  1

  0
ENDBLK
  5
DA
  8
0
  0
BLOCK
 67
     1
  8
0
  2
$PAPER_SPACE
 70
     0
 10
0.0
 20
0.0
 30
0.0
  3
$PAPER_SPACE
  1

  0
ENDBLK
  5
D8
 67
     1
  8
0
  0
ENDSEC
  0
SECTION
  2
ENTITIES
  0
LINE
  5
36
  8
0
 10
36.568738129646142
 20
20.28806244828283
 30
0.0
 11
31.568738368064722
 21
20.288062448282869
 31
0.0
  0
LINE
  5
37
  8
0
 10
32.61984962863113
 20
22.399833880629089
 30
0.0
 11
33.185697078527397
 21
20.288062448282851
 31
0.0
  0
LINE
  5
38
  8
0
 10
35.517627107498363
 20
22.399833880629089
 30
0.0
 11
34.95177965760206
 21
20.28806244828284
 31
0.0
  0
ARC
  5
39
  8
0
 10
31.568738368064722
 20
13.78806244828284
 30
0.0
 40
0.5
 50
180.0
 51
269.99999999999989
  0
ARC
  5
3A
  8
0
 10
36.568738368064722
 20
13.788062448282851
 30
0.0
 40
0.5
 50
270.0
 51
0.0
  0
ARC
  5
3B
  8
0
 10
36.568738368064722
 20
19.788062448282869
 30
0.0
 40
0.5
 50
0.0
 51
90.0
  0
ARC
  5
3C
  8
0
 10
31.568738368064722
 20
19.788062448282869
 30
0.0
 40
0.5
 50
90.0
 51
179.99999999999989
  0
LINE
  5
3D
  8
0
 10
37.068738368064707
 20
19.788062448282869
 30
0.0
 11
37.068738368064707
 21
13.788062448282851
 31
0.0
  0
LINE
  5
3E
  8
0
 10
31.068738368064722
 20
19.788062448282869
 30
0.0
 11
31.068738368064722
 21
13.78806244828284
 31
0.0
  0
LINE
  5
3F
  8
0
 10
36.568738368064722
 20
13.288062448282851
 30
0.0
 11
31.568738368064722
 21
13.28806244828284
 31
0.0
  0
ARC
  5
40
  8
0
 10
34.068738368064722
 20
22.788062448282869
 30
0.0
 40
1.5
 50
345.00000000001012
 51
194.99999999998991
  0
LINE
  5
41
  8
1
 10
34.068738368064722
 20
12.288062448282851
 30
0.0
 11
34.068738368064722
 21
25.288062448282869
 31
0.0
  0
LINE
  5
42
  8
3
 10
33.668738368064709
 20
16.28806244828284
 30
0.0
 11
33.668738368064723
 21
19.288062448282851
 31
0.0
  0
LINE
  5
43
  8
3
 10
33.268738368064717
 20
16.28806244828284
 30
0.0
 11
33.268738368064717
 21
19.288062448282851
 31
0.0
  0
LINE
  5
44
  8
3
 10
32.868738368064719
 20
16.28806244828284
 30
0.0
 11
32.868738368064733
 21
19.288062448282851
 31
0.0
  0
LINE
  5
45
  8
3
 10
32.568738368064722
 20
16.28806244828284
 30
0.0
 11
32.568738368064722
 21
19.288062448282851
 31
0.0
  0
LINE
  5
46
  8
3
 10
32.268738368064717
 20
16.28806244828284
 30
0.0
 11
32.268738368064717
 21
19.288062448282851
 31
0.0
  0
LINE
  5
47
  8
3
 10
31.95544243839732
 20
16.28806244828284
 30
0.0
 11
31.95544243839732
 21
19.288062448282851
 31
0.0
  0
LINE
  5
48
  8
3
 10
31.705442438397309
 20
16.28806244828284
 30
0.0
 11
31.70544243839732
 21
19.288062448282851
 31
0.0
  0
LINE
  5
49
  8
3
 10
31.505442438397321
 20
16.28806244828284
 30
0.0
 11
31.505442438397331
 21
19.288062448282851
 31
0.0
  0
LINE
  5
4A
  8
3
 10
31.355442438397318
 20
16.28806244828284
 30
0.0
 11
31.355442438397318
 21
19.288062448282851
 31
0.0
  0
LINE
  5
4B
  8
3
 10
31.20544243839732
 20
16.28806244828284
 30
0.0
 11
31.20544243839732
 21
19.288062448282851
 31
0.0
  0
LINE
  5
4C
  8
3
 10
36.932034297732123
 20
16.28806244828284
 30
0.0
 11
36.932034297732109
 21
19.288062448282851
 31
0.0
  0
LINE
  5
4D
  8
3
 10
36.782034297732118
 20
16.28806244828284
 30
0.0
 11
36.78203429773211
 21
19.288062448282851
 31
0.0
  0
LINE
  5
4E
  8
3
 10
36.632034297732119
 20
16.28806244828284
 30
0.0
 11
36.632034297732119
 21
19.288062448282851
 31
0.0
  0
LINE
  5
4F
  8
3
 10
36.432034297732109
 20
16.28806244828284
 30
0.0
 11
36.432034297732123
 21
19.288062448282851
 31
0.0
  0
LINE
  5
50
  8
3
 10
36.182034297732102
 20
16.28806244828284
 30
0.0
 11
36.182034297732123
 21
19.288062448282851
 31
0.0
  0
LINE
  5
51
  8
3
 10
35.868738368064733
 20
16.28806244828284
 30
0.0
 11
35.868738368064733
 21
19.288062448282851
 31
0.0
  0
LINE
  5
52
  8
3
 10
35.568738368064722
 20
16.28806244828284
 30
0.0
 11
35.568738368064722
 21
19.288062448282851
 31
0.0
  0
LINE
  5
53
  8
3
 10
35.268738368064732
 20
16.28806244828284
 30
0.0
 11
35.268738368064717
 21
19.288062448282851
 31
0.0
  0
LINE
  5
54
  8
3
 10
34.868738368064733
 20
16.28806244828284
 30
0.0
 11
34.868738368064719
 21
19.288062448282851
 31
0.0
  0
LINE
  5
55
  8
3
 10
34.46873836806472
 20
16.28806244828284
 30
0.0
 11
34.46873836806472
 21
19.288062448282851
 31
0.0
  0
LINE
  5
56
  8
3
 10
34.068738368064722
 20
16.28806244828284
 30
0.0
 11
34.068738368064722
 21
19.288062448282851
 31
0.0
  0
CIRCLE
  5
57
  8
0
 10
34.068738368064722
 20
38.827548123673502
 30
0.0
 40
3.0
  0
LINE
  5
58
  8
1
 10
38.068738368064722
 20
38.827548123673502
 30
0.0
 11
30.068738368064722
 21
38.827548123673502
 31
0.0
  0
LINE
  5
59
  8
1
 10
34.068738368064722
 20
42.827548123673502
 30
0.0
 11
34.068738368064722
 21
34.827548123673502
 31
0.0
  0
CIRCLE
  5
5A
  8
0
 10
34.068738368064722
 20
38.827548123673502
 30
0.0
 40
1.5
  0
CIRCLE
  5
5B
  8
0
 10
34.068738368064722
 20
38.827548123673502
 30
0.0
 40
2.1000000000000001
  0
LINE
  5
65
  8
3
 10
52.606707654051711
 20
16.28806244828284
 30
0.0
 11
52.606707654051711
 21
19.288062448282851
 31
0.0
  0
LINE
  5
66
  8
3
 10
53.006707654051723
 20
16.28806244828284
 30
0.0
 11
53.006707654051723
 21
19.288062448282851
 31
0.0
  0
LINE
  5
67
  8
3
 10
53.406707654051722
 20
16.28806244828284
 30
0.0
 11
53.406707654051708
 21
19.288062448282851
 31
0.0
  0
LINE
  5
68
  8
3
 10
53.806707654051721
 20
16.28806244828284
 30
0.0
 11
53.806707654051714
 21
19.288062448282851
 31
0.0
  0
LINE
  5
69
  8
3
 10
54.106707654051711
 20
16.28806244828284
 30
0.0
 11
54.106707654051711
 21
19.288062448282851
 31
0.0
  0
LINE
  5
6A
  8
3
 10
54.406707654051722
 20
16.28806244828284
 30
0.0
 11
54.406707654051722
 21
19.288062448282851
 31
0.0
  0
LINE
  5
6B
  8
3
 10
54.720003583719098
 20
16.28806244828284
 30
0.0
 11
54.720003583719112
 21
19.288062448282851
 31
0.0
  0
LINE
  5
6C
  8
3
 10
54.970003583719098
 20
16.28806244828284
 30
0.0
 11
54.970003583719112
 21
19.288062448282851
 31
0.0
  0
LINE
  5
6D
  8
3
 10
55.170003583719122
 20
16.28806244828284
 30
0.0
 11
55.170003583719122
 21
19.288062448282851
 31
0.0
  0
LINE
  5
6E
  8
3
 10
55.320003583719107
 20
16.28806244828284
 30
0.0
 11
55.3200035837191
 21
19.288062448282851
 31
0.0
  0
LINE
  5
6F
  8
3
 10
55.470003583719112
 20
16.28806244828284
 30
0.0
 11
55.470003583719098
 21
19.288062448282851
 31
0.0
  0
LINE
  5
70
  8
3
 10
49.743411724384323
 20
16.28806244828284
 30
0.0
 11
49.743411724384323
 21
19.288062448282851
 31
0.0
  0
LINE
  5
71
  8
3
 10
49.893411724384322
 20
16.28806244828284
 30
0.0
 11
49.893411724384322
 21
19.288062448282851
 31
0.0
  0
LINE
  5
72
  8
3
 10
50.04341172438432
 20
16.28806244828284
 30
0.0
 11
50.043411724384327
 21
19.288062448282851
 31
0.0
  0
LINE
  5
73
  8
3
 10
50.243411724384309
 20
16.28806244828284
 30
0.0
 11
50.243411724384323
 21
19.288062448282851
 31
0.0
  0
LINE
  5
74
  8
3
 10
50.493411724384309
 20
16.28806244828284
 30
0.0
 11
50.493411724384309
 21
19.288062448282851
 31
0.0
  0
LINE
  5
75
  8
3
 10
50.806707654051714
 20
16.28806244828284
 30
0.0
 11
50.806707654051714
 21
19.288062448282851
 31
0.0
  0
LINE
  5
76
  8
3
 10
51.106707654051711
 20
16.28806244828284
 30
0.0
 11
51.106707654051711
 21
19.288062448282851
 31
0.0
  0
LINE
  5
77
  8
3
 10
51.406707654051722
 20
16.28806244828284
 30
0.0
 11
51.406707654051722
 21
19.288062448282851
 31
0.0
  0
LINE
  5
78
  8
3
 10
51.806707654051714
 20
16.28806244828284
 30
0.0
 11
51.806707654051714
 21
19.288062448282851
 31
0.0
  0
LINE
  5
79
  8
3
 10
52.206707654051698
 20
16.28806244828284
 30
0.0
 11
52.206707654051712
 21
19.288062448282851
 31
0.0
  0
LINE
  5
7A
  8
1
 10
52.606707654051711
 20
12.288062448282851
 30
0.0
 11
52.606707654051711
 21
25.288062448282869
 31
0.0
  0
ARC
  5
7B
  8
0
 10
52.606707654051711
 20
22.788062448282869
 30
0.0
 40
1.5
 50
345.00000000001012
 51
194.99999999998991
  0
LINE
  5
7C
  8
0
 10
55.106707654051711
 20
13.288062448282851
 30
0.0
 11
50.106707654051718
 21
13.28806244828284
 31
0.0
  0
LINE
  5
7D
  8
0
 10
49.606707654051718
 20
19.788062448282869
 30
0.0
 11
49.606707654051718
 21
13.78806244828284
 31
0.0
  0
LINE
  5
7E
  8
0
 10
55.606707654051711
 20
19.788062448282869
 30
0.0
 11
55.606707654051711
 21
13.788062448282851
 31
0.0
  0
ARC
  5
7F
  8
0
 10
50.106707654051718
 20
19.788062448282869
 30
0.0
 40
0.5
 50
90.0
 51
179.99999999999989
  0
ARC
  5
80
  8
0
 10
55.106707654051711
 20
19.788062448282869
 30
0.0
 40
0.5
 50
0.0
 51
90.0
  0
ARC
  5
81
  8
0
 10
55.106707654051711
 20
13.788062448282851
 30
0.0
 40
0.5
 50
270.0
 51
0.0
  0
ARC
  5
82
  8
0
 10
50.106707654051718
 20
13.78806244828284
 30
0.0
 40
0.5
 50
180.0
 51
269.99999999999989
  0
LINE
  5
83
  8
0
 10
54.055596393485352
 20
22.399833880629089
 30
0.0
 11
53.489748943589049
 21
20.28806244828284
 31
0.0
  0
LINE
  5
84
  8
0
 10
51.157818914618119
 20
22.399833880629089
 30
0.0
 11
51.723666364514393
 21
20.288062448282851
 31
0.0
  0
LINE
  5
85
  8
0
 10
55.106707415633139
 20
20.28806244828283
 30
0.0
 11
50.106707654051718
 21
20.288062448282869
 31
0.0
  0
LINE
  5
86
  8
0
 10
13.03076932049629
 20
20.28806244828283
 30
0.0
 11
18.030769082077711
 21
20.288062448282869
 31
0.0
  0
LINE
  5
87
  8
0
 10
16.979657821511299
 20
22.399833880629089
 30
0.0
 11
16.413810371615028
 21
20.288062448282851
 31
0.0
  0
LINE
  5
88
  8
0
 10
14.08188034264408
 20
22.399833880629089
 30
0.0
 11
14.64772779254038
 21
20.28806244828284
 31
0.0
  0
ARC
  5
89
  8
0
 10
18.030769082077711
 20
13.78806244828284
 30
0.0
 40
0.5
 50
270.00000000000011
 51
0.0
  0
ARC
  5
8A
  8
0
 10
13.03076908207772
 20
13.788062448282851
 30
0.0
 40
0.5
 50
180.0
 51
270.0
  0
ARC
  5
8B
  8
0
 10
13.03076908207772
 20
19.788062448282869
 30
0.0
 40
0.5
 50
90.0
 51
180.0
  0
ARC
  5
8C
  8
0
 10
18.030769082077711
 20
19.788062448282869
 30
0.0
 40
0.5
 50
0.0000000000000509
 51
90.0
  0
LINE
  5
8D
  8
0
 10
12.53076908207772
 20
19.788062448282869
 30
0.0
 11
12.53076908207772
 21
13.788062448282851
 31
0.0
  0
LINE
  5
8E
  8
0
 10
18.530769082077711
 20
19.788062448282869
 30
0.0
 11
18.530769082077711
 21
13.78806244828284
 31
0.0
  0
LINE
  5
8F
  8
0
 10
13.03076908207772
 20
13.288062448282851
 30
0.0
 11
18.030769082077711
 21
13.28806244828284
 31
0.0
  0
ARC
  5
90
  8
0
 10
15.53076908207772
 20
22.788062448282869
 30
0.0
 40
1.5
 50
345.00000000001012
 51
194.99999999998991
  0
LINE
  5
91
  8
1
 10
15.53076908207772
 20
12.288062448282851
 30
0.0
 11
15.53076908207772
 21
25.288062448282869
 31
0.0
  0
LINE
  5
92
  8
3
 10
15.93076908207772
 20
16.28806244828284
 30
0.0
 11
15.93076908207772
 21
19.288062448282851
 31
0.0
  0
LINE
  5
93
  8
3
 10
16.330769082077708
 20
16.28806244828284
 30
0.0
 11
16.330769082077708
 21
19.288062448282851
 31
0.0
  0
LINE
  5
94
  8
3
 10
16.73076908207771
 20
16.28806244828284
 30
0.0
 11
16.73076908207771
 21
19.288062448282851
 31
0.0
  0
LINE
  5
95
  8
3
 10
17.030769082077718
 20
16.28806244828284
 30
0.0
 11
17.030769082077718
 21
19.288062448282851
 31
0.0
  0
LINE
  5
96
  8
3
 10
17.330769082077708
 20
16.28806244828284
 30
0.0
 11
17.330769082077708
 21
19.288062448282851
 31
0.0
  0
LINE
  5
97
  8
3
 10
17.644065011745109
 20
16.28806244828284
 30
0.0
 11
17.644065011745109
 21
19.288062448282851
 31
0.0
  0
LINE
  5
98
  8
3
 10
17.89406501174512
 20
16.28806244828284
 30
0.0
 11
17.894065011745109
 21
19.288062448282851
 31
0.0
  0
LINE
  5
99
  8
3
 10
18.094065011745109
 20
16.28806244828284
 30
0.0
 11
18.094065011745101
 21
19.288062448282851
 31
0.0
  0
LINE
  5
9A
  8
3
 10
18.244065011745111
 20
16.28806244828284
 30
0.0
 11
18.244065011745111
 21
19.288062448282851
 31
0.0
  0
LINE
  5
9B
  8
3
 10
18.394065011745109
 20
16.28806244828284
 30
0.0
 11
18.394065011745109
 21
19.288062448282851
 31
0.0
  0
LINE
  5
9C
  8
3
 10
12.66747315241032
 20
16.28806244828284
 30
0.0
 11
12.66747315241032
 21
19.288062448282851
 31
0.0
  0
LINE
  5
9D
  8
3
 10
12.81747315241031
 20
16.28806244828284
 30
0.0
 11
12.81747315241032
 21
19.288062448282851
 31
0.0
  0
LINE
  5
9E
  8
3
 10
12.96747315241031
 20
16.28806244828284
 30
0.0
 11
12.96747315241031
 21
19.288062448282851
 31
0.0
  0
LINE
  5
9F
  8
3
 10
13.16747315241032
 20
16.28806244828284
 30
0.0
 11
13.16747315241032
 21
19.288062448282851
 31
0.0
  0
LINE
  5
A0
  8
3
 10
13.417473152410331
 20
16.28806244828284
 30
0.0
 11
13.417473152410309
 21
19.288062448282851
 31
0.0
  0
LINE
  5
A1
  8
3
 10
13.7307690820777
 20
16.28806244828284
 30
0.0
 11
13.7307690820777
 21
19.288062448282851
 31
0.0
  0
LINE
  5
A2
  8
3
 10
14.03076908207772
 20
16.28806244828284
 30
0.0
 11
14.030769082077709
 21
19.288062448282851
 31
0.0
  0
LINE
  5
A3
  8
3
 10
14.33076908207771
 20
16.28806244828284
 30
0.0
 11
14.33076908207771
 21
19.288062448282851
 31
0.0
  0
LINE
  5
A4
  8
3
 10
14.73076908207771
 20
16.28806244828284
 30
0.0
 11
14.73076908207771
 21
19.288062448282851
 31
0.0
  0
LINE
  5
A5
  8
3
 10
15.130769082077711
 20
16.28806244828284
 30
0.0
 11
15.130769082077711
 21
19.288062448282851
 31
0.0
  0
LINE
  5
A6
  8
3
 10
15.53076908207772
 20
16.28806244828284
 30
0.0
 11
15.53076908207772
 21
19.288062448282851
 31
0.0
  0
TEXT
  5
193
  8
0
 62
     3
 10
0.0
 20
0.0
 30
0.0
 40
5.0
  1
BJ765-03002
  7
STANDARD1
  0
ENDSEC
  0
EOF
