  0
SECTION
  2
HEADER
  9
$ACADVER
  1
AC1009
  9
$INSBASE
 10
0.0
 20
0.0
 30
0.0
  9
$EXTMIN
 10
0.0
 20
-2.960436562073669
 30
0.0
  9
$EXTMAX
 10
238.19976516196701
 20
68.048894084185548
 30
0.0
  9
$LIMMIN
 10
0.0
 20
0.0
  9
$LIMMAX
 10
375.0
 20
270.0
  9
$ORTHOMODE
 70
     1
  9
$REGENMODE
 70
     1
  9
$FILLMODE
 70
     1
  9
$QTEXTMODE
 70
     0
  9
$MIRRTEXT
 70
     0
  9
$DRAGMODE
 70
     2
  9
$LTSCALE
 40
10.0
  9
$OSMODE
 70
  3071
  9
$ATTMODE
 70
     1
  9
$TEXTSIZE
 40
3.2000000000000002
  9
$TRACEWID
 40
0.05
  9
$TEXTSTYLE
  7
STANDARD
  9
$CLAYER
  8
0
  9
$CELTYPE
  6
BYLAYER
  9
$CECOLOR
 62
   256
  9
$DIMSCALE
 40
1.0
  9
$DIMASZ
 40
3.0
  9
$DIMEXO
 40
2.0
  9
$DIMDLI
 40
10.0
  9
$DIMRND
 40
0.0
  9
$DIMDLE
 40
0.0
  9
$DIMEXE
 40
2.0
  9
$DIMTP
 40
0.0
  9
$DIMTM
 40
0.0
  9
$DIMTXT
 40
3.2000000000000002
  9
$DIMCEN
 40
0.0
  9
$DIMTSZ
 40
0.0
  9
$DIMTOL
 70
     0
  9
$DIMLIM
 70
     0
  9
$DIMTIH
 70
     0
  9
$DIMTOH
 70
     0
  9
$DIMSE1
 70
     0
  9
$DIMSE2
 70
     0
  9
$DIMTAD
 70
     1
  9
$DIMZIN
 70
     0
  9
$DIMBLK
  1

  9
$DIMASO
 70
     0
  9
$DIMSHO
 70
     0
  9
$DIMPOST
  1

  9
$DIMAPOST
  1

  9
$DIMALT
 70
     0
  9
$DIMALTD
 70
     2
  9
$DIMALTF
 40
25.399999999999999
  9
$DIMLFAC
 40
1.0
  9
$DIMTOFL
 70
     1
  9
$DIMTVP
 40
1.6000000000000001
  9
$DIMTIX
 70
     1
  9
$DIMSOXD
 70
     0
  9
$DIMSAH
 70
     0
  9
$DIMBLK1
  1

  9
$DIMBLK2
  1

  9
$DIMSTYLE
  2
STANDARD
  9
$DIMCLRD
 70
     0
  9
$DIMCLRE
 70
     0
  9
$DIMCLRT
 70
     0
  9
$DIMTFAC
 40
1.0
  9
$DIMGAP
 40
0.09
  9
$LUNITS
 70
     2
  9
$LUPREC
 70
     4
  9
$SKETCHINC
 40
0.1
  9
$FILLETRAD
 40
0.6
  9
$AUNITS
 70
     0
  9
$AUPREC
 70
     4
  9
$MENU
  1
E:\r13\win\SUPPORT\ACAD
  9
$ELEVATION
 40
0.0
  9
$PELEVATION
 40
0.0
  9
$THICKNESS
 40
0.0
  9
$LIMCHECK
 70
     0
  9
$BLIPMODE
 70
     0
  9
$CHAMFERA
 40
0.0
  9
$CHAMFERB
 40
0.0
  9
$SKPOLY
 70
     0
  9
$TDCREATE
 40
2449840.352430555
  9
$TDUPDATE
 40
2456598.3706880328
  9
$TDINDWG
 40
0.0092630324
  9
$TDUSRTIMER
 40
0.0092630324
  9
$USRTIMER
 70
     1
  9
$ANGBASE
 50
0.0
  9
$ANGDIR
 70
     0
  9
$PDMODE
 70
    35
  9
$PDSIZE
 40
0.0
  9
$PLINEWID
 40
0.0
  9
$COORDS
 70
     1
  9
$SPLFRAME
 70
     0
  9
$SPLINETYPE
 70
     6
  9
$SPLINESEGS
 70
     8
  9
$ATTDIA
 70
     0
  9
$ATTREQ
 70
     1
  9
$HANDLING
 70
     1
  9
$HANDSEED
  5
738
  9
$SURFTAB1
 70
     6
  9
$SURFTAB2
 70
     6
  9
$SURFTYPE
 70
     6
  9
$SURFU
 70
     6
  9
$SURFV
 70
     6
  9
$UCSNAME
  2

  9
$UCSORG
 10
0.0
 20
0.0
 30
0.0
  9
$UCSXDIR
 10
1.0
 20
0.0
 30
0.0
  9
$UCSYDIR
 10
0.0
 20
1.0
 30
0.0
  9
$PUCSNAME
  2

  9
$PUCSORG
 10
0.0
 20
0.0
 30
0.0
  9
$PUCSXDIR
 10
1.0
 20
0.0
 30
0.0
  9
$PUCSYDIR
 10
0.0
 20
1.0
 30
0.0
  9
$USERI1
 70
     3
  9
$USERI2
 70
     1
  9
$USERI3
 70
     1
  9
$USERI4
 70
     0
  9
$USERI5
 70
     0
  9
$USERR1
 40
0.0
  9
$USERR2
 40
0.0
  9
$USERR3
 40
0.0
  9
$USERR4
 40
0.0
  9
$USERR5
 40
0.0
  9
$WORLDVIEW
 70
     1
  9
$SHADEDGE
 70
     3
  9
$SHADEDIF
 70
    70
  9
$TILEMODE
 70
     1
  9
$MAXACTVP
 70
    16
  9
$PLIMCHECK
 70
     0
  9
$PEXTMIN
 10
1.0000000000000000E+020
 20
1.0000000000000000E+020
 30
1.0000000000000000E+020
  9
$PEXTMAX
 10
-1.0000000000000000E+020
 20
-1.0000000000000000E+020
 30
-1.0000000000000000E+020
  9
$PLIMMIN
 10
0.0
 20
0.0
  9
$PLIMMAX
 10
12.0
 20
9.0
  9
$UNITMODE
 70
     0
  9
$VISRETAIN
 70
     0
  9
$PLINEGEN
 70
     0
  9
$PSLTSCALE
 70
     0
  0
ENDSEC
  0
SECTION
  2
TABLES
  0
TABLE
  2
VPORT
 70
     1
  0
VPORT
  2
*ACTIVE
 70
     0
 10
0.0
 20
0.0
 11
1.0
 21
1.0
 12
195.0581083320873
 22
133.5127261426681
 13
0.0
 23
0.0
 14
10.0
 24
10.0
 15
10.0
 25
10.0
 16
0.0
 26
0.0
 36
1.0
 17
0.0
 27
0.0
 37
0.0
 40
275.42274993631997
 41
1.831871345029239
 42
50.0
 43
0.0
 44
0.0
 50
0.0
 51
0.0
 71
     0
 72
   100
 73
     1
 74
     0
 75
     0
 76
     0
 77
     0
 78
     2
  0
ENDTAB
  0
TABLE
  2
LTYPE
 70
     3
  0
LTYPE
  2
CONTINUOUS
 70
     0
  3
Solid Line
 72
    65
 73
     0
 40
0.0
  0
LTYPE
  2
CENTER
 70
     0
  3
____ _ ____ _ ____ _ ____ _ ____ _ ____ _ ____
 72
    65
 73
     4
 40
2.0
 49
1.25
 49
-0.25
 49
0.25
 49
-0.25
  0
LTYPE
  2
PHANTOM2
 70
     0
  3
___ _ _ ___ _ _ ___ _ _ ___ _ _
 72
    65
 73
     6
 40
1.25
 49
0.625
 49
-0.125
 49
0.125
 49
-0.125
 49
0.125
 49
-0.125
  0
ENDTAB
  0
TABLE
  2
LAYER
 70
     4
  0
LAYER
  2
0
 70
     0
 62
     7
  6
CONTINUOUS
  0
LAYER
  2
1
 70
     0
 62
     1
  6
CENTER
  0
LAYER
  2
3
 70
     0
 62
     3
  6
CONTINUOUS
  0
LAYER
  2
DEFPOINTS
 70
     0
 62
     7
  6
CONTINUOUS
  0
ENDTAB
  0
TABLE
  2
STYLE
 70
     2
  0
STYLE
  2
STANDARD
 70
     0
 40
0.0
 41
1.0
 50
0.0
 71
     0
 42
3.2000000000000002
  3
TXT
  4
BIGFONT
  0
STYLE
  2
STANDARD1
 70
     0
 40
0.0
 41
1.0
 50
0.0
 71
     0
 42
3.0
  3
txt
  4

  0
ENDTAB
  0
TABLE
  2
VIEW
 70
     1
  0
VIEW
  2
ALL
 70
     0
 40
175.0
 10
143.23529400000001
 20
87.5
 41
0.0
 11
0.0
 21
0.0
 31
1.0
 12
0.0
 22
0.0
 32
0.0
 42
0.0
 43
0.0
 44
0.0
 50
0.0
 71
     0
  0
ENDTAB
  0
TABLE
  2
UCS
 70
     0
  0
ENDTAB
  0
TABLE
  2
APPID
 70
     3
  0
APPID
  2
ACAD
 70
     0
  0
APPID
  2
ACAD_MLEADERVER
 70
     0
  0
APPID
  2
ACAD_NAV_VCDISPLAY
 70
     0
  0
ENDTAB
  0
TABLE
  2
DIMSTYLE
 70
     1
  0
DIMSTYLE
  2
STANDARD
 70
     0
  3

  4

  5

  6

  7

 40
1.0
 41
0.18
 42
0.0625
 43
0.38
 44
0.18
 45
0.0
 46
0.0
 47
0.0
 48
0.0
140
0.18
141
0.09
142
0.0
143
25.399999999999999
144
1.0
145
0.0
146
1.0
147
0.09
 71
     0
 72
     0
 73
     1
 74
     1
 75
     0
 76
     0
 77
     0
 78
     0
170
     0
171
     2
172
     0
173
     0
174
     0
175
     0
176
     0
177
     0
178
     0
  0
ENDTAB
  0
ENDSEC
  0
SECTION
  2
BLOCKS
  0
BLOCK
  8
0
  2
$MODEL_SPACE
 70
     0
 10
0.0
 20
0.0
 30
0.0
  3
$MODEL_SPACE
  1

  0
ENDBLK
  5
128
  8
0
  0
BLOCK
 67
     1
  8
0
  2
$PAPER_SPACE
 70
     0
 10
0.0
 20
0.0
 30
0.0
  3
$PAPER_SPACE
  1

  0
ENDBLK
  5
126
 67
     1
  8
0
  0
BLOCK
  8
0
  2
*X0
 70
     1
 10
0.0
 20
0.0
 30
0.0
  3
*X0
  1

  0
LINE
  5
6D8
  8
0
 62
     0
 10
103.38768940200779
 20
61.56563347166184
 30
0.0
 11
101.90442954944329
 21
63.048893324226299
 31
0.0
  0
LINE
  5
6D9
  8
0
 62
     0
 10
103.38768940200779
 20
59.320569441394561
 30
0.0
 11
99.659365519176063
 21
63.048893324226313
 31
0.0
  0
LINE
  5
6DA
  8
0
 62
     0
 10
103.38768940200779
 20
57.075505411127267
 30
0.0
 11
97.414301488908777
 21
63.048893324226313
 31
0.0
  0
LINE
  5
6DB
  8
0
 62
     0
 10
103.38768940200779
 20
54.83044138085998
 30
0.0
 11
95.169237458641476
 21
63.04889332422632
 31
0.0
  0
LINE
  5
6DC
  8
0
 62
     0
 10
103.38768940200779
 20
52.585377350592701
 30
0.0
 11
93.387689402007794
 21
62.585377350592722
 31
0.0
  0
LINE
  5
6DD
  8
0
 62
     0
 10
103.38768940200779
 20
50.3403133203254
 30
0.0
 11
93.387689402007808
 21
60.340313320325421
 31
0.0
  0
LINE
  5
6DE
  8
0
 62
     0
 10
103.38768940200779
 20
48.095249290058113
 30
0.0
 11
93.387689402007823
 21
58.095249290058128
 31
0.0
  0
LINE
  5
6DF
  8
0
 62
     0
 10
103.38768940200779
 20
45.850185259790827
 30
0.0
 11
93.387689402007808
 21
55.850185259790841
 31
0.0
  0
LINE
  5
6E0
  8
0
 62
     0
 10
103.38768940200779
 20
43.60512122952354
 30
0.0
 11
93.387689402007823
 21
53.605121229523547
 31
0.0
  0
LINE
  5
6E1
  8
0
 62
     0
 10
103.38768940200779
 20
41.360057199256246
 30
0.0
 11
93.387689402007808
 21
51.360057199256268
 31
0.0
  0
LINE
  5
6E2
  8
0
 62
     0
 10
103.38768940200779
 20
39.11499316898896
 30
0.0
 11
93.387689402007808
 21
49.114993168988967
 31
0.0
  0
LINE
  5
6E3
  8
0
 62
     0
 10
103.38768940200779
 20
36.86992913872168
 30
0.0
 11
93.387689402007808
 21
46.869929138721687
 31
0.0
  0
LINE
  5
6E4
  8
0
 62
     0
 10
103.38768940200779
 20
34.624865108454372
 30
0.0
 11
93.387689402007808
 21
44.624865108454387
 31
0.0
  0
LINE
  5
6E5
  8
0
 62
     0
 10
103.38768940200779
 20
32.379801078187093
 30
0.0
 11
93.387689402007823
 21
42.3798010781871
 31
0.0
  0
LINE
  5
6E6
  8
0
 62
     0
 10
102.47353312570129
 20
31.048893324226299
 30
0.0
 11
93.387689402007808
 21
40.134737047919828
 31
0.0
  0
LINE
  5
6E7
  8
0
 62
     0
 10
100.22846909543399
 20
31.048893324226299
 30
0.0
 11
93.387689402007823
 21
37.889673017652541
 31
0.0
  0
LINE
  5
6E8
  8
0
 62
     0
 10
97.983405065166764
 20
31.048893324226299
 30
0.0
 11
93.387689402007823
 21
35.64460898738524
 31
0.0
  0
LINE
  5
6E9
  8
0
 62
     0
 10
95.738341034899477
 20
31.048893324226299
 30
0.0
 11
93.387689402007823
 21
33.399544957117953
 31
0.0
  0
LINE
  5
6EA
  8
0
 62
     0
 10
93.493277004632176
 20
31.048893324226281
 30
0.0
 11
93.387689402007823
 21
31.15448092685066
 31
0.0
  0
LINE
  5
6EB
  8
0
 62
     0
 10
103.02396191435879
 20
31.04889332422632
 30
0.0
 11
103.38768940200779
 21
31.412620811875271
 31
0.0
  0
LINE
  5
6EC
  8
0
 62
     0
 10
100.77889788409161
 20
31.04889332422632
 30
0.0
 11
103.38768940200779
 21
33.657684842142551
 31
0.0
  0
LINE
  5
6ED
  8
0
 62
     0
 10
98.533833853824291
 20
31.048893324226299
 30
0.0
 11
103.38768940200779
 21
35.90274887240983
 31
0.0
  0
LINE
  5
6EE
  8
0
 62
     0
 10
96.288769823556976
 20
31.048893324226299
 30
0.0
 11
103.38768940200779
 21
38.147812902677117
 31
0.0
  0
LINE
  5
6EF
  8
0
 62
     0
 10
94.043705793289718
 20
31.04889332422632
 30
0.0
 11
103.38768940200779
 21
40.39287693294439
 31
0.0
  0
LINE
  5
6F0
  8
0
 62
     0
 10
93.387689402007823
 20
32.637940963211697
 30
0.0
 11
103.38768940200779
 21
42.63794096321169
 31
0.0
  0
LINE
  5
6F1
  8
0
 62
     0
 10
93.387689402007808
 20
34.883004993478977
 30
0.0
 11
103.38768940200779
 21
44.88300499347897
 31
0.0
  0
LINE
  5
6F2
  8
0
 62
     0
 10
93.387689402007823
 20
37.128069023746271
 30
0.0
 11
103.38768940200779
 21
47.128069023746249
 31
0.0
  0
LINE
  5
6F3
  8
0
 62
     0
 10
93.387689402007823
 20
39.373133054013572
 30
0.0
 11
103.38768940200779
 21
49.373133054013572
 31
0.0
  0
LINE
  5
6F4
  8
0
 62
     0
 10
93.387689402007808
 20
41.61819708428083
 30
0.0
 11
103.38768940200779
 21
51.61819708428083
 31
0.0
  0
LINE
  5
6F5
  8
0
 62
     0
 10
93.387689402007808
 20
43.863261114548123
 30
0.0
 11
103.38768940200779
 21
53.863261114548123
 31
0.0
  0
LINE
  5
6F6
  8
0
 62
     0
 10
93.387689402007823
 20
46.10832514481541
 30
0.0
 11
103.38768940200779
 21
56.10832514481541
 31
0.0
  0
LINE
  5
6F7
  8
0
 62
     0
 10
93.387689402007808
 20
48.353389175082683
 30
0.0
 11
103.38768940200779
 21
58.353389175082683
 31
0.0
  0
LINE
  5
6F8
  8
0
 62
     0
 10
93.387689402007823
 20
50.598453205349998
 30
0.0
 11
103.38768940200779
 21
60.598453205349998
 31
0.0
  0
LINE
  5
6F9
  8
0
 62
     0
 10
93.387689402007808
 20
52.843517235617263
 30
0.0
 11
103.38768940200779
 21
62.843517235617263
 31
0.0
  0
LINE
  5
6FA
  8
0
 62
     0
 10
93.387689402007823
 20
55.088581265884557
 30
0.0
 11
101.34800146034959
 21
63.048893324226341
 31
0.0
  0
LINE
  5
6FB
  8
0
 62
     0
 10
93.387689402007823
 20
57.333645296151872
 30
0.0
 11
99.102937430082321
 21
63.048893324226327
 31
0.0
  0
LINE
  5
6FC
  8
0
 62
     0
 10
93.387689402007794
 20
59.57870932641913
 30
0.0
 11
96.857873399815006
 21
63.048893324226327
 31
0.0
  0
LINE
  5
6FD
  8
0
 62
     0
 10
93.387689402007823
 20
61.823773356686431
 30
0.0
 11
94.612809369547705
 21
63.048893324226327
 31
0.0
  0
ENDBLK
  5
6FF
  8
0
  0
ENDSEC
  0
SECTION
  2
ENTITIES
  0
LINE
  5
3BC
  8
0
 10
93.387689449505274
 20
63.048894084185548
 30
0.0
 11
92.387689402007837
 21
62.0488929889502
 31
0.0
  0
LINE
  5
3BD
  8
0
 10
92.387689402007837
 20
32.048893659502433
 30
0.0
 11
93.387689449505274
 21
31.048892564267081
 31
0.0
  0
LINE
  5
3BE
  8
0
 10
93.387689449505274
 20
31.048892564267081
 30
0.0
 11
103.38768934240321
 21
31.048892564267081
 31
0.0
  0
LINE
  5
3BF
  8
0
 10
103.38768934240321
 20
63.048894084185548
 30
0.0
 11
93.387689449505274
 21
63.048894084185548
 31
0.0
  0
LINE
  5
3C0
  8
0
 10
103.38768934240321
 20
31.048892564267081
 30
0.0
 11
104.38768950631589
 21
32.048893659502433
 31
0.0
  0
LINE
  5
3C1
  8
0
 10
104.38768950631589
 20
62.0488929889502
 30
0.0
 11
103.38768934240321
 21
63.048894084185548
 31
0.0
  0
ARC
  5
3C2
  8
0
 10
104.9876894020078
 20
53.648893324226322
 30
0.0
 40
0.5999999999999944
 50
180.0
 51
270.0
  0
ARC
  5
3C3
  8
0
 10
104.9876894020078
 20
40.448893324226333
 30
0.0
 40
0.6000000000000086
 50
90.0
 51
180.0
  0
LINE
  5
3C4
  8
0
 10
104.9876894183991
 20
41.048893272072227
 30
0.0
 11
157.0216623448369
 21
41.048893272072227
 31
0.0
  0
LINE
  5
3C5
  8
0
 10
157.0216623448369
 20
53.048893376380363
 30
0.0
 11
104.9876894183991
 21
53.048893376380363
 31
0.0
  0
LINE
  5
3C6
  8
0
 10
157.0216623448369
 20
41.048893272072227
 30
0.0
 11
157.88768803110099
 21
42.548893517941387
 31
0.0
  0
LINE
  5
3C7
  8
0
 10
157.88768803110099
 20
51.548893130511203
 30
0.0
 11
157.0216623448369
 21
53.048893376380363
 31
0.0
  0
LINE
  5
3C8
  8
0
 10
157.88768803110099
 20
42.548893517941387
 30
0.0
 11
163.3179766439435
 21
42.548893517941387
 31
0.0
  0
LINE
  5
3C9
  8
0
 10
163.3179766439435
 20
51.548893130511203
 30
0.0
 11
157.88768803110099
 21
51.548893130511203
 31
0.0
  0
ARC
  5
3CA
  8
0
 10
154.38768940200779
 20
47.048893324226299
 30
0.0
 40
10.0
 50
333.25631604959767
 51
0.0
  0
ARC
  5
3CB
  8
0
 10
154.38768940200779
 20
47.048893324226299
 30
0.0
 40
10.0
 50
0.0
 51
26.743683950403039
  0
LINE
  5
3CC
  8
0
 10
93.387689449505274
 20
63.048894084185548
 30
0.0
 11
93.387689449505274
 21
31.048892564267081
 31
0.0
  0
LINE
  5
3CD
  8
0
 10
92.387689402007837
 20
32.048893659502433
 30
0.0
 11
92.387689402007837
 21
62.0488929889502
 31
0.0
  0
LINE
  5
3CE
  8
0
 10
103.38768934240321
 20
31.048892564267081
 30
0.0
 11
103.38768934240321
 21
63.048894084185548
 31
0.0
  0
LINE
  5
3CF
  8
0
 10
104.38768950631589
 20
62.0488929889502
 30
0.0
 11
104.38768950631589
 21
32.048893659502433
 31
0.0
  0
LINE
  5
3D1
  8
0
 10
157.0216623448369
 20
41.048893272072227
 30
0.0
 11
157.02166234483701
 21
53.048893376380271
 31
0.0
  0
LINE
  5
3D3
  8
0
 10
157.88768803110099
 20
42.548893517941387
 30
0.0
 11
157.88768803110091
 21
51.548893130511033
 31
0.0
  0
LINE
  5
3D5
  8
0
 10
163.3179766439435
 20
42.548893517941387
 30
0.0
 11
163.3179766439435
 21
51.548893130511203
 31
0.0
  0
INSERT
  5
3DA
  8
3
  6
CONTINUOUS
  2
*X0
 10
0.0
 20
0.0
 30
0.0
1001
ACAD
1000
HATCH
1002
{
1070
    19
1000
ANSI37
1040
0.5
1040
0.0
1000
R14_HATCH_DATA
1000
3DA
1011
1.0
1021
0.0
1031
0.0
1021
0.0
1031
0.0
1011
0.0
1021
0.0
1031
0.0
1021
1.0
1031
0.0
1011
0.0
1021
0.0
1031
0.0
1021
0.0
1031
1.0
1040
0.0
1010
0.0
1020
0.0
1030
1.0
1000
ANSI37
1070
     0
1070
     0
1071
        1
1071
        0
1071
        4
1070
     1
1040
103.38768940200779
1040
63.04889332422632
1040
103.38768940200779
1040
31.04889332422632
1070
     1
1040
103.38768940200779
1040
31.048893324226299
1040
93.387689402007823
1040
31.048893324226299
1070
     1
1040
93.387689402007823
1040
31.048893324226299
1040
93.387689402007823
1040
63.048893324226313
1070
     1
1040
93.387689402007823
1040
63.04889332422632
1040
103.38768940200779
1040
63.04889332422632
1071
        0
1070
     0
1070
     1
1040
0.0
1040
0.5
1070
     0
1070
     2
1040
0.7853981633974483
1040
-18.48471011440347
1040
-72.499266462397713
1040
-1.1225320151336431
1040
1.122532015133644
1070
     0
1040
2.3561944901923439
1040
-18.48471011440347
1040
-72.499266462397713
1040
-1.122532015133644
1040
-1.1225320151336431
1070
     0
1071
        1
1040
-18.48471011440347
1040
-72.499266462397713
1040
0.0
1002
}
  0
LINE
  5
3E9
  8
3
 10
107.8876891486881
 20
41.948893140196958
 30
0.0
 11
157.54128073682759
 21
41.948893140196958
 31
0.0
  0
LINE
  5
3EA
  8
3
 10
157.54128073682759
 20
52.14889350825564
 30
0.0
 11
107.8876891486881
 21
52.14889350825564
 31
0.0
  0
LINE
  5
3EB
  8
0
 10
107.8876891486881
 20
41.048893272072227
 30
0.0
 11
107.8876891486881
 21
41.092640287369647
 31
0.0
  0
LINE
  5
3EC
  8
0
 10
107.8876891486881
 20
41.092640287369647
 30
0.0
 11
107.8876891486881
 21
53.048893376380363
 31
0.0
  0
LINE
  5
3F7
  8
1
 10
87.387689402007837
 20
47.048893324226299
 30
0.0
 11
169.38768940200779
 21
47.048893324226299
 31
0.0
  0
LINE
  5
4BE
  8
3
 10
107.8876891486881
 20
52.14889350825564
 30
0.0
 11
106.32884365032
 21
53.048893376380363
 31
0.0
  0
LINE
  5
4BF
  8
3
 10
107.8876891486881
 20
41.948893140196958
 30
0.0
 11
106.32884365029059
 21
41.048893272072227
 31
0.0
  0
LINE
  5
4C3
  8
1
 10
39.634639402007792
 20
68.048894084185548
 30
0.0
 11
39.634639402007792
 21
26.048892564267049
 31
0.0
  0
LINE
  5
4C4
  8
1
 10
60.634640161967013
 20
47.048893324226299
 30
0.0
 11
18.634638642048571
 21
47.048893324226299
 31
0.0
  0
CIRCLE
  5
4C5
  8
0
 10
39.634639402007792
 20
47.048893324226299
 30
0.0
 40
16.000000759959249
  0
CIRCLE
  5
4C6
  8
0
 10
39.634639402007792
 20
47.048893324226299
 30
0.0
 40
14.9999996647239
  0
LINE
  5
4C7
  8
1
 10
217.1997644020077
 20
68.048894084185548
 30
0.0
 11
217.1997644020077
 21
26.048892564267049
 31
0.0
  0
LINE
  5
4C8
  8
1
 10
238.19976516196701
 20
47.048893324226299
 30
0.0
 11
196.19976364204851
 21
47.048893324226299
 31
0.0
  0
CIRCLE
  5
4C9
  8
3
 10
217.1997644020077
 20
47.048893324226299
 30
0.0
 40
5.1000001840293399
  0
CIRCLE
  5
4CA
  8
0
 10
217.1997644020077
 20
47.048893324226299
 30
0.0
 40
4.4999998062849036
  0
CIRCLE
  5
4CB
  8
0
 10
217.1997644020077
 20
47.048893324226299
 30
0.0
 40
16.000000759959249
  0
CIRCLE
  5
4CC
  8
0
 10
217.1997644020077
 20
47.048893324226299
 30
0.0
 40
14.9999996647239
  0
CIRCLE
  5
4DD
  8
0
 10
217.1997644020079
 20
47.048893324226299
 30
0.0
 40
6.0000000521540642
  0
TEXT
  5
67E
  8
0
 62
     3
 10
0.0
 20
0.0
 30
0.0
 40
10.0
  1
BJ764-12001
  7
STANDARD1
  0
ENDSEC
  0
EOF
