  0
SECTION
  2
HEADER
  9
$ACADVER
  1
AC1009
  9
$INSBASE
 10
0.0
 20
0.0
 30
0.0
  9
$EXTMIN
 10
0.0
 20
-1.4802182810368341
 30
0.0
  9
$EXTMAX
 10
128.80000000000021
 20
72.5
 30
0.0
  9
$LIMMIN
 10
0.0
 20
0.0
  9
$LIMMAX
 10
270.0
 20
175.0
  9
$ORTHOMODE
 70
     1
  9
$REGENMODE
 70
     1
  9
$FILLMODE
 70
     1
  9
$QTEXTMODE
 70
     0
  9
$MIRRTEXT
 70
     0
  9
$DRAGMODE
 70
     2
  9
$LTSCALE
 40
5.0
  9
$OSMODE
 70
  3071
  9
$ATTMODE
 70
     1
  9
$TEXTSIZE
 40
3.200000000000049
  9
$TRACEWID
 40
0.05
  9
$TEXTSTYLE
  7
STANDARD
  9
$CLAYER
  8
0
  9
$CELTYPE
  6
BYLAYER
  9
$CECOLOR
 62
   256
  9
$DIMSCALE
 40
1.0
  9
$DIMASZ
 40
3.0
  9
$DIMEXO
 40
2.0
  9
$DIMDLI
 40
0.38
  9
$DIMRND
 40
0.0
  9
$DIMDLE
 40
0.0
  9
$DIMEXE
 40
2.0
  9
$DIMTP
 40
0.0
  9
$DIMTM
 40
0.0
  9
$DIMTXT
 40
3.2000000000000002
  9
$DIMCEN
 40
0.0
  9
$DIMTSZ
 40
0.0
  9
$DIMTOL
 70
     0
  9
$DIMLIM
 70
     0
  9
$DIMTIH
 70
     0
  9
$DIMTOH
 70
     0
  9
$DIMSE1
 70
     0
  9
$DIMSE2
 70
     0
  9
$DIMTAD
 70
     1
  9
$DIMZIN
 70
     0
  9
$DIMBLK
  1

  9
$DIMASO
 70
     0
  9
$DIMSHO
 70
     0
  9
$DIMPOST
  1

  9
$DIMAPOST
  1

  9
$DIMALT
 70
     0
  9
$DIMALTD
 70
     2
  9
$DIMALTF
 40
25.399999999999999
  9
$DIMLFAC
 40
1.0
  9
$DIMTOFL
 70
     0
  9
$DIMTVP
 40
1.6000000000000001
  9
$DIMTIX
 70
     1
  9
$DIMSOXD
 70
     0
  9
$DIMSAH
 70
     0
  9
$DIMBLK1
  1

  9
$DIMBLK2
  1

  9
$DIMSTYLE
  2
STANDARD
  9
$DIMCLRD
 70
     0
  9
$DIMCLRE
 70
     0
  9
$DIMCLRT
 70
     0
  9
$DIMTFAC
 40
1.0
  9
$DIMGAP
 40
0.09
  9
$LUNITS
 70
     2
  9
$LUPREC
 70
     4
  9
$SKETCHINC
 40
0.1
  9
$FILLETRAD
 40
0.0
  9
$AUNITS
 70
     0
  9
$AUPREC
 70
     4
  9
$MENU
  1
ACAD
  9
$ELEVATION
 40
0.0
  9
$PELEVATION
 40
0.0
  9
$THICKNESS
 40
0.0
  9
$LIMCHECK
 70
     0
  9
$BLIPMODE
 70
     0
  9
$CHAMFERA
 40
0.0
  9
$CHAMFERB
 40
0.0
  9
$SKPOLY
 70
     0
  9
$TDCREATE
 40
2448328.5657407409
  9
$TDUPDATE
 40
2456598.3699928941
  9
$TDINDWG
 40
0.0376833912
  9
$TDUSRTIMER
 40
0.0376833912
  9
$USRTIMER
 70
     1
  9
$ANGBASE
 50
0.0
  9
$ANGDIR
 70
     0
  9
$PDMODE
 70
     0
  9
$PDSIZE
 40
0.0
  9
$PLINEWID
 40
0.0
  9
$COORDS
 70
     1
  9
$SPLFRAME
 70
     0
  9
$SPLINETYPE
 70
     6
  9
$SPLINESEGS
 70
     8
  9
$ATTDIA
 70
     0
  9
$ATTREQ
 70
     1
  9
$HANDLING
 70
     1
  9
$HANDSEED
  5
3A5
  9
$SURFTAB1
 70
     6
  9
$SURFTAB2
 70
     6
  9
$SURFTYPE
 70
     6
  9
$SURFU
 70
     6
  9
$SURFV
 70
     6
  9
$UCSNAME
  2

  9
$UCSORG
 10
0.0
 20
0.0
 30
0.0
  9
$UCSXDIR
 10
1.0
 20
0.0
 30
0.0
  9
$UCSYDIR
 10
0.0
 20
1.0
 30
0.0
  9
$PUCSNAME
  2

  9
$PUCSORG
 10
0.0
 20
0.0
 30
0.0
  9
$PUCSXDIR
 10
1.0
 20
0.0
 30
0.0
  9
$PUCSYDIR
 10
0.0
 20
1.0
 30
0.0
  9
$USERI1
 70
     4
  9
$USERI2
 70
     1
  9
$USERI3
 70
     1
  9
$USERI4
 70
     0
  9
$USERI5
 70
     0
  9
$USERR1
 40
0.0
  9
$USERR2
 40
0.0
  9
$USERR3
 40
0.0
  9
$USERR4
 40
0.0
  9
$USERR5
 40
0.0
  9
$WORLDVIEW
 70
     1
  9
$SHADEDGE
 70
     3
  9
$SHADEDIF
 70
    70
  9
$TILEMODE
 70
     1
  9
$MAXACTVP
 70
    16
  9
$PLIMCHECK
 70
     0
  9
$PEXTMIN
 10
1.0000000000000000E+020
 20
1.0000000000000000E+020
 30
1.0000000000000000E+020
  9
$PEXTMAX
 10
-1.0000000000000000E+020
 20
-1.0000000000000000E+020
 30
-1.0000000000000000E+020
  9
$PLIMMIN
 10
0.0
 20
0.0
  9
$PLIMMAX
 10
12.0
 20
9.0
  9
$UNITMODE
 70
     0
  9
$VISRETAIN
 70
     0
  9
$PLINEGEN
 70
     1
  9
$PSLTSCALE
 70
     0
  0
ENDSEC
  0
SECTION
  2
TABLES
  0
TABLE
  2
VPORT
 70
     1
  0
VPORT
  2
*ACTIVE
 70
     0
 10
0.0
 20
0.0
 11
1.0
 21
1.0
 12
139.88615432881801
 22
86.756324970927466
 13
0.0
 23
0.0
 14
10.0
 24
10.0
 15
20.0
 25
20.0
 16
0.0
 26
0.0
 36
1.0
 17
0.0
 27
0.0
 37
0.0
 40
178.07019624700729
 41
1.831871345029239
 42
50.0
 43
0.0
 44
0.0
 50
0.0
 51
0.0
 71
     0
 72
   500
 73
     1
 74
     0
 75
     0
 76
     0
 77
     0
 78
     2
  0
ENDTAB
  0
TABLE
  2
LTYPE
 70
     3
  0
LTYPE
  2
CONTINUOUS
 70
     0
  3
Solid Line
 72
    65
 73
     0
 40
0.0
  0
LTYPE
  2
CENTER
 70
     0
  3
____ _ ____ _ ____ _ ____ _ ____ _ ____ _ ____
 72
    65
 73
     4
 40
2.0
 49
1.25
 49
-0.25
 49
0.25
 49
-0.25
  0
LTYPE
  2
PHANTOM2
 70
     0
  3
___ _ _ ___ _ _ ___ _ _ ___ _ _
 72
    65
 73
     6
 40
1.25
 49
0.625
 49
-0.125
 49
0.125
 49
-0.125
 49
0.125
 49
-0.125
  0
ENDTAB
  0
TABLE
  2
LAYER
 70
     3
  0
LAYER
  2
0
 70
     0
 62
     7
  6
CONTINUOUS
  0
LAYER
  2
1
 70
     0
 62
     1
  6
CENTER
  0
LAYER
  2
3
 70
     0
 62
     3
  6
CONTINUOUS
  0
ENDTAB
  0
TABLE
  2
STYLE
 70
     2
  0
STYLE
  2
STANDARD
 70
     0
 40
0.0
 41
1.0
 50
0.0
 71
     0
 42
3.200000000000049
  3
SIMPLEX
  4
BIGFONT
  0
STYLE
  2
STANDARD1
 70
     0
 40
0.0
 41
1.0
 50
0.0
 71
     0
 42
3.0
  3
txt
  4

  0
ENDTAB
  0
TABLE
  2
VIEW
 70
     1
  0
VIEW
  2
ALL
 70
     0
 40
175.0
 10
138.22205882352941
 20
87.5
 41
0.0
 11
0.0
 21
0.0
 31
1.0
 12
0.0
 22
0.0
 32
0.0
 42
0.0
 43
0.0
 44
0.0
 50
0.0
 71
     0
  0
ENDTAB
  0
TABLE
  2
UCS
 70
     0
  0
ENDTAB
  0
TABLE
  2
APPID
 70
     3
  0
APPID
  2
ACAD
 70
     0
  0
APPID
  2
ACAD_MLEADERVER
 70
     0
  0
APPID
  2
ACAD_NAV_VCDISPLAY
 70
     0
  0
ENDTAB
  0
TABLE
  2
DIMSTYLE
 70
     1
  0
DIMSTYLE
  2
STANDARD
 70
     0
  3

  4

  5

  6

  7

 40
1.0
 41
0.18
 42
0.0625
 43
0.38
 44
0.18
 45
0.0
 46
0.0
 47
0.0
 48
0.0
140
0.18
141
0.09
142
0.0
143
25.399999999999999
144
1.0
145
0.0
146
1.0
147
0.09
 71
     0
 72
     0
 73
     1
 74
     1
 75
     0
 76
     0
 77
     0
 78
     0
170
     0
171
     2
172
     0
173
     0
174
     0
175
     0
176
     0
177
     0
178
     0
  0
ENDTAB
  0
ENDSEC
  0
SECTION
  2
BLOCKS
  0
BLOCK
  8
0
  2
$MODEL_SPACE
 70
     0
 10
0.0
 20
0.0
 30
0.0
  3
$MODEL_SPACE
  1

  0
ENDBLK
  5
14C
  8
0
  0
BLOCK
 67
     1
  8
0
  2
$PAPER_SPACE
 70
     0
 10
0.0
 20
0.0
 30
0.0
  3
$PAPER_SPACE
  1

  0
ENDBLK
  5
14A
 67
     1
  8
0
  0
ENDSEC
  0
SECTION
  2
ENTITIES
  0
LINE
  5
AC
  8
0
 10
102.4999999999999
 20
33.0
 30
0.0
 11
102.9999999999999
 21
32.5
 31
0.0
  0
LINE
  5
AD
  8
0
 10
102.4999999999999
 20
67.0
 30
0.0
 11
102.4999999999999
 21
33.0
 31
0.0
  0
LINE
  5
AE
  8
0
 10
102.9999999999999
 20
67.5
 30
0.0
 11
102.4999999999999
 21
67.0
 31
0.0
  0
LINE
  5
AF
  8
0
 10
111.9999999999999
 20
67.5
 30
0.0
 11
102.9999999999999
 21
67.5
 31
0.0
  0
LINE
  5
B0
  8
0
 10
112.4999999999999
 20
67.0
 30
0.0
 11
111.9999999999999
 21
67.5
 31
0.0
  0
LINE
  5
B2
  8
0
 10
111.9999999999999
 20
32.5
 30
0.0
 11
112.4999999999999
 21
33.0
 31
0.0
  0
LINE
  5
B3
  8
0
 10
102.9999999999999
 20
32.5
 30
0.0
 11
111.9999999999999
 21
32.5
 31
0.0
  0
CIRCLE
  5
B5
  8
0
 10
40.0
 20
50.0
 30
0.0
 40
17.5
  0
LINE
  5
BE
  8
0
 10
112.5
 20
33.000000000000107
 30
0.0
 11
112.4999999999999
 21
67.000000000000014
 31
0.0
  0
LINE
  5
DC
  8
1
 10
97.499999999999943
 20
50.000000000000071
 30
0.0
 11
128.80000000000021
 21
49.999999999999631
 31
0.0
  0
LINE
  5
DD
  8
0
 10
37.500000000000277
 20
48.55662432702615
 30
0.0
 11
40.000000000000277
 21
47.113248654052022
 31
0.0
  0
LINE
  5
DE
  8
0
 10
40.000000000000277
 20
47.113248654052022
 30
0.0
 11
42.5
 21
48.55662432702615
 31
0.0
  0
LINE
  5
DF
  8
0
 10
42.5
 20
48.55662432702615
 30
0.0
 11
42.5
 21
51.443375672974689
 31
0.0
  0
LINE
  5
E0
  8
0
 10
42.5
 20
51.443375672974689
 30
0.0
 11
40.0
 21
52.886751345948248
 31
0.0
  0
LINE
  5
E1
  8
0
 10
40.0
 20
52.886751345948248
 30
0.0
 11
37.499999999999723
 21
51.443375672973843
 31
0.0
  0
LINE
  5
E2
  8
0
 10
37.499999999999723
 20
51.443375672973843
 30
0.0
 11
37.500000000000277
 21
48.55662432702615
 31
0.0
  0
LINE
  5
ED
  8
0
 10
123.8000000000002
 20
52.800000000000018
 30
0.0
 11
123.8000000000001
 21
47.200000000000031
 31
0.0
  0
LINE
  5
EE
  8
0
 10
112.5
 20
46.00000000000005
 30
0.0
 11
122.60000000000019
 21
46.000000000000028
 31
0.0
  0
LINE
  5
EF
  8
3
 10
112.5
 20
46.67649999999994
 30
0.0
 11
123.2765
 21
46.676499999999933
 31
0.0
  0
LINE
  5
F0
  8
3
 10
112.5
 20
53.323500000000188
 30
0.0
 11
123.2765000000001
 21
53.323500000000138
 31
0.0
  0
LINE
  5
F1
  8
0
 10
112.5
 20
54.00000000000005
 30
0.0
 11
122.60000000000019
 21
54.000000000000028
 31
0.0
  0
LINE
  5
F2
  8
0
 10
122.60000000000019
 20
54.000000000000028
 30
0.0
 11
123.8000000000002
 21
52.800000000000018
 31
0.0
  0
LINE
  5
F3
  8
0
 10
123.8000000000001
 20
47.200000000000031
 30
0.0
 11
122.60000000000019
 21
46.000000000000028
 31
0.0
  0
LINE
  5
F4
  8
0
 10
122.60000000000019
 20
54.00000000000005
 30
0.0
 11
122.60000000000019
 21
46.000000000000007
 31
0.0
  0
LINE
  5
104
  8
1
 10
62.5
 20
50.0
 30
0.0
 11
17.5
 21
50.0
 31
0.0
  0
LINE
  5
105
  8
1
 10
40.0
 20
72.5
 30
0.0
 11
40.0
 21
27.5
 31
0.0
  0
CIRCLE
  5
25A
  8
0
 10
40.0
 20
50.0
 30
0.0
 40
8.0000000000000568
  0
CIRCLE
  5
25B
  8
0
 10
40.0
 20
50.0
 30
0.0
 40
9.7000000000001734
  0
TEXT
  5
315
  8
0
 62
     3
 10
0.0
 20
0.0
 30
0.0
 40
5.0
  1
BJ763-08002
  7
STANDARD1
  0
ENDSEC
  0
EOF
