  0
SECTION
  2
HEADER
  9
$ACADVER
  1
AC1009
  9
$INSBASE
 10
0.0
 20
0.0
 30
0.0
  9
$EXTMIN
 10
0.0
 20
-2.960436562073669
 30
0.0
  9
$EXTMAX
 10
186.99999999999969
 20
227.0
 30
0.0
  9
$LIMMIN
 10
0.0
 20
0.0
  9
$LIMMAX
 10
375.0
 20
270.0
  9
$ORTHOMODE
 70
     1
  9
$REGENMODE
 70
     1
  9
$FILLMODE
 70
     1
  9
$QTEXTMODE
 70
     0
  9
$MIRRTEXT
 70
     0
  9
$DRAGMODE
 70
     2
  9
$LTSCALE
 40
5.0
  9
$OSMODE
 70
    37
  9
$ATTMODE
 70
     1
  9
$TEXTSIZE
 40
1.6000000000000001
  9
$TRACEWID
 40
0.05
  9
$TEXTSTYLE
  7
STANDARD
  9
$CLAYER
  8
0
  9
$CELTYPE
  6
BYLAYER
  9
$CECOLOR
 62
   256
  9
$DIMSCALE
 40
1.0
  9
$DIMASZ
 40
3.0
  9
$DIMEXO
 40
2.0
  9
$DIMDLI
 40
0.38
  9
$DIMRND
 40
0.0
  9
$DIMDLE
 40
0.0
  9
$DIMEXE
 40
2.0
  9
$DIMTP
 40
0.0
  9
$DIMTM
 40
0.0
  9
$DIMTXT
 40
3.2000000000000002
  9
$DIMCEN
 40
0.0
  9
$DIMTSZ
 40
0.0
  9
$DIMTOL
 70
     0
  9
$DIMLIM
 70
     0
  9
$DIMTIH
 70
     0
  9
$DIMTOH
 70
     0
  9
$DIMSE1
 70
     0
  9
$DIMSE2
 70
     0
  9
$DIMTAD
 70
     1
  9
$DIMZIN
 70
     8
  9
$DIMBLK
  1

  9
$DIMASO
 70
     0
  9
$DIMSHO
 70
     0
  9
$DIMPOST
  1

  9
$DIMAPOST
  1

  9
$DIMALT
 70
     0
  9
$DIMALTD
 70
     2
  9
$DIMALTF
 40
25.399999999999999
  9
$DIMLFAC
 40
1.0
  9
$DIMTOFL
 70
     1
  9
$DIMTVP
 40
1.6000000000000001
  9
$DIMTIX
 70
     0
  9
$DIMSOXD
 70
     0
  9
$DIMSAH
 70
     0
  9
$DIMBLK1
  1

  9
$DIMBLK2
  1

  9
$DIMSTYLE
  2
STANDARD
  9
$DIMCLRD
 70
     4
  9
$DIMCLRE
 70
     4
  9
$DIMCLRT
 70
     4
  9
$DIMTFAC
 40
1.0
  9
$DIMGAP
 40
1.0
  9
$LUNITS
 70
     2
  9
$LUPREC
 70
     1
  9
$SKETCHINC
 40
0.1
  9
$FILLETRAD
 40
0.0
  9
$AUNITS
 70
     0
  9
$AUPREC
 70
     1
  9
$MENU
  1
E:\r13\win\SUPPORT\ACAD
  9
$ELEVATION
 40
0.0
  9
$PELEVATION
 40
0.0
  9
$THICKNESS
 40
0.0
  9
$LIMCHECK
 70
     0
  9
$BLIPMODE
 70
     0
  9
$CHAMFERA
 40
0.0
  9
$CHAMFERB
 40
0.0
  9
$SKPOLY
 70
     0
  9
$TDCREATE
 40
2449840.3531249999
  9
$TDUPDATE
 40
2457995.7150999652
  9
$TDINDWG
 40
0.0350996181
  9
$TDUSRTIMER
 40
0.0350996181
  9
$USRTIMER
 70
     1
  9
$ANGBASE
 50
0.0
  9
$ANGDIR
 70
     0
  9
$PDMODE
 70
     0
  9
$PDSIZE
 40
0.0
  9
$PLINEWID
 40
0.0
  9
$COORDS
 70
     1
  9
$SPLFRAME
 70
     0
  9
$SPLINETYPE
 70
     6
  9
$SPLINESEGS
 70
     8
  9
$ATTDIA
 70
     0
  9
$ATTREQ
 70
     1
  9
$HANDLING
 70
     1
  9
$HANDSEED
  5
E28
  9
$SURFTAB1
 70
     6
  9
$SURFTAB2
 70
     6
  9
$SURFTYPE
 70
     6
  9
$SURFU
 70
     6
  9
$SURFV
 70
     6
  9
$UCSNAME
  2

  9
$UCSORG
 10
0.0
 20
0.0
 30
0.0
  9
$UCSXDIR
 10
1.0
 20
0.0
 30
0.0
  9
$UCSYDIR
 10
0.0
 20
1.0
 30
0.0
  9
$PUCSNAME
  2

  9
$PUCSORG
 10
0.0
 20
0.0
 30
0.0
  9
$PUCSXDIR
 10
1.0
 20
0.0
 30
0.0
  9
$PUCSYDIR
 10
0.0
 20
1.0
 30
0.0
  9
$USERI1
 70
     4
  9
$USERI2
 70
     1
  9
$USERI3
 70
     0
  9
$USERI4
 70
     0
  9
$USERI5
 70
     0
  9
$USERR1
 40
0.0
  9
$USERR2
 40
0.0
  9
$USERR3
 40
0.0
  9
$USERR4
 40
0.0
  9
$USERR5
 40
0.0
  9
$WORLDVIEW
 70
     1
  9
$SHADEDGE
 70
     3
  9
$SHADEDIF
 70
    70
  9
$TILEMODE
 70
     1
  9
$MAXACTVP
 70
    16
  9
$PLIMCHECK
 70
     0
  9
$PEXTMIN
 10
1.0000000000000000E+020
 20
1.0000000000000000E+020
 30
1.0000000000000000E+020
  9
$PEXTMAX
 10
-1.0000000000000000E+020
 20
-1.0000000000000000E+020
 30
-1.0000000000000000E+020
  9
$PLIMMIN
 10
0.0
 20
0.0
  9
$PLIMMAX
 10
12.0
 20
9.0
  9
$UNITMODE
 70
     0
  9
$VISRETAIN
 70
     0
  9
$PLINEGEN
 70
     0
  9
$PSLTSCALE
 70
     0
  0
ENDSEC
  0
SECTION
  2
TABLES
  0
TABLE
  2
VPORT
 70
     1
  0
VPORT
  2
*ACTIVE
 70
     0
 10
0.0
 20
0.0
 11
1.0
 21
1.0
 12
245.19230769230771
 22
135.0
 13
0.0
 23
0.0
 14
10.0
 24
10.0
 15
10.0
 25
10.0
 16
0.0
 26
0.0
 36
1.0
 17
0.0
 27
0.0
 37
0.0
 40
270.0
 41
1.816239316239316
 42
50.0
 43
0.0
 44
0.0
 50
0.0
 51
0.0
 71
     0
 72
   100
 73
     1
 74
     0
 75
     0
 76
     0
 77
     0
 78
     2
  0
ENDTAB
  0
TABLE
  2
LTYPE
 70
     4
  0
LTYPE
  2
CONTINUOUS
 70
     0
  3
Solid Line
 72
    65
 73
     0
 40
0.0
  0
LTYPE
  2
CENTER
 70
     0
  3
____ _ ____ _ ____ _ ____ _ ____ _ ____ _ ____
 72
    65
 73
     4
 40
2.0
 49
1.25
 49
-0.25
 49
0.25
 49
-0.25
  0
LTYPE
  2
HIDDEN
 70
     0
  3
_ _ _ _ _ _ _ _ _ _ _ _ _ _ _ _ _ _ _ _ _ _ _
 72
    65
 73
     2
 40
0.375
 49
0.25
 49
-0.125
  0
LTYPE
  2
PHANTOM2
 70
     0
  3
___ _ _ ___ _ _ ___ _ _ ___ _ _
 72
    65
 73
     6
 40
1.25
 49
0.625
 49
-0.125
 49
0.125
 49
-0.125
 49
0.125
 49
-0.125
  0
ENDTAB
  0
TABLE
  2
LAYER
 70
     5
  0
LAYER
  2
0
 70
     0
 62
     7
  6
CONTINUOUS
  0
LAYER
  2
1
 70
     0
 62
     1
  6
CENTER
  0
LAYER
  2
3
 70
     0
 62
     3
  6
CONTINUOUS
  0
LAYER
  2
2
 70
     0
 62
     2
  6
HIDDEN
  0
LAYER
  2
DEFPOINTS
 70
     0
 62
     7
  6
CONTINUOUS
  0
ENDTAB
  0
TABLE
  2
STYLE
 70
     2
  0
STYLE
  2
STANDARD
 70
     0
 40
0.0
 41
1.0
 50
0.0
 71
     0
 42
1.6000000000000001
  3
TXT
  4
BIGFONT
  0
STYLE
  2
STANDARD1
 70
     0
 40
0.0
 41
1.0
 50
0.0
 71
     0
 42
3.0
  3
txt
  4

  0
ENDTAB
  0
TABLE
  2
VIEW
 70
     1
  0
VIEW
  2
ALL
 70
     0
 40
175.0
 10
143.23529400000001
 20
87.5
 41
0.0
 11
0.0
 21
0.0
 31
1.0
 12
0.0
 22
0.0
 32
0.0
 42
0.0
 43
0.0
 44
0.0
 50
0.0
 71
     0
  0
ENDTAB
  0
TABLE
  2
UCS
 70
     0
  0
ENDTAB
  0
TABLE
  2
APPID
 70
    42
  0
APPID
  2
ACAD
 70
     0
  0
APPID
  2
ACAD_MLEADERVER
 70
     0
  0
APPID
  2
DCO15
 70
     0
  0
APPID
  2
GENIUS_GENOREF_13
 70
     0
  0
APPID
  2
GENIUS_GENOENT_13
 70
     0
  0
APPID
  2
GENIUS_GENBH_13
 70
     0
  0
APPID
  2
GENIUS_GENOBJ_13
 70
     0
  0
APPID
  2
GENIUS_GENODEF_13
 70
     0
  0
APPID
  2
GENIUS_GENOLIS_13
 70
     0
  0
APPID
  2
GENIUS_GENOBJ-NBEHI-BHF_13
 70
     0
  0
APPID
  2
GENIUS_GENOBJ-NBEHI-BHB_13
 70
     0
  0
APPID
  2
GENIUS_GENOBJ-F-PART_13
 70
     0
  0
APPID
  2
GENIUS_GEFSTDP_13
 70
     0
  0
APPID
  2
GENIUS_GENOBJ-N-RSSYM_13
 70
     0
  0
APPID
  2
GENIUS_GENSYMENT_13
 70
     0
  0
APPID
  2
GENIUS_GENOBJ-N-TIT_13
 70
     0
  0
APPID
  2
GENIUS_GENTITLE_13
 70
     0
  0
APPID
  2
GENIUS_GENZVEED_13
 70
     0
  0
APPID
  2
GENIUS_GENOBJ-N-LEADER_13
 70
     0
  0
APPID
  2
GENIUS_GENOBJ-N-FIL_13
 70
     0
  0
APPID
  2
GENIUS_GENOBJ-N-SEC_13
 70
     0
  0
APPID
  2
GENIUS_GENOBJ-N-CRS_13
 70
     0
  0
APPID
  2
GENIUS_GENOBJ-N-ZOO_13
 70
     0
  0
APPID
  2
GENIUS_GENZOO_13
 70
     0
  0
APPID
  2
GENIUS_GENOBJ-F-TOL_13
 70
     0
  0
APPID
  2
GENIUS_GENFIL_13
 70
     0
  0
APPID
  2
GENIUS_GENOBJ-N-CHA_13
 70
     0
  0
APPID
  2
_CALL_MAC$
 70
     0
  0
APPID
  2
ASM_BASE
 70
     0
  0
APPID
  2
ASM_EXPLO_VER_2_00
 70
     0
  0
APPID
  2
ASM_CADM_VER_12_00
 70
     0
  0
APPID
  2
ASM_BASEFORO
 70
     0
  0
APPID
  2
ASM_BASETRAVI
 70
     0
  0
APPID
  2
ASM_BASETRAVI1
 70
     0
  0
APPID
  2
ASM_GRUPPI
 70
     0
  0
APPID
  2
ASM_CADM_ALBERO
 70
     0
  0
APPID
  2
ASM_GOLE
 70
     0
  0
APPID
  2
ACAD_EXEMPT_FROM_CAD_STANDARDS
 70
     0
  0
APPID
  2
ACAD_NAV_VCDISPLAY
 70
     0
  0
APPID
  2
ACAD_DSTYLE_DIMJAG
 70
     0
  0
APPID
  2
ACAD_DSTYLE_DIMTALN
 70
     0
  0
APPID
  2
ACAD_DSTYLE_DIMRADIAL_EXTENSION
 70
     0
  0
ENDTAB
  0
TABLE
  2
DIMSTYLE
 70
     1
  0
DIMSTYLE
  2
STANDARD
 70
     0
  3

  4

  5

  6

  7

 40
1.0
 41
0.18
 42
0.0625
 43
0.38
 44
0.18
 45
0.0
 46
0.0
 47
0.0
 48
0.0
140
0.18
141
0.09
142
0.0
143
25.399999999999999
144
1.0
145
0.0
146
1.0
147
0.09
 71
     0
 72
     0
 73
     1
 74
     1
 75
     0
 76
     0
 77
     0
 78
     0
170
     0
171
     2
172
     0
173
     0
174
     0
175
     0
176
     0
177
     0
178
     0
  0
ENDTAB
  0
ENDSEC
  0
SECTION
  2
BLOCKS
  0
BLOCK
  8
0
  2
$MODEL_SPACE
 70
     0
 10
0.0
 20
0.0
 30
0.0
  3
$MODEL_SPACE
  1

  0
ENDBLK
  5
180
  8
0
  0
BLOCK
 67
     1
  8
0
  2
$PAPER_SPACE
 70
     0
 10
0.0
 20
0.0
 30
0.0
  3
$PAPER_SPACE
  1

  0
ENDBLK
  5
17E
 67
     1
  8
0
  0
ENDSEC
  0
SECTION
  2
ENTITIES
  0
LINE
  5
E1
  8
0
 10
96.999999999999773
 20
194.5
 30
0.0
 11
96.499999999999773
 21
194.0
 31
0.0
  0
LINE
  5
E2
  8
0
 10
96.499999999999773
 20
210.0
 30
0.0
 11
96.999999999999773
 21
209.5
 31
0.0
  0
LINE
  5
E3
  8
0
 10
50.49999999999838
 20
194.0
 30
0.0
 11
49.99999999999838
 21
194.5
 31
0.0
  0
LINE
  5
E4
  8
0
 10
50.49999999999838
 20
210.0
 30
0.0
 11
49.99999999999838
 21
209.5
 31
0.0
  0
LINE
  5
E5
  8
0
 10
51.99999999999838
 20
193.0
 30
0.0
 11
51.99999999999838
 21
211.0
 31
0.0
  0
LINE
  5
E6
  8
0
 10
94.999999999999758
 20
211.0
 30
0.0
 11
94.999999999999758
 21
193.0
 31
0.0
  0
LINE
  5
E7
  8
0
 10
91.830302779823256
 20
210.0
 30
0.0
 11
93.999999999999773
 21
210.0
 31
0.0
  0
LINE
  5
E8
  8
0
 10
81.999999999999886
 20
194.0
 30
0.0
 11
64.999999999999886
 21
194.0
 31
0.0
  0
LINE
  5
E9
  8
0
 10
55.169697220176523
 20
194.0
 30
0.0
 11
52.99999999999838
 21
194.0
 31
0.0
  0
LINE
  5
EA
  8
0
 10
64.999999999999886
 20
210.0
 30
0.0
 11
81.999999999999886
 21
210.0
 31
0.0
  0
LINE
  5
EB
  8
0
 10
94.999999999999758
 20
209.59999999999999
 30
0.0
 11
95.149999999999764
 21
209.59999999999999
 31
0.0
  0
LINE
  5
EC
  8
0
 10
51.99999999999838
 20
194.40000000000001
 30
0.0
 11
51.849999999998367
 21
194.40000000000001
 31
0.0
  0
LINE
  5
ED
  8
0
 10
93.999999999999773
 20
194.0
 30
0.0
 11
91.830302779823256
 21
194.0
 31
0.0
  0
LINE
  5
EE
  8
0
 10
95.149999999999764
 20
210.0
 30
0.0
 11
96.499999999999773
 21
210.0
 31
0.0
  0
LINE
  5
EF
  8
0
 10
51.849999999998367
 20
194.0
 30
0.0
 11
50.49999999999838
 21
194.0
 31
0.0
  0
LINE
  5
F0
  8
0
 10
52.99999999999838
 20
210.0
 30
0.0
 11
55.169697220176552
 21
210.0
 31
0.0
  0
LINE
  5
F1
  8
0
 10
95.149999999999764
 20
194.40000000000001
 30
0.0
 11
94.999999999999758
 21
194.40000000000001
 31
0.0
  0
LINE
  5
F2
  8
0
 10
51.849999999998367
 20
209.59999999999999
 30
0.0
 11
51.99999999999838
 21
209.59999999999999
 31
0.0
  0
LINE
  5
F3
  8
0
 10
95.149999999999764
 20
210.0
 30
0.0
 11
95.149999999999764
 21
194.0
 31
0.0
  0
LINE
  5
F4
  8
0
 10
51.849999999998367
 20
194.0
 30
0.0
 11
51.849999999998367
 21
210.0
 31
0.0
  0
LINE
  5
F5
  8
0
 10
93.999999999999773
 20
211.0
 30
0.0
 11
93.999999999999773
 21
193.0
 31
0.0
  0
LINE
  5
F6
  8
0
 10
52.99999999999838
 20
193.0
 30
0.0
 11
52.99999999999838
 21
211.0
 31
0.0
  0
LINE
  5
F7
  8
0
 10
96.499999999999773
 20
194.0
 30
0.0
 11
95.149999999999764
 21
194.0
 31
0.0
  0
LINE
  5
F8
  8
0
 10
96.999999999999773
 20
209.5
 30
0.0
 11
96.999999999999773
 21
194.5
 31
0.0
  0
LINE
  5
F9
  8
0
 10
50.49999999999838
 20
210.0
 30
0.0
 11
51.849999999998367
 21
210.0
 31
0.0
  0
LINE
  5
FA
  8
0
 10
49.99999999999838
 20
194.5
 30
0.0
 11
49.99999999999838
 21
209.5
 31
0.0
  0
LINE
  5
FB
  8
0
 10
94.999999999999758
 20
193.0
 30
0.0
 11
93.999999999999773
 21
193.0
 31
0.0
  0
LINE
  5
FC
  8
0
 10
94.999999999999758
 20
211.0
 30
0.0
 11
93.999999999999773
 21
211.0
 31
0.0
  0
LINE
  5
FD
  8
0
 10
52.99999999999838
 20
211.0
 30
0.0
 11
51.99999999999838
 21
211.0
 31
0.0
  0
LINE
  5
FE
  8
0
 10
52.99999999999838
 20
193.0
 30
0.0
 11
51.99999999999838
 21
193.0
 31
0.0
  0
LINE
  5
FF
  8
1
 10
99.999999999999744
 20
202.0
 30
0.0
 11
46.999999999998359
 21
202.0
 31
0.0
  0
LINE
  5
107
  8
1
 10
73.499999999999886
 20
227.0
 30
0.0
 11
73.499999999999886
 21
177.0
 31
0.0
  0
CIRCLE
  5
109
  8
0
 10
73.499999999999886
 20
202.0
 30
0.0
 40
20.0
  0
TEXT
  5
23B
  8
0
 62
     3
 10
0.0
 20
0.0
 30
0.0
 40
10.0
  1
BJ762-16001
  7
STANDARD1
  0
LINE
  5
5BC
  8
0
 10
53.499999999999879
 20
91.0
 30
0.0
 11
53.499999999999879
 21
108.00000015298831
 31
0.0
  0
LINE
  5
5BD
  8
0
 10
54.499999999999879
 20
132.0
 30
0.0
 11
63.999999999999879
 21
132.0
 31
0.0
  0
LINE
  5
5BE
  8
0
 10
93.499999999999886
 20
131.0
 30
0.0
 11
93.499999999999886
 21
124.0
 31
0.0
  0
LINE
  5
5BF
  8
0
 10
92.499999999999886
 20
90.0
 30
0.0
 11
54.499999999999879
 21
90.0
 31
0.0
  0
LINE
  5
5C0
  8
1
 10
73.499999999999886
 20
137.0
 30
0.0
 11
73.499999999999886
 21
45.0
 31
0.0
  0
LINE
  5
5C1
  8
0
 10
79.499999999999488
 20
50.0
 30
0.0
 11
67.500000000000227
 21
50.0
 31
0.0
  0
LINE
  5
5C2
  8
0
 10
81.499999999999886
 20
86.0
 30
0.0
 11
81.499999999999886
 21
75.000000000000114
 31
0.0
  0
LINE
  5
5C3
  8
3
 10
80.417499999999905
 20
86.0
 30
0.0
 11
80.417499999999905
 21
75.000000000000114
 31
0.0
  0
LINE
  5
5C4
  8
3
 10
66.582499999999811
 20
86.0
 30
0.0
 11
66.582499999999811
 21
75.000000000000114
 31
0.0
  0
LINE
  5
5C5
  8
0
 10
65.499999999999886
 20
86.0
 30
0.0
 11
65.499999999999886
 21
75.000000000000114
 31
0.0
  0
LINE
  5
5C6
  8
0
 10
185.99999999999969
 20
90.0
 30
0.0
 11
147.99999999999969
 21
90.0
 31
0.0
  0
LINE
  5
5C7
  8
0
 10
186.99999999999969
 20
99.0
 30
0.0
 11
186.99999999999969
 21
91.0
 31
0.0
  0
LINE
  5
5C8
  8
0
 10
149.89613300976791
 20
132.0
 30
0.0
 11
184.1038669902315
 21
132.0
 31
0.0
  0
LINE
  5
5C9
  8
0
 10
146.99999999999969
 20
91.0
 30
0.0
 11
146.99999999999969
 21
99.0
 31
0.0
  0
LINE
  5
5CA
  8
1
 10
166.99999999999969
 20
137.0
 30
0.0
 11
166.99999999999969
 21
45.0
 31
0.0
  0
CIRCLE
  5
5CB
  8
0
 10
166.99999999999969
 20
116.0
 30
0.0
 40
8.0
  0
LINE
  5
5CC
  8
0
 10
81.999999999999886
 20
131.0
 30
0.0
 11
81.999999999999886
 21
99.0
 31
0.0
  0
LINE
  5
5CD
  8
0
 10
64.999999999999886
 20
131.0
 30
0.0
 11
64.999999999999886
 21
99.0
 31
0.0
  0
LINE
  5
5CE
  8
0
 10
81.999999999999886
 20
99.0
 30
0.0
 11
64.999999999999886
 21
99.0
 31
0.0
  0
LINE
  5
5CF
  8
0
 10
82.999999999999886
 20
132.0
 30
0.0
 11
92.499999999999886
 21
132.0
 31
0.0
  0
LINE
  5
5D4
  8
0
 10
148.89613300976791
 20
131.0
 30
0.0
 11
148.89613300976791
 21
99.0
 31
0.0
  0
LINE
  5
5D5
  8
0
 10
185.1038669902315
 20
131.0
 30
0.0
 11
185.1038669902315
 21
99.0
 31
0.0
  0
LINE
  5
5D6
  8
0
 10
146.99999999999969
 20
99.0
 30
0.0
 11
148.89613300976791
 21
99.0
 31
0.0
  0
LINE
  5
5D7
  8
0
 10
185.1038669902315
 20
99.0
 30
0.0
 11
186.99999999999969
 21
99.0
 31
0.0
  0
LINE
  5
5D8
  8
2
 10
148.89613300976791
 20
99.0
 30
0.0
 11
185.1038669902315
 21
99.0
 31
0.0
  0
LINE
  5
5D9
  8
0
 10
81.499999999999886
 20
86.0
 30
0.0
 11
65.499999999999886
 21
86.0
 31
0.0
  0
LINE
  5
5DA
  8
0
 10
79.999999999999886
 20
89.0
 30
0.0
 11
79.999999999999886
 21
87.0
 31
0.0
  0
LINE
  5
5DB
  8
0
 10
66.999999999999886
 20
89.0
 30
0.0
 11
66.999999999999886
 21
87.0
 31
0.0
  0
LINE
  5
5E2
  8
0
 10
65.499999999999886
 20
52.000000000000341
 30
0.0
 11
67.500000000000227
 21
50.0
 31
0.0
  0
LINE
  5
5E3
  8
0
 10
81.499999999999886
 20
52.000000000000341
 30
0.0
 11
79.499999999999488
 21
50.0
 31
0.0
  0
LINE
  5
5E4
  8
0
 10
81.499999999999886
 20
52.000000000000341
 30
0.0
 11
65.499999999999886
 21
52.000000000000341
 31
0.0
  0
ARC
  5
5E5
  8
0
 10
80.999999999999886
 20
89.0
 30
0.0
 40
1.0
 50
90.0
 51
180.0
  0
ARC
  5
5E6
  8
0
 10
80.999999999999886
 20
87.0
 30
0.0
 40
1.0
 50
180.0
 51
270.0
  0
ARC
  5
5E7
  8
0
 10
65.999999999999886
 20
87.0
 30
0.0
 40
1.0
 50
270.0
 51
0.0
  0
ARC
  5
5E8
  8
0
 10
65.999999999999886
 20
89.0
 30
0.0
 40
1.0
 50
0.0
 51
90.0
  0
ARC
  5
5E9
  8
0
 10
159.49999999999969
 20
89.0
 30
0.0
 40
1.0
 50
0.0
 51
90.0
  0
ARC
  5
5EA
  8
0
 10
159.49999999999969
 20
87.0
 30
0.0
 40
1.0
 50
270.0
 51
0.0
  0
ARC
  5
5EB
  8
0
 10
174.49999999999969
 20
87.0
 30
0.0
 40
1.0
 50
180.0
 51
270.0
  0
ARC
  5
5EC
  8
0
 10
174.49999999999969
 20
89.0
 30
0.0
 40
1.0
 50
90.0
 51
180.0
  0
LINE
  5
5ED
  8
0
 10
174.9999999999998
 20
52.000000000000341
 30
0.0
 11
158.9999999999998
 21
52.000000000000341
 31
0.0
  0
LINE
  5
5EE
  8
0
 10
174.9999999999998
 20
52.000000000000341
 30
0.0
 11
172.99999999999929
 21
50.0
 31
0.0
  0
LINE
  5
5EF
  8
0
 10
158.9999999999998
 20
52.000000000000341
 30
0.0
 11
161.0000000000002
 21
50.0
 31
0.0
  0
LINE
  5
5F0
  8
0
 10
160.49999999999969
 20
89.0
 30
0.0
 11
160.49999999999969
 21
87.0
 31
0.0
  0
LINE
  5
5F1
  8
0
 10
173.49999999999969
 20
89.0
 30
0.0
 11
173.49999999999969
 21
87.0
 31
0.0
  0
LINE
  5
5F2
  8
0
 10
174.9999999999998
 20
86.0
 30
0.0
 11
158.9999999999998
 21
86.0
 31
0.0
  0
LINE
  5
5F3
  8
0
 10
158.9999999999998
 20
86.0
 30
0.0
 11
158.9999999999998
 21
75.000000000025238
 31
0.0
  0
LINE
  5
5F4
  8
3
 10
160.0824999999997
 20
86.0
 30
0.0
 11
160.08249999999961
 21
75.000000000026944
 31
0.0
  0
LINE
  5
5F5
  8
3
 10
173.91749999999979
 20
86.0
 30
0.0
 11
173.91749999999979
 21
75.000000000050136
 31
0.0
  0
LINE
  5
5F6
  8
0
 10
174.9999999999998
 20
86.0
 30
0.0
 11
174.9999999999998
 21
75.000000000051955
 31
0.0
  0
LINE
  5
5F7
  8
0
 10
172.99999999999929
 20
50.0
 30
0.0
 11
161.0000000000002
 21
50.0
 31
0.0
  0
LINE
  5
617
  8
0
 10
50.0
 20
108.5
 30
0.0
 11
50.0
 21
123.5
 31
0.0
  0
LINE
  5
618
  8
0
 10
50.5
 20
124.0
 30
0.0
 11
51.849999999999682
 21
124.0
 31
0.0
  0
LINE
  5
619
  8
0
 10
96.999999999999773
 20
123.5
 30
0.0
 11
96.999999999999773
 21
108.5
 31
0.0
  0
LINE
  5
61A
  8
0
 10
96.499999999999773
 20
108.0
 30
0.0
 11
95.150000000000091
 21
108.0
 31
0.0
  0
LINE
  5
61B
  8
0
 10
52.999999999999773
 20
105.0500000000001
 30
0.0
 11
52.999999999999773
 21
125.5499999999987
 31
0.0
  0
LINE
  5
61C
  8
0
 10
94.0
 20
125.5499999999987
 30
0.0
 11
94.0
 21
105.0500000000001
 31
0.0
  0
LINE
  5
61D
  8
1
 10
46.999999999999879
 20
116.0
 30
0.0
 11
99.999999999999886
 21
116.0
 31
0.0
  0
LINE
  5
61E
  8
0
 10
51.849999999999682
 20
108.0
 30
0.0
 11
51.849999999999682
 21
124.0
 31
0.0
  0
LINE
  5
61F
  8
0
 10
95.150000000000091
 20
124.0
 30
0.0
 11
95.150000000000091
 21
108.0
 31
0.0
  0
LINE
  5
620
  8
0
 10
51.849999999999682
 20
123.59999999999999
 30
0.0
 11
51.999999999999773
 21
123.59999999999999
 31
0.0
  0
LINE
  5
621
  8
0
 10
95.150000000000091
 20
108.40000000000001
 30
0.0
 11
95.0
 21
108.40000000000001
 31
0.0
  0
LINE
  5
622
  8
0
 10
52.999999999999773
 20
124.0
 30
0.0
 11
53.499999999999879
 21
124.0
 31
0.0
  0
LINE
  5
623
  8
0
 10
51.849999999999682
 20
108.0
 30
0.0
 11
50.5
 21
108.0
 31
0.0
  0
LINE
  5
624
  8
0
 10
95.150000000000091
 20
124.0
 30
0.0
 11
96.499999999999773
 21
124.0
 31
0.0
  0
LINE
  5
625
  8
0
 10
94.0
 20
108.0
 30
0.0
 11
93.499999999999886
 21
108.0
 31
0.0
  0
LINE
  5
626
  8
0
 10
51.999999999999773
 20
108.40000000000001
 30
0.0
 11
51.849999999999682
 21
108.40000000000001
 31
0.0
  0
LINE
  5
627
  8
0
 10
95.0
 20
123.59999999999999
 30
0.0
 11
95.150000000000091
 21
123.59999999999999
 31
0.0
  0
LINE
  5
62E
  8
0
 10
64.999999999999886
 20
124.0
 30
0.0
 11
81.999999999999886
 21
124.0
 31
0.0
  0
LINE
  5
62F
  8
0
 10
53.499999999999879
 20
108.0
 30
0.0
 11
52.999999999999773
 21
108.0
 31
0.0
  0
LINE
  5
630
  8
0
 10
81.999999999999886
 20
108.0
 30
0.0
 11
64.999999999999886
 21
108.0
 31
0.0
  0
LINE
  5
631
  8
0
 10
93.499999999999886
 20
124.0
 30
0.0
 11
94.0
 21
124.0
 31
0.0
  0
ARC
  5
632
  8
0
 10
171.99999999999969
 20
107.88974596215471
 30
0.0
 40
1.0
 50
120.0
 51
180.0
  0
ARC
  5
633
  8
0
 10
161.99999999999969
 20
107.88974596215439
 30
0.0
 40
1.0
 50
0.0
 51
60.0
  0
LINE
  5
634
  8
1
 10
154.9999999999998
 20
116.0
 30
0.0
 11
178.99999999999969
 21
116.0
 31
0.0
  0
ARC
  5
635
  8
0
 10
166.99999999999969
 20
116.5499999999992
 30
0.0
 40
9.0
 50
300.0
 51
240.0
  0
LINE
  5
636
  8
0
 10
169.99999999999969
 20
105.0500000000001
 30
0.0
 11
167.4999999999998
 21
105.0500000000001
 31
0.0
  0
LINE
  5
637
  8
0
 10
162.99999999999969
 20
107.88974596215439
 30
0.0
 11
162.99999999999969
 21
106.0500000000001
 31
0.0
  0
LINE
  5
638
  8
0
 10
170.9999999999998
 20
107.88974596215471
 30
0.0
 11
170.9999999999998
 21
106.0500000000001
 31
0.0
  0
LINE
  5
639
  8
0
 10
167.4999999999998
 20
108.0156402886639
 30
0.0
 11
167.4999999999998
 21
105.0500000000001
 31
0.0
  0
LINE
  5
63A
  8
0
 10
166.4999999999998
 20
108.0156402886643
 30
0.0
 11
166.4999999999998
 21
105.0500000000001
 31
0.0
  0
LINE
  5
63B
  8
0
 10
166.4999999999998
 20
105.0500000000001
 30
0.0
 11
163.99999999999969
 21
105.0500000000001
 31
0.0
  0
ARC
  5
63C
  8
0
 10
163.99999999999969
 20
106.0500000000001
 30
0.0
 40
1.0
 50
180.0
 51
270.0
  0
ARC
  5
63D
  8
0
 10
169.99999999999969
 20
106.0500000000001
 30
0.0
 40
1.0
 50
270.0
 51
0.0
  0
CIRCLE
  5
63E
  8
0
 10
164.7499999999998
 20
106.85875197160929
 30
0.0
 40
0.85
  0
CIRCLE
  5
63F
  8
0
 10
169.24999999999969
 20
106.85875197160929
 30
0.0
 40
0.85
  0
LINE
  5
641
  8
0
 10
95.0
 20
125.5499999999987
 30
0.0
 11
94.0
 21
125.5499999999987
 31
0.0
  0
LINE
  5
642
  8
0
 10
95.0
 20
105.0500000000001
 30
0.0
 11
94.0
 21
105.0500000000001
 31
0.0
  0
LINE
  5
643
  8
0
 10
95.0
 20
125.5499999999987
 30
0.0
 11
95.0
 21
105.0500000000001
 31
0.0
  0
LINE
  5
644
  8
0
 10
51.999999999999773
 20
105.0500000000001
 30
0.0
 11
51.999999999999773
 21
125.5499999999987
 31
0.0
  0
LINE
  5
645
  8
0
 10
52.999999999999773
 20
105.0500000000001
 30
0.0
 11
51.999999999999773
 21
105.0500000000001
 31
0.0
  0
LINE
  5
646
  8
0
 10
52.999999999999773
 20
125.5499999999987
 30
0.0
 11
51.999999999999773
 21
125.5499999999987
 31
0.0
  0
ARC
  5
647
  8
0
 10
172.99999999999969
 20
57.381197848121019
 30
0.0
 40
17.330127017333279
 50
69.74384199764603
 51
110.2561580023539
  0
LINE
  5
648
  8
0
 10
179.00000000001469
 20
74.711324865454344
 30
0.0
 11
178.49999999999969
 21
75.000000000057753
 31
0.0
  0
LINE
  5
649
  8
0
 10
179.00000000001469
 20
65.288675134584309
 30
0.0
 11
178.49999999999969
 21
64.999999999980901
 31
0.0
  0
ARC
  5
64A
  8
0
 10
172.99999999999969
 20
82.618802151917635
 30
0.0
 40
17.330127017333279
 50
249.743841997646
 51
290.25615800235403
  0
LINE
  5
64B
  8
0
 10
179.00000000001469
 20
74.711324865454344
 30
0.0
 11
178.99999999999969
 21
65.288675134575669
 31
0.0
  0
LINE
  5
64C
  8
0
 10
166.99999999999969
 20
66.360471904413544
 30
0.0
 11
166.99999999999969
 21
73.63952809562511
 31
0.0
  0
LINE
  5
64D
  8
0
 10
154.99999999998471
 20
74.711324865454344
 30
0.0
 11
154.9999999999998
 21
65.288675134575669
 31
0.0
  0
ARC
  5
64E
  8
0
 10
160.99999999999969
 20
82.618802151917635
 30
0.0
 40
17.330127017333279
 50
249.743841997646
 51
290.25615800235403
  0
LINE
  5
64F
  8
0
 10
154.99999999998471
 20
65.288675134584309
 30
0.0
 11
155.49999999999969
 21
64.999999999980901
 31
0.0
  0
LINE
  5
650
  8
0
 10
154.99999999998471
 20
74.711324865454344
 30
0.0
 11
155.49999999999969
 21
75.000000000057753
 31
0.0
  0
ARC
  5
651
  8
0
 10
160.99999999999969
 20
57.381197848121019
 30
0.0
 40
17.330127017333279
 50
69.74384199764603
 51
110.2561580023539
  0
LINE
  5
652
  8
0
 10
155.49999999993341
 20
75.000000000019327
 30
0.0
 11
178.49999999999969
 21
75.000000000057753
 31
0.0
  0
LINE
  5
653
  8
0
 10
178.49999999999969
 20
64.999999999980901
 30
0.0
 11
155.49999999993341
 21
65.000000000019327
 31
0.0
  0
LINE
  5
654
  8
0
 10
81.499999999999886
 20
65.000000000000114
 30
0.0
 11
81.499999999999886
 21
52.000000000000341
 31
0.0
  0
LINE
  5
655
  8
3
 10
80.417499999999905
 20
65.000000000000114
 30
0.0
 11
80.417499999999905
 21
50.917500000000473
 31
0.0
  0
LINE
  5
656
  8
0
 10
65.499999999999886
 20
64.999999999999886
 30
0.0
 11
65.499999999999886
 21
52.000000000000341
 31
0.0
  0
LINE
  5
657
  8
3
 10
66.582499999999811
 20
64.999999999999886
 30
0.0
 11
66.582499999999811
 21
50.917500000000473
 31
0.0
  0
LINE
  5
658
  8
3
 10
160.08249999999961
 20
65.00000000001171
 30
0.0
 11
160.0824999999997
 21
50.917500000000473
 31
0.0
  0
LINE
  5
659
  8
0
 10
158.9999999999998
 20
65.000000000013529
 30
0.0
 11
158.9999999999998
 21
52.000000000000341
 31
0.0
  0
LINE
  5
65A
  8
3
 10
173.91749999999979
 20
64.999999999988518
 30
0.0
 11
173.91749999999979
 21
50.917500000000473
 31
0.0
  0
LINE
  5
65B
  8
0
 10
174.9999999999998
 20
64.999999999986699
 30
0.0
 11
174.9999999999998
 21
52.000000000000341
 31
0.0
  0
LINE
  5
65D
  8
0
 10
148.89613300976791
 20
131.0
 30
0.0
 11
149.89613300976791
 21
132.0
 31
0.0
  0
LINE
  5
65E
  8
0
 10
184.1038669902315
 20
132.0
 30
0.0
 11
185.1038669902315
 21
131.0
 31
0.0
  0
LINE
  5
660
  8
0
 10
146.99999999999969
 20
91.0
 30
0.0
 11
147.99999999999969
 21
90.0
 31
0.0
  0
LINE
  5
661
  8
0
 10
186.99999999999969
 20
91.0
 30
0.0
 11
185.99999999999969
 21
90.0
 31
0.0
  0
LINE
  5
663
  8
0
 10
54.499999999999879
 20
90.0
 30
0.0
 11
53.499999999999879
 21
91.0
 31
0.0
  0
LINE
  5
664
  8
0
 10
92.499999999999886
 20
90.0
 30
0.0
 11
93.499999999999886
 21
91.0
 31
0.0
  0
LINE
  5
667
  8
0
 10
92.499999999999886
 20
132.0
 30
0.0
 11
93.499999999999886
 21
131.0
 31
0.0
  0
LINE
  5
668
  8
0
 10
82.999999999999886
 20
132.0
 30
0.0
 11
81.999999999999886
 21
131.0
 31
0.0
  0
LINE
  5
669
  8
0
 10
63.999999999999879
 20
132.0
 30
0.0
 11
64.999999999999886
 21
131.0
 31
0.0
  0
LINE
  5
66A
  8
0
 10
54.499999999999879
 20
132.0
 30
0.0
 11
53.499999999999879
 21
131.0
 31
0.0
  0
LINE
  5
66C
  8
0
 10
50.5
 20
124.0
 30
0.0
 11
50.0
 21
123.5
 31
0.0
  0
LINE
  5
66D
  8
0
 10
50.5
 20
108.0
 30
0.0
 11
50.0
 21
108.5
 31
0.0
  0
LINE
  5
66F
  8
0
 10
96.499999999999773
 20
124.0
 30
0.0
 11
96.999999999999773
 21
123.5
 31
0.0
  0
LINE
  5
670
  8
0
 10
96.999999999999773
 20
108.5
 30
0.0
 11
96.499999999999773
 21
108.0
 31
0.0
  0
ARC
  5
671
  8
0
 10
73.499999999999886
 20
51.783121637295608
 30
0.0
 40
22.928203228139491
 50
72.412046224314395
 51
107.58795377568561
  0
ARC
  5
672
  8
0
 10
63.107695154586388
 20
68.577350269714316
 30
0.0
 40
6.1339745957208214
 50
55.615752528796612
 51
115.6157525301368
  0
LINE
  5
673
  8
0
 10
59.643593539426888
 20
73.639528095605897
 30
0.0
 11
62.000000000107661
 21
75.000000000000114
 31
0.0
  0
LINE
  5
674
  8
0
 10
59.643593539426888
 20
66.360471904394331
 30
0.0
 11
62.000000000107661
 21
65.000000000000114
 31
0.0
  0
ARC
  5
675
  8
0
 10
63.107695154586388
 20
71.422649730285912
 30
0.0
 40
6.1339745957208214
 50
244.3842474698632
 51
304.38424747120342
  0
ARC
  5
676
  8
0
 10
73.499999999999886
 20
88.216878362704605
 30
0.0
 40
22.928203228139491
 50
252.41204622431439
 51
287.58795377568561
  0
LINE
  5
677
  8
0
 10
59.643593539448709
 20
73.639528095605897
 30
0.0
 11
59.643593539448709
 21
66.360471904381711
 31
0.0
  0
LINE
  5
678
  8
0
 10
66.571796769724529
 20
73.639528095605897
 30
0.0
 11
66.571796769724529
 21
66.360471904394331
 31
0.0
  0
LINE
  5
679
  8
0
 10
80.428203230275244
 20
73.639528095605897
 30
0.0
 11
80.428203230275244
 21
66.360471904394331
 31
0.0
  0
LINE
  5
67A
  8
0
 10
87.356406460551057
 20
73.639528095605897
 30
0.0
 11
87.356406460551057
 21
66.360471904381711
 31
0.0
  0
ARC
  5
67B
  8
0
 10
83.892304845413378
 20
71.422649730285912
 30
0.0
 40
6.1339745957208214
 50
235.61575252879661
 51
295.61575253013677
  0
LINE
  5
67C
  8
0
 10
87.356406460572884
 20
66.360471904394331
 30
0.0
 11
84.999999999892125
 21
65.000000000000114
 31
0.0
  0
LINE
  5
67D
  8
0
 10
87.356406460572884
 20
73.639528095605897
 30
0.0
 11
84.999999999892125
 21
75.000000000000114
 31
0.0
  0
ARC
  5
67E
  8
0
 10
83.892304845413378
 20
68.577350269714316
 30
0.0
 40
6.1339745957208214
 50
64.384247469863197
 51
124.38424747120339
  0
LINE
  5
67F
  8
0
 10
61.999999999999879
 20
75.000000000000114
 30
0.0
 11
84.999999999892125
 21
75.000000000000114
 31
0.0
  0
LINE
  5
680
  8
0
 10
84.999999999892125
 20
65.000000000000114
 30
0.0
 11
62.000000000107661
 21
65.000000000000114
 31
0.0
  0
ARC
  5
C95
  8
0
 10
111.8303028465928
 20
116.00000015298831
 30
0.0
 40
20.0
 50
156.42182199999979
 51
203.57817800000021
  0
ARC
  5
C96
  8
0
 10
35.169697153406958
 20
116.0
 30
0.0
 40
20.0
 50
336.42182199999979
 51
23.578178000000172
  0
LINE
  5
C97
  8
0
 10
93.499999999999886
 20
108.0000003059765
 30
0.0
 11
93.499999999999886
 21
91.0
 31
0.0
  0
LINE
  5
C98
  8
0
 10
53.499999999999879
 20
123.99999984701169
 30
0.0
 11
53.499999999999879
 21
131.0
 31
0.0
  0
LINE
  5
CB7
  8
0
 10
64.999999999999886
 20
183.89613300976831
 30
0.0
 11
64.999999999999886
 21
220.10386699023169
 31
0.0
  0
LINE
  5
CB8
  8
0
 10
81.999999999999886
 20
183.89613300976831
 30
0.0
 11
81.999999999999886
 21
220.10386699023169
 31
0.0
  0
ENDSEC
  0
EOF
