  0
SECTION
  2
HEADER
  9
$ACADVER
  1
AC1009
  9
$INSBASE
 10
0.0
 20
0.0
 30
0.0
  9
$EXTMIN
 10
-3.7400287899957041
 20
-2.960436562073669
 30
0.0
  9
$EXTMAX
 10
184.6847300722157
 20
111.4028776978421
 30
0.0
  9
$LIMMIN
 10
0.0
 20
0.0
  9
$LIMMAX
 10
187.5
 20
135.0
  9
$ORTHOMODE
 70
     1
  9
$REGENMODE
 70
     1
  9
$FILLMODE
 70
     1
  9
$QTEXTMODE
 70
     0
  9
$MIRRTEXT
 70
     0
  9
$DRAGMODE
 70
     2
  9
$LTSCALE
 40
5.0
  9
$OSMODE
 70
  3071
  9
$ATTMODE
 70
     1
  9
$TEXTSIZE
 40
0.2
  9
$TRACEWID
 40
0.05
  9
$TEXTSTYLE
  7
STANDARD
  9
$CLAYER
  8
0
  9
$CELTYPE
  6
BYLAYER
  9
$CECOLOR
 62
   256
  9
$DIMSCALE
 40
0.5
  9
$DIMASZ
 40
3.0
  9
$DIMEXO
 40
2.0
  9
$DIMDLI
 40
0.38
  9
$DIMRND
 40
0.0
  9
$DIMDLE
 40
0.0
  9
$DIMEXE
 40
2.0
  9
$DIMTP
 40
0.0
  9
$DIMTM
 40
0.0
  9
$DIMTXT
 40
3.2000000000000002
  9
$DIMCEN
 40
0.0
  9
$DIMTSZ
 40
0.0
  9
$DIMTOL
 70
     0
  9
$DIMLIM
 70
     0
  9
$DIMTIH
 70
     0
  9
$DIMTOH
 70
     0
  9
$DIMSE1
 70
     0
  9
$DIMSE2
 70
     0
  9
$DIMTAD
 70
     1
  9
$DIMZIN
 70
     0
  9
$DIMBLK
  1

  9
$DIMASO
 70
     1
  9
$DIMSHO
 70
     0
  9
$DIMPOST
  1

  9
$DIMAPOST
  1

  9
$DIMALT
 70
     0
  9
$DIMALTD
 70
     2
  9
$DIMALTF
 40
25.399999999999999
  9
$DIMLFAC
 40
1.0
  9
$DIMTOFL
 70
     1
  9
$DIMTVP
 40
1.6000000000000001
  9
$DIMTIX
 70
     1
  9
$DIMSOXD
 70
     0
  9
$DIMSAH
 70
     0
  9
$DIMBLK1
  1

  9
$DIMBLK2
  1

  9
$DIMSTYLE
  2
STANDARD
  9
$DIMCLRD
 70
     0
  9
$DIMCLRE
 70
     0
  9
$DIMCLRT
 70
     0
  9
$DIMTFAC
 40
1.0
  9
$DIMGAP
 40
0.09
  9
$LUNITS
 70
     2
  9
$LUPREC
 70
     4
  9
$SKETCHINC
 40
0.1
  9
$FILLETRAD
 40
0.0
  9
$AUNITS
 70
     0
  9
$AUPREC
 70
     4
  9
$MENU
  1
E:\r13\win\SUPPORT\ACAD
  9
$ELEVATION
 40
0.0
  9
$PELEVATION
 40
0.0
  9
$THICKNESS
 40
0.0
  9
$LIMCHECK
 70
     0
  9
$BLIPMODE
 70
     0
  9
$CHAMFERA
 40
0.0
  9
$CHAMFERB
 40
0.0
  9
$SKPOLY
 70
     0
  9
$TDCREATE
 40
2449839.773530093
  9
$TDUPDATE
 40
2456598.3691397691
  9
$TDINDWG
 40
0.0208201042
  9
$TDUSRTIMER
 40
0.0208201042
  9
$USRTIMER
 70
     1
  9
$ANGBASE
 50
0.0
  9
$ANGDIR
 70
     0
  9
$PDMODE
 70
     0
  9
$PDSIZE
 40
0.0
  9
$PLINEWID
 40
0.0
  9
$COORDS
 70
     1
  9
$SPLFRAME
 70
     0
  9
$SPLINETYPE
 70
     6
  9
$SPLINESEGS
 70
     8
  9
$ATTDIA
 70
     0
  9
$ATTREQ
 70
     1
  9
$HANDLING
 70
     1
  9
$HANDSEED
  5
2D1
  9
$SURFTAB1
 70
     6
  9
$SURFTAB2
 70
     6
  9
$SURFTYPE
 70
     6
  9
$SURFU
 70
     6
  9
$SURFV
 70
     6
  9
$UCSNAME
  2

  9
$UCSORG
 10
0.0
 20
0.0
 30
0.0
  9
$UCSXDIR
 10
1.0
 20
0.0
 30
0.0
  9
$UCSYDIR
 10
0.0
 20
1.0
 30
0.0
  9
$PUCSNAME
  2

  9
$PUCSORG
 10
0.0
 20
0.0
 30
0.0
  9
$PUCSXDIR
 10
1.0
 20
0.0
 30
0.0
  9
$PUCSYDIR
 10
0.0
 20
1.0
 30
0.0
  9
$USERI1
 70
     0
  9
$USERI2
 70
     1
  9
$USERI3
 70
     1
  9
$USERI4
 70
     0
  9
$USERI5
 70
     0
  9
$USERR1
 40
0.0
  9
$USERR2
 40
0.0
  9
$USERR3
 40
0.0
  9
$USERR4
 40
0.0
  9
$USERR5
 40
0.0
  9
$WORLDVIEW
 70
     1
  9
$SHADEDGE
 70
     3
  9
$SHADEDIF
 70
    70
  9
$TILEMODE
 70
     1
  9
$MAXACTVP
 70
    16
  9
$PLIMCHECK
 70
     0
  9
$PEXTMIN
 10
1.0000000000000000E+020
 20
1.0000000000000000E+020
 30
1.0000000000000000E+020
  9
$PEXTMAX
 10
-1.0000000000000000E+020
 20
-1.0000000000000000E+020
 30
-1.0000000000000000E+020
  9
$PLIMMIN
 10
0.0
 20
0.0
  9
$PLIMMAX
 10
12.0
 20
9.0
  9
$UNITMODE
 70
     0
  9
$VISRETAIN
 70
     0
  9
$PLINEGEN
 70
     0
  9
$PSLTSCALE
 70
     0
  0
ENDSEC
  0
SECTION
  2
TABLES
  0
TABLE
  2
VPORT
 70
     1
  0
VPORT
  2
*ACTIVE
 70
     0
 10
0.0
 20
0.0
 11
1.0
 21
1.0
 12
95.700079311096744
 22
66.014785922033241
 13
0.0
 23
0.0
 14
5.0
 24
5.0
 15
5.0
 25
5.0
 16
0.0
 26
0.0
 36
1.0
 17
0.0
 27
0.0
 37
0.0
 40
139.20783109903601
 41
1.831871345029239
 42
50.0
 43
0.0
 44
0.0
 50
0.0
 51
0.0
 71
     0
 72
   500
 73
     1
 74
     0
 75
     0
 76
     0
 77
     0
 78
     2
  0
ENDTAB
  0
TABLE
  2
LTYPE
 70
     4
  0
LTYPE
  2
CONTINUOUS
 70
     0
  3
Solid Line
 72
    65
 73
     0
 40
0.0
  0
LTYPE
  2
CENTER
 70
     0
  3
____ _ ____ _ ____ _ ____ _ ____ _ ____ _ ____
 72
    65
 73
     4
 40
2.0
 49
1.25
 49
-0.25
 49
0.25
 49
-0.25
  0
LTYPE
  2
HIDDEN
 70
     0
  3
_ _ _ _ _ _ _ _ _ _ _ _ _ _ _ _ _ _ _ _ _ _ _
 72
    65
 73
     2
 40
0.375
 49
0.25
 49
-0.125
  0
LTYPE
  2
PHANTOM2
 70
     0
  3
___ _ _ ___ _ _ ___ _ _ ___ _ _
 72
    65
 73
     6
 40
1.25
 49
0.625
 49
-0.125
 49
0.125
 49
-0.125
 49
0.125
 49
-0.125
  0
ENDTAB
  0
TABLE
  2
LAYER
 70
     5
  0
LAYER
  2
0
 70
     0
 62
     7
  6
CONTINUOUS
  0
LAYER
  2
1
 70
     0
 62
     1
  6
CENTER
  0
LAYER
  2
2
 70
     0
 62
     2
  6
HIDDEN
  0
LAYER
  2
3
 70
     0
 62
     3
  6
CONTINUOUS
  0
LAYER
  2
DEFPOINTS
 70
     0
 62
     7
  6
CONTINUOUS
  0
ENDTAB
  0
TABLE
  2
STYLE
 70
     2
  0
STYLE
  2
STANDARD
 70
     0
 40
0.0
 41
1.0
 50
0.0
 71
     0
 42
0.2
  3
TXT
  4
BIGFONT
  0
STYLE
  2
STANDARD1
 70
     0
 40
0.0
 41
1.0
 50
0.0
 71
     0
 42
3.0
  3
txt
  4

  0
ENDTAB
  0
TABLE
  2
VIEW
 70
     1
  0
VIEW
  2
ALL
 70
     0
 40
179.5384664489153
 10
146.94997169852391
 20
89.769233224457665
 41
0.0
 11
0.0
 21
0.0
 31
1.0
 12
0.0
 22
0.0
 32
0.0
 42
0.0
 43
0.0
 44
0.0
 50
0.0
 71
     0
  0
ENDTAB
  0
TABLE
  2
UCS
 70
     0
  0
ENDTAB
  0
TABLE
  2
APPID
 70
     3
  0
APPID
  2
ACAD
 70
     0
  0
APPID
  2
ACAD_MLEADERVER
 70
     0
  0
APPID
  2
ACAD_NAV_VCDISPLAY
 70
     0
  0
ENDTAB
  0
TABLE
  2
DIMSTYLE
 70
     1
  0
DIMSTYLE
  2
STANDARD
 70
     0
  3

  4

  5

  6

  7

 40
1.0
 41
0.18
 42
0.0625
 43
0.38
 44
0.18
 45
0.0
 46
0.0
 47
0.0
 48
0.0
140
0.18
141
0.09
142
0.0
143
25.399999999999999
144
1.0
145
0.0
146
1.0
147
0.09
 71
     0
 72
     0
 73
     1
 74
     1
 75
     0
 76
     0
 77
     0
 78
     0
170
     0
171
     2
172
     0
173
     0
174
     0
175
     0
176
     0
177
     0
178
     0
  0
ENDTAB
  0
ENDSEC
  0
SECTION
  2
BLOCKS
  0
BLOCK
  8
0
  2
$MODEL_SPACE
 70
     0
 10
0.0
 20
0.0
 30
0.0
  3
$MODEL_SPACE
  1

  0
ENDBLK
  5
D0
  8
0
  0
BLOCK
 67
     1
  8
0
  2
$PAPER_SPACE
 70
     0
 10
0.0
 20
0.0
 30
0.0
  3
$PAPER_SPACE
  1

  0
ENDBLK
  5
CE
 67
     1
  8
0
  0
ENDSEC
  0
SECTION
  2
ENTITIES
  0
LINE
  5
40
  8
1
 10
8.2599712100040961
 20
30.60251798561152
 30
0.0
 11
8.2599712100041103
 21
65.602517985611513
 31
0.0
  0
ARC
  5
41
  8
0
 10
8.2599712100041103
 20
48.10251798561152
 30
0.0
 40
12.5
 50
235.9442022574321
 51
304.0557977425679
  0
ARC
  5
42
  8
0
 10
8.2599712100041103
 20
48.10251798561152
 30
0.0
 40
12.5
 50
55.944202257432103
 51
124.0557977425679
  0
LINE
  5
43
  8
0
 10
1.2599712100041101
 20
37.746360397007528
 30
0.0
 11
1.2599712100041101
 21
58.458675574215498
 31
0.0
  0
LINE
  5
44
  8
0
 10
15.25997121000411
 20
37.746360397007528
 30
0.0
 11
15.25997121000411
 21
58.458675574215498
 31
0.0
  0
LINE
  5
45
  8
1
 10
20.259971210003648
 20
48.10251798561152
 30
0.0
 11
-3.7400287899957041
 21
48.10251798561152
 31
0.0
  0
LINE
  5
46
  8
2
 10
1.2599712100041101
 20
42.102517985611513
 30
0.0
 11
15.25997121000411
 21
42.102517985611549
 31
0.0
  0
LINE
  5
47
  8
2
 10
1.2599712100041101
 20
54.10251798561152
 30
0.0
 11
15.25997121000411
 21
54.10251798561152
 31
0.0
  0
LINE
  5
48
  8
1
 10
37.184730072215679
 20
48.10251798561152
 30
0.0
 11
184.6847300722157
 21
48.102517985611478
 31
0.0
  0
LINE
  5
49
  8
1
 10
54.684730072215679
 20
65.602517985611527
 30
0.0
 11
54.684730072215679
 21
30.60251798561152
 31
0.0
  0
CIRCLE
  5
4A
  8
0
 10
54.684730072215679
 20
48.10251798561152
 30
0.0
 40
5.9999999999999707
  0
LINE
  5
4B
  8
0
 10
179.6847300722157
 20
52.102517985611449
 30
0.0
 11
179.6847300722157
 21
44.102517985611449
 31
0.0
  0
LINE
  5
4C
  8
0
 10
177.6847300722157
 20
42.102517985611449
 30
0.0
 11
68.764857912544386
 21
42.102517985611513
 31
0.0
  0
ARC
  5
4D
  8
0
 10
68.764857912544386
 20
60.10251798561152
 30
0.0
 40
6.0
 50
220.4397907188349
 51
270.0
  0
ARC
  5
4E
  8
0
 10
54.684730072215679
 20
48.10251798561152
 30
0.0
 40
12.5
 50
40.439794230464429
 51
319.56020576953551
  0
LINE
  5
4F
  8
0
 10
68.764857912544386
 20
54.10251798561152
 30
0.0
 11
177.6847300722157
 21
54.102517985611449
 31
0.0
  0
ARC
  5
50
  8
0
 10
68.764857912544386
 20
36.10251798561152
 30
0.0
 40
6.0
 50
89.999999999999986
 51
139.5602092811651
  0
LINE
  5
51
  8
0
 10
177.6847300722157
 20
54.102517985611449
 30
0.0
 11
179.6847300722157
 21
52.102517985611449
 31
0.0
  0
LINE
  5
52
  8
0
 10
179.6847300722157
 20
44.102517985611449
 30
0.0
 11
177.6847300722157
 21
42.102517985611449
 31
0.0
  0
LINE
  5
53
  8
3
 10
178.63173007221559
 20
53.155517985611482
 30
0.0
 11
129.6847300722157
 21
53.155517985611482
 31
0.0
  0
LINE
  5
54
  8
3
 10
129.6847300722157
 20
53.155517985611482
 30
0.0
 11
128.0444779574479
 21
54.102517985611492
 31
0.0
  0
LINE
  5
55
  8
3
 10
178.63173007221559
 20
43.04951798561148
 30
0.0
 11
129.6847300722157
 21
43.049517985611487
 31
0.0
  0
LINE
  5
56
  8
3
 10
129.6847300722157
 20
43.049517985611487
 30
0.0
 11
128.0444779574479
 21
42.102517985611492
 31
0.0
  0
LINE
  5
57
  8
0
 10
129.6847300722157
 20
54.102517985611492
 30
0.0
 11
129.6847300722157
 21
42.102517985611492
 31
0.0
  0
LINE
  5
58
  8
0
 10
177.6847300722157
 20
54.102517985611449
 30
0.0
 11
177.6847300722157
 21
42.102517985611449
 31
0.0
  0
CIRCLE
  5
59
  8
0
 10
54.684730072215679
 20
48.10251798561152
 30
0.0
 40
10.35615758860399
  0
ARC
  5
5A
  8
0
 10
68.357512451175097
 20
87.402877697841717
 30
0.0
 40
6.0
 50
90.000000000000014
 51
123.557309761921
  0
ARC
  5
5B
  8
0
 10
68.357512451175097
 20
111.4028776978417
 30
0.0
 40
6.0
 50
236.442690238079
 51
270.0
  0
ARC
  5
5C
  8
0
 10
54.684730072215693
 20
99.402877697841717
 30
0.0
 40
12.5
 50
145.9442022574321
 51
214.0557977425679
  0
LINE
  5
5D
  8
0
 10
44.328572483611701
 20
106.4028776978417
 30
0.0
 11
65.040887660819692
 21
106.4028776978417
 31
0.0
  0
LINE
  5
5E
  8
0
 10
44.328572483611701
 20
92.402877697841717
 30
0.0
 11
65.040887660819692
 21
92.402877697841717
 31
0.0
  0
LINE
  5
5F
  8
2
 10
48.684730072215693
 20
106.4028776978417
 30
0.0
 11
48.684730072215693
 21
92.402877697841717
 31
0.0
  0
LINE
  5
60
  8
2
 10
60.6847300722157
 20
106.4028776978417
 30
0.0
 11
60.6847300722157
 21
92.402877697841703
 31
0.0
  0
LINE
  5
61
  8
1
 10
37.184730072215693
 20
99.402877697841717
 30
0.0
 11
184.6847300722157
 21
99.402877697841717
 31
0.0
  0
LINE
  5
62
  8
1
 10
54.684730072215693
 20
111.4028776978421
 30
0.0
 11
54.684730072215693
 21
87.402877697841873
 31
0.0
  0
LINE
  5
63
  8
0
 10
179.6847300722157
 20
103.4028776978417
 30
0.0
 11
179.6847300722157
 21
95.402877697841689
 31
0.0
  0
LINE
  5
64
  8
0
 10
177.6847300722157
 20
93.402877697841674
 30
0.0
 11
68.357512451175097
 21
93.402877697841674
 31
0.0
  0
LINE
  5
65
  8
0
 10
68.357512451175097
 20
105.4028776978417
 30
0.0
 11
177.6847300722157
 21
105.4028776978417
 31
0.0
  0
LINE
  5
66
  8
0
 10
177.6847300722157
 20
105.4028776978417
 30
0.0
 11
179.6847300722157
 21
103.4028776978417
 31
0.0
  0
LINE
  5
67
  8
0
 10
179.6847300722157
 20
95.402877697841689
 30
0.0
 11
177.6847300722157
 21
93.402877697841674
 31
0.0
  0
LINE
  5
68
  8
3
 10
178.63173007221559
 20
104.4558776978417
 30
0.0
 11
129.6847300722157
 21
104.4558776978417
 31
0.0
  0
LINE
  5
69
  8
3
 10
129.6847300722157
 20
104.4558776978417
 30
0.0
 11
128.0444779574479
 21
105.4028776978417
 31
0.0
  0
LINE
  5
6A
  8
3
 10
178.63173007221559
 20
94.349877697841706
 30
0.0
 11
129.6847300722157
 21
94.349877697841706
 31
0.0
  0
LINE
  5
6B
  8
3
 10
129.6847300722157
 20
94.349877697841706
 30
0.0
 11
128.0444779574479
 21
93.402877697841717
 31
0.0
  0
LINE
  5
6C
  8
0
 10
129.6847300722157
 20
105.4028776978417
 30
0.0
 11
129.6847300722157
 21
93.402877697841717
 31
0.0
  0
LINE
  5
6D
  8
0
 10
177.6847300722157
 20
105.4028776978417
 30
0.0
 11
177.6847300722157
 21
93.402877697841674
 31
0.0
  0
TEXT
  5
242
  8
0
 62
     3
 10
0.0
 20
0.0
 30
0.0
 40
10.0
  1
BJ761-12003N
  7
STANDARD1
  0
ENDSEC
  0
EOF
