  0
SECTION
  2
HEADER
  9
$ACADVER
  1
AC1009
  9
$INSBASE
 10
0.0
 20
0.0
 30
0.0
  9
$EXTMIN
 10
0.0
 20
-2.960436562073669
 30
0.0
  9
$EXTMAX
 10
147.84320568582811
 20
106.18877521524099
 30
0.0
  9
$LIMMIN
 10
0.0
 20
0.0
  9
$LIMMAX
 10
192.5
 20
135.0
  9
$ORTHOMODE
 70
     1
  9
$REGENMODE
 70
     1
  9
$FILLMODE
 70
     1
  9
$QTEXTMODE
 70
     0
  9
$MIRRTEXT
 70
     0
  9
$DRAGMODE
 70
     2
  9
$LTSCALE
 40
5.0
  9
$OSMODE
 70
  3071
  9
$ATTMODE
 70
     1
  9
$TEXTSIZE
 40
1.6000000000000489
  9
$TRACEWID
 40
0.05
  9
$TEXTSTYLE
  7
STANDARD
  9
$CLAYER
  8
0
  9
$CELTYPE
  6
BYLAYER
  9
$CECOLOR
 62
   256
  9
$DIMSCALE
 40
0.5
  9
$DIMASZ
 40
3.0
  9
$DIMEXO
 40
2.0
  9
$DIMDLI
 40
0.38
  9
$DIMRND
 40
0.0
  9
$DIMDLE
 40
0.0
  9
$DIMEXE
 40
2.0
  9
$DIMTP
 40
0.0
  9
$DIMTM
 40
0.0
  9
$DIMTXT
 40
3.0
  9
$DIMCEN
 40
0.0
  9
$DIMTSZ
 40
0.0
  9
$DIMTOL
 70
     0
  9
$DIMLIM
 70
     0
  9
$DIMTIH
 70
     0
  9
$DIMTOH
 70
     0
  9
$DIMSE1
 70
     0
  9
$DIMSE2
 70
     0
  9
$DIMTAD
 70
     1
  9
$DIMZIN
 70
     0
  9
$DIMBLK
  1

  9
$DIMASO
 70
     1
  9
$DIMSHO
 70
     0
  9
$DIMPOST
  1

  9
$DIMAPOST
  1

  9
$DIMALT
 70
     0
  9
$DIMALTD
 70
     2
  9
$DIMALTF
 40
25.399999999999999
  9
$DIMLFAC
 40
1.0
  9
$DIMTOFL
 70
     1
  9
$DIMTVP
 40
1.6000000000000001
  9
$DIMTIX
 70
     1
  9
$DIMSOXD
 70
     0
  9
$DIMSAH
 70
     0
  9
$DIMBLK1
  1

  9
$DIMBLK2
  1

  9
$DIMSTYLE
  2
STANDARD
  9
$DIMCLRD
 70
     0
  9
$DIMCLRE
 70
     0
  9
$DIMCLRT
 70
     0
  9
$DIMTFAC
 40
1.0
  9
$DIMGAP
 40
0.09
  9
$LUNITS
 70
     2
  9
$LUPREC
 70
     4
  9
$SKETCHINC
 40
0.1
  9
$FILLETRAD
 40
0.3
  9
$AUNITS
 70
     0
  9
$AUPREC
 70
     4
  9
$MENU
  1
E:\r13\win\SUPPORT\ACAD
  9
$ELEVATION
 40
0.0
  9
$PELEVATION
 40
0.0
  9
$THICKNESS
 40
0.0
  9
$LIMCHECK
 70
     0
  9
$BLIPMODE
 70
     0
  9
$CHAMFERA
 40
0.5
  9
$CHAMFERB
 40
0.5
  9
$SKPOLY
 70
     0
  9
$TDCREATE
 40
2448328.489641204
  9
$TDUPDATE
 40
2456598.3689810531
  9
$TDINDWG
 40
0.1340221528
  9
$TDUSRTIMER
 40
0.1340221528
  9
$USRTIMER
 70
     1
  9
$ANGBASE
 50
0.0
  9
$ANGDIR
 70
     0
  9
$PDMODE
 70
    35
  9
$PDSIZE
 40
0.0
  9
$PLINEWID
 40
0.0
  9
$COORDS
 70
     1
  9
$SPLFRAME
 70
     0
  9
$SPLINETYPE
 70
     6
  9
$SPLINESEGS
 70
     8
  9
$ATTDIA
 70
     0
  9
$ATTREQ
 70
     1
  9
$HANDLING
 70
     1
  9
$HANDSEED
  5
C92
  9
$SURFTAB1
 70
     6
  9
$SURFTAB2
 70
     6
  9
$SURFTYPE
 70
     6
  9
$SURFU
 70
     6
  9
$SURFV
 70
     6
  9
$UCSNAME
  2

  9
$UCSORG
 10
0.0
 20
0.0
 30
0.0
  9
$UCSXDIR
 10
1.0
 20
0.0
 30
0.0
  9
$UCSYDIR
 10
0.0
 20
1.0
 30
0.0
  9
$PUCSNAME
  2

  9
$PUCSORG
 10
0.0
 20
0.0
 30
0.0
  9
$PUCSXDIR
 10
1.0
 20
0.0
 30
0.0
  9
$PUCSYDIR
 10
0.0
 20
1.0
 30
0.0
  9
$USERI1
 70
     3
  9
$USERI2
 70
     1
  9
$USERI3
 70
     1
  9
$USERI4
 70
     0
  9
$USERI5
 70
     0
  9
$USERR1
 40
0.5
  9
$USERR2
 40
3.0
  9
$USERR3
 40
3.0
  9
$USERR4
 40
3.0
  9
$USERR5
 40
10.0
  9
$WORLDVIEW
 70
     1
  9
$SHADEDGE
 70
     3
  9
$SHADEDIF
 70
    70
  9
$TILEMODE
 70
     1
  9
$MAXACTVP
 70
    16
  9
$PLIMCHECK
 70
     0
  9
$PEXTMIN
 10
1.0000000000000000E+020
 20
1.0000000000000000E+020
 30
1.0000000000000000E+020
  9
$PEXTMAX
 10
-1.0000000000000000E+020
 20
-1.0000000000000000E+020
 30
-1.0000000000000000E+020
  9
$PLIMMIN
 10
0.0
 20
0.0
  9
$PLIMMAX
 10
12.0
 20
9.0
  9
$UNITMODE
 70
     0
  9
$VISRETAIN
 70
     0
  9
$PLINEGEN
 70
     1
  9
$PSLTSCALE
 70
     0
  0
ENDSEC
  0
SECTION
  2
TABLES
  0
TABLE
  2
VPORT
 70
     1
  0
VPORT
  2
*ACTIVE
 70
     0
 10
0.0
 20
0.0
 11
1.0
 21
1.0
 12
100.0700744819264
 22
66.014785922033241
 13
0.0
 23
0.0
 14
2.5
 24
2.5
 15
5.0
 25
5.0
 16
0.0
 26
0.0
 36
1.0
 17
0.0
 27
0.0
 37
0.0
 40
139.20783109903601
 41
1.831871345029239
 42
50.0
 43
0.0
 44
0.0
 50
0.0
 51
0.0
 71
     0
 72
   500
 73
     1
 74
     0
 75
     0
 76
     0
 77
     0
 78
     2
  0
ENDTAB
  0
TABLE
  2
LTYPE
 70
     4
  0
LTYPE
  2
CONTINUOUS
 70
     0
  3
Solid Line
 72
    65
 73
     0
 40
0.0
  0
LTYPE
  2
CENTER
 70
     0
  3
____ _ ____ _ ____ _ ____ _ ____ _ ____ _ ____
 72
    65
 73
     4
 40
2.0
 49
1.25
 49
-0.25
 49
0.25
 49
-0.25
  0
LTYPE
  2
HIDDEN
 70
     0
  3
_ _ _ _ _ _ _ _ _ _ _ _ _ _ _ _ _ _ _ _ _ _ _
 72
    65
 73
     2
 40
0.375
 49
0.25
 49
-0.125
  0
LTYPE
  2
PHANTOM2
 70
     0
  3
___ _ _ ___ _ _ ___ _ _ ___ _ _
 72
    65
 73
     6
 40
1.25
 49
0.625
 49
-0.125
 49
0.125
 49
-0.125
 49
0.125
 49
-0.125
  0
ENDTAB
  0
TABLE
  2
LAYER
 70
     5
  0
LAYER
  2
0
 70
     0
 62
     7
  6
CONTINUOUS
  0
LAYER
  2
1
 70
     0
 62
     1
  6
CENTER
  0
LAYER
  2
3
 70
     0
 62
     3
  6
CONTINUOUS
  0
LAYER
  2
11
 70
     0
 62
     3
  6
CONTINUOUS
  0
LAYER
  2
2
 70
     0
 62
     2
  6
HIDDEN
  0
ENDTAB
  0
TABLE
  2
STYLE
 70
     2
  0
STYLE
  2
STANDARD
 70
     0
 40
0.0
 41
1.0
 50
0.0
 71
     0
 42
1.6000000000000489
  3
SIMPLEX
  4
BIGFONT
  0
STYLE
  2
STANDARD1
 70
     0
 40
0.0
 41
1.0
 50
0.0
 71
     0
 42
3.0
  3
txt
  4

  0
ENDTAB
  0
TABLE
  2
VIEW
 70
     1
  0
VIEW
  2
ALL
 70
     0
 40
87.5
 10
71.617647058823522
 20
43.75
 41
0.0
 11
0.0
 21
0.0
 31
1.0
 12
0.0
 22
0.0
 32
0.0
 42
0.0
 43
0.0
 44
0.0
 50
0.0
 71
     0
  0
ENDTAB
  0
TABLE
  2
UCS
 70
     0
  0
ENDTAB
  0
TABLE
  2
APPID
 70
     3
  0
APPID
  2
ACAD
 70
     0
  0
APPID
  2
ACAD_MLEADERVER
 70
     0
  0
APPID
  2
ACAD_NAV_VCDISPLAY
 70
     0
  0
ENDTAB
  0
TABLE
  2
DIMSTYLE
 70
     1
  0
DIMSTYLE
  2
STANDARD
 70
     0
  3

  4

  5

  6

  7

 40
1.0
 41
0.18
 42
0.0625
 43
0.38
 44
0.18
 45
0.0
 46
0.0
 47
0.0
 48
0.0
140
0.18
141
0.09
142
0.0
143
25.399999999999999
144
1.0
145
0.0
146
1.0
147
0.09
 71
     0
 72
     0
 73
     1
 74
     1
 75
     0
 76
     0
 77
     0
 78
     0
170
     0
171
     2
172
     0
173
     0
174
     0
175
     0
176
     0
177
     0
178
     0
  0
ENDTAB
  0
ENDSEC
  0
SECTION
  2
BLOCKS
  0
BLOCK
  8
0
  2
$MODEL_SPACE
 70
     0
 10
0.0
 20
0.0
 30
0.0
  3
$MODEL_SPACE
  1

  0
ENDBLK
  5
B16
  8
0
  0
BLOCK
 67
     1
  8
0
  2
$PAPER_SPACE
 70
     0
 10
0.0
 20
0.0
 30
0.0
  3
$PAPER_SPACE
  1

  0
ENDBLK
  5
B14
 67
     1
  8
0
  0
BLOCK
  8
0
  2
STDGX5
 70
     0
 10
0.0
 20
0.0
 30
0.0
  3
STDGX5
  1

  0
ENDBLK
  5
230
  8
0
  0
ENDSEC
  0
SECTION
  2
ENTITIES
  0
INSERT
  5
254
  8
11
  2
STDGX5
 10
155.0
 20
0.0
 30
0.0
 41
0.5
 42
0.5
 43
0.5
  0
INSERT
  5
6BE
  8
11
  2
STDGX5
 10
115.0
 20
100.0
 30
0.0
  0
LINE
  5
9C2
  8
1
 10
92.843205685828082
 20
70.617346706676571
 30
0.0
 11
92.843205685828082
 21
42.617346706676571
 31
0.0
  0
LINE
  5
9C3
  8
1
 10
51.136481001955929
 20
70.617346706676571
 30
0.0
 11
51.136481001955929
 21
42.617346706676571
 31
0.0
  0
LINE
  5
9EC
  8
3
 10
142.15520568582809
 20
52.42934670667654
 30
0.0
 11
112.8432056858281
 21
52.42934670667654
 31
0.0
  0
LINE
  5
9ED
  8
3
 10
142.15520568582809
 20
60.805346706676573
 30
0.0
 11
112.8432056858281
 21
60.805346706676573
 31
0.0
  0
LINE
  5
9EE
  8
0
 10
103.5670109805917
 20
61.617346706676571
 30
0.0
 11
141.343205685828
 21
61.61734670667655
 31
0.0
  0
LINE
  5
9EF
  8
0
 10
141.343205685828
 20
51.617346706676571
 30
0.0
 11
103.5670109805917
 21
51.617346706676571
 31
0.0
  0
LINE
  5
9F0
  8
1
 10
78.843205685828082
 20
56.617346706676571
 30
0.0
 11
147.84320568582811
 21
56.61734670667655
 31
0.0
  0
LINE
  5
9F4
  8
1
 10
37.136481001955929
 20
56.617346706676571
 30
0.0
 11
65.136481001955929
 21
56.617346706676571
 31
0.0
  0
LINE
  5
9FD
  8
0
 10
45.136481001955929
 20
64.617346706676571
 30
0.0
 11
45.136481001955929
 21
48.617346706676571
 31
0.0
  0
LINE
  5
9FE
  8
0
 10
57.136481001955929
 20
64.617346706676571
 30
0.0
 11
57.136481001955929
 21
48.617346706676571
 31
0.0
  0
LINE
  5
9FF
  8
2
 10
56.636481001955929
 20
51.617346706676571
 30
0.0
 11
45.636481001955921
 21
51.617346706676571
 31
0.0
  0
ARC
  5
A00
  8
0
 10
51.136481001955929
 20
56.617346706676571
 30
0.0
 40
10.0
 50
233.13010235415601
 51
306.86989764584399
  0
LINE
  5
A01
  8
2
 10
56.636481001955929
 20
61.617346706676571
 30
0.0
 11
45.636481001955921
 21
61.617346706676571
 31
0.0
  0
ARC
  5
A02
  8
0
 10
51.136481001955929
 20
56.617346706676571
 30
0.0
 40
10.0
 50
53.130102354155973
 51
126.86989764584401
  0
ARC
  5
A0E
  8
0
 10
103.5670109805917
 20
47.617346706676571
 30
0.0
 40
4.0
 50
90.000000000000028
 51
139.9947991151397
  0
ARC
  5
A0F
  8
0
 10
92.843205685828082
 20
56.617346706676571
 30
0.0
 40
10.0
 50
40.00520088486013
 51
319.99479911513981
  0
ARC
  5
A10
  8
0
 10
103.5670109805917
 20
65.617346706676571
 30
0.0
 40
4.0
 50
220.0052008848603
 51
270.0
  0
CIRCLE
  5
A11
  8
0
 10
92.843205685828082
 20
56.617346706676571
 30
0.0
 40
8.0
  0
CIRCLE
  5
A12
  8
0
 10
92.843205685828082
 20
56.617346706676571
 30
0.0
 40
5.0
  0
LINE
  5
A19
  8
3
 10
112.8432056858281
 20
52.42934670667654
 30
0.0
 11
111.43678043008219
 21
51.617346706676543
 31
0.0
  0
LINE
  5
A1A
  8
3
 10
112.8432056858281
 20
60.805346706676573
 30
0.0
 11
111.43678043008219
 21
61.617346706676571
 31
0.0
  0
LINE
  5
A1F
  8
0
 10
112.8432056858281
 20
61.617346706676571
 30
0.0
 11
112.8432056858281
 21
51.61734670667655
 31
0.0
  0
LINE
  5
A23
  8
0
 10
141.34320568582811
 20
61.617346706676543
 30
0.0
 11
141.34320568582811
 21
51.61734670667655
 31
0.0
  0
LINE
  5
A24
  8
0
 10
142.84320568582811
 20
60.117346706676557
 30
0.0
 11
142.84320568582811
 21
53.117346706676571
 31
0.0
  0
LINE
  5
A25
  8
0
 10
142.84320568582811
 20
53.117346706676571
 30
0.0
 11
141.343205685828
 21
51.617346706676571
 31
0.0
  0
LINE
  5
A29
  8
0
 10
141.343205685828
 20
61.61734670667655
 30
0.0
 11
142.84320568582811
 21
60.117346706676557
 31
0.0
  0
LINE
  5
A37
  8
2
 10
45.636481001955921
 20
51.617346706676571
 30
0.0
 11
45.136481001955929
 21
51.117346706676571
 31
0.0
  0
LINE
  5
A39
  8
2
 10
45.636481001955921
 20
61.617346706676571
 30
0.0
 11
45.136481001955929
 21
62.117346706676571
 31
0.0
  0
LINE
  5
A3A
  8
2
 10
56.636481001955929
 20
61.617346706676571
 30
0.0
 11
57.136481001955929
 21
62.117346706676571
 31
0.0
  0
LINE
  5
A3B
  8
2
 10
56.636481001955929
 20
51.617346706676571
 30
0.0
 11
57.136481001955929
 21
51.117346706676571
 31
0.0
  0
LINE
  5
A3C
  8
2
 10
56.636481001955929
 20
61.617346706676571
 30
0.0
 11
56.636481001955929
 21
51.617346706676571
 31
0.0
  0
LINE
  5
A3D
  8
2
 10
45.636481001955921
 20
51.617346706676571
 30
0.0
 11
45.636481001955921
 21
61.617346706676571
 31
0.0
  0
ARC
  5
A5B
  8
0
 10
92.843205685828082
 20
95.188775215241009
 30
0.0
 40
10.0
 50
143.13010235415581
 51
216.86989764584391
  0
LINE
  5
A5C
  8
1
 10
78.843205685828082
 20
95.188775215241009
 30
0.0
 11
147.84320568582811
 21
95.188775215241009
 31
0.0
  0
LINE
  5
A6C
  8
0
 10
142.84320568582811
 20
98.688775215241009
 30
0.0
 11
142.84320568582811
 21
91.688775215241023
 31
0.0
  0
LINE
  5
A6D
  8
0
 10
141.34320568582811
 20
100.18877521524099
 30
0.0
 11
141.34320568582811
 21
90.188775215241009
 31
0.0
  0
LINE
  5
A6E
  8
0
 10
112.8432056858281
 20
100.18877521524099
 30
0.0
 11
112.8432056858281
 21
90.188775215241009
 31
0.0
  0
LINE
  5
A6F
  8
3
 10
142.15520568582809
 20
91.000775215240992
 30
0.0
 11
112.8432056858281
 21
91.000775215240992
 31
0.0
  0
LINE
  5
A70
  8
0
 10
141.343205685828
 20
90.188775215241009
 30
0.0
 11
103.5670109805917
 21
90.188775215241009
 31
0.0
  0
ARC
  5
A71
  8
0
 10
103.5670109805917
 20
86.188775215241023
 30
0.0
 40
4.0
 50
90.000000000000028
 51
131.40962210927049
  0
LINE
  5
A72
  8
3
 10
112.8432056858281
 20
91.000775215240992
 30
0.0
 11
111.43678043008219
 21
90.188775215240994
 31
0.0
  0
LINE
  5
A73
  8
0
 10
142.84320568582811
 20
91.688775215241023
 30
0.0
 11
141.343205685828
 21
90.188775215241009
 31
0.0
  0
LINE
  5
A74
  8
3
 10
142.15520568582809
 20
99.376775215241025
 30
0.0
 11
112.8432056858281
 21
99.376775215241025
 31
0.0
  0
LINE
  5
A75
  8
0
 10
103.5670109805917
 20
100.18877521524099
 30
0.0
 11
141.343205685828
 21
100.18877521524099
 31
0.0
  0
ARC
  5
A76
  8
0
 10
103.5670109805917
 20
104.18877521524099
 30
0.0
 40
4.0
 50
228.590377890729
 51
270.0
  0
LINE
  5
A77
  8
3
 10
112.8432056858281
 20
99.376775215241025
 30
0.0
 11
111.43678043008219
 21
100.18877521524099
 31
0.0
  0
LINE
  5
A78
  8
0
 10
141.343205685828
 20
100.18877521524099
 30
0.0
 11
142.84320568582811
 21
98.688775215241009
 31
0.0
  0
LINE
  5
A79
  8
0
 10
84.843205685828096
 20
101.18877521524099
 30
0.0
 11
100.9212596695271
 21
101.18877521524099
 31
0.0
  0
LINE
  5
A7A
  8
0
 10
84.843205685828067
 20
89.188775215241037
 30
0.0
 11
100.9212596695271
 21
89.188775215241037
 31
0.0
  0
ARC
  5
A7B
  8
0
 10
92.843205685828082
 20
95.188775215241009
 30
0.0
 40
10.0
 50
323.13010235415612
 51
36.869897645844127
  0
LINE
  5
A7C
  8
1
 10
92.843205685828082
 20
106.18877521524099
 30
0.0
 11
92.843205685828082
 21
84.188775215241037
 31
0.0
  0
TEXT
  5
C04
  8
0
 62
     3
 10
0.0
 20
0.0
 30
0.0
 40
10.0
  1
BJ761-10011N
  7
STANDARD1
  0
ENDSEC
  0
EOF
