  0
SECTION
  2
HEADER
  9
$ACADVER
  1
AC1009
  9
$INSBASE
 10
0.0
 20
0.0
 30
0.0
  9
$EXTMIN
 10
0.0
 20
-2.960436562073669
 30
0.0
  9
$EXTMAX
 10
174.650864264402
 20
105.28552158273379
 30
0.0
  9
$LIMMIN
 10
0.0
 20
0.0
  9
$LIMMAX
 10
187.5
 20
135.0
  9
$ORTHOMODE
 70
     1
  9
$REGENMODE
 70
     1
  9
$FILLMODE
 70
     1
  9
$QTEXTMODE
 70
     0
  9
$MIRRTEXT
 70
     0
  9
$DRAGMODE
 70
     2
  9
$LTSCALE
 40
5.0
  9
$OSMODE
 70
  3071
  9
$ATTMODE
 70
     1
  9
$TEXTSIZE
 40
0.2
  9
$TRACEWID
 40
0.05
  9
$TEXTSTYLE
  7
STANDARD
  9
$CLAYER
  8
0
  9
$CELTYPE
  6
BYLAYER
  9
$CECOLOR
 62
   256
  9
$DIMSCALE
 40
0.5
  9
$DIMASZ
 40
3.0
  9
$DIMEXO
 40
2.0
  9
$DIMDLI
 40
0.38
  9
$DIMRND
 40
0.0
  9
$DIMDLE
 40
0.0
  9
$DIMEXE
 40
2.0
  9
$DIMTP
 40
0.0
  9
$DIMTM
 40
0.0
  9
$DIMTXT
 40
3.2000000000000002
  9
$DIMCEN
 40
0.0
  9
$DIMTSZ
 40
0.0
  9
$DIMTOL
 70
     0
  9
$DIMLIM
 70
     0
  9
$DIMTIH
 70
     0
  9
$DIMTOH
 70
     0
  9
$DIMSE1
 70
     0
  9
$DIMSE2
 70
     0
  9
$DIMTAD
 70
     1
  9
$DIMZIN
 70
     0
  9
$DIMBLK
  1

  9
$DIMASO
 70
     1
  9
$DIMSHO
 70
     0
  9
$DIMPOST
  1

  9
$DIMAPOST
  1

  9
$DIMALT
 70
     0
  9
$DIMALTD
 70
     2
  9
$DIMALTF
 40
25.399999999999999
  9
$DIMLFAC
 40
1.0
  9
$DIMTOFL
 70
     1
  9
$DIMTVP
 40
1.6000000000000001
  9
$DIMTIX
 70
     1
  9
$DIMSOXD
 70
     0
  9
$DIMSAH
 70
     0
  9
$DIMBLK1
  1

  9
$DIMBLK2
  1

  9
$DIMSTYLE
  2
STANDARD
  9
$DIMCLRD
 70
     0
  9
$DIMCLRE
 70
     0
  9
$DIMCLRT
 70
     0
  9
$DIMTFAC
 40
1.0
  9
$DIMGAP
 40
0.09
  9
$LUNITS
 70
     2
  9
$LUPREC
 70
     4
  9
$SKETCHINC
 40
0.1
  9
$FILLETRAD
 40
0.0
  9
$AUNITS
 70
     0
  9
$AUPREC
 70
     4
  9
$MENU
  1
E:\r13\win\SUPPORT\ACAD
  9
$ELEVATION
 40
0.0
  9
$PELEVATION
 40
0.0
  9
$THICKNESS
 40
0.0
  9
$LIMCHECK
 70
     0
  9
$BLIPMODE
 70
     0
  9
$CHAMFERA
 40
0.0
  9
$CHAMFERB
 40
0.0
  9
$SKPOLY
 70
     0
  9
$TDCREATE
 40
2449839.773472222
  9
$TDUPDATE
 40
2456598.368948739
  9
$TDINDWG
 40
0.0001969213
  9
$TDUSRTIMER
 40
0.0001969213
  9
$USRTIMER
 70
     1
  9
$ANGBASE
 50
0.0
  9
$ANGDIR
 70
     0
  9
$PDMODE
 70
     0
  9
$PDSIZE
 40
0.0
  9
$PLINEWID
 40
0.0
  9
$COORDS
 70
     1
  9
$SPLFRAME
 70
     0
  9
$SPLINETYPE
 70
     6
  9
$SPLINESEGS
 70
     8
  9
$ATTDIA
 70
     0
  9
$ATTREQ
 70
     1
  9
$HANDLING
 70
     1
  9
$HANDSEED
  5
251
  9
$SURFTAB1
 70
     6
  9
$SURFTAB2
 70
     6
  9
$SURFTYPE
 70
     6
  9
$SURFU
 70
     6
  9
$SURFV
 70
     6
  9
$UCSNAME
  2

  9
$UCSORG
 10
0.0
 20
0.0
 30
0.0
  9
$UCSXDIR
 10
1.0
 20
0.0
 30
0.0
  9
$UCSYDIR
 10
0.0
 20
1.0
 30
0.0
  9
$PUCSNAME
  2

  9
$PUCSORG
 10
0.0
 20
0.0
 30
0.0
  9
$PUCSXDIR
 10
1.0
 20
0.0
 30
0.0
  9
$PUCSYDIR
 10
0.0
 20
1.0
 30
0.0
  9
$USERI1
 70
     0
  9
$USERI2
 70
     1
  9
$USERI3
 70
     1
  9
$USERI4
 70
     0
  9
$USERI5
 70
     0
  9
$USERR1
 40
0.0
  9
$USERR2
 40
0.0
  9
$USERR3
 40
0.0
  9
$USERR4
 40
0.0
  9
$USERR5
 40
0.0
  9
$WORLDVIEW
 70
     1
  9
$SHADEDGE
 70
     3
  9
$SHADEDIF
 70
    70
  9
$TILEMODE
 70
     1
  9
$MAXACTVP
 70
    16
  9
$PLIMCHECK
 70
     0
  9
$PEXTMIN
 10
1.0000000000000000E+020
 20
1.0000000000000000E+020
 30
1.0000000000000000E+020
  9
$PEXTMAX
 10
-1.0000000000000000E+020
 20
-1.0000000000000000E+020
 30
-1.0000000000000000E+020
  9
$PLIMMIN
 10
0.0
 20
0.0
  9
$PLIMMAX
 10
12.0
 20
9.0
  9
$UNITMODE
 70
     0
  9
$VISRETAIN
 70
     0
  9
$PLINEGEN
 70
     0
  9
$PSLTSCALE
 70
     0
  0
ENDSEC
  0
SECTION
  2
TABLES
  0
TABLE
  2
VPORT
 70
     1
  0
VPORT
  2
*ACTIVE
 70
     0
 10
0.0
 20
0.0
 11
1.0
 21
1.0
 12
97.570150770051072
 22
66.014785922033241
 13
0.0
 23
0.0
 14
5.0
 24
5.0
 15
5.0
 25
5.0
 16
0.0
 26
0.0
 36
1.0
 17
0.0
 27
0.0
 37
0.0
 40
139.20783109903601
 41
1.831871345029239
 42
50.0
 43
0.0
 44
0.0
 50
0.0
 51
0.0
 71
     0
 72
   500
 73
     1
 74
     0
 75
     0
 76
     0
 77
     0
 78
     2
  0
ENDTAB
  0
TABLE
  2
LTYPE
 70
     4
  0
LTYPE
  2
CONTINUOUS
 70
     0
  3
Solid Line
 72
    65
 73
     0
 40
0.0
  0
LTYPE
  2
CENTER
 70
     0
  3
____ _ ____ _ ____ _ ____ _ ____ _ ____ _ ____
 72
    65
 73
     4
 40
2.0
 49
1.25
 49
-0.25
 49
0.25
 49
-0.25
  0
LTYPE
  2
HIDDEN
 70
     0
  3
_ _ _ _ _ _ _ _ _ _ _ _ _ _ _ _ _ _ _ _ _ _ _
 72
    65
 73
     2
 40
0.375
 49
0.25
 49
-0.125
  0
LTYPE
  2
PHANTOM2
 70
     0
  3
___ _ _ ___ _ _ ___ _ _ ___ _ _
 72
    65
 73
     6
 40
1.25
 49
0.625
 49
-0.125
 49
0.125
 49
-0.125
 49
0.125
 49
-0.125
  0
ENDTAB
  0
TABLE
  2
LAYER
 70
     4
  0
LAYER
  2
0
 70
     0
 62
     7
  6
CONTINUOUS
  0
LAYER
  2
1
 70
     0
 62
     1
  6
CENTER
  0
LAYER
  2
2
 70
     0
 62
     2
  6
HIDDEN
  0
LAYER
  2
3
 70
     0
 62
     3
  6
CONTINUOUS
  0
ENDTAB
  0
TABLE
  2
STYLE
 70
     2
  0
STYLE
  2
STANDARD
 70
     0
 40
0.0
 41
1.0
 50
0.0
 71
     0
 42
0.2
  3
TXT
  4
BIGFONT
  0
STYLE
  2
STANDARD1
 70
     0
 40
0.0
 41
1.0
 50
0.0
 71
     0
 42
3.0
  3
txt
  4

  0
ENDTAB
  0
TABLE
  2
VIEW
 70
     1
  0
VIEW
  2
ALL
 70
     0
 40
179.5384664489153
 10
146.94997169852391
 20
89.769233224457665
 41
0.0
 11
0.0
 21
0.0
 31
1.0
 12
0.0
 22
0.0
 32
0.0
 42
0.0
 43
0.0
 44
0.0
 50
0.0
 71
     0
  0
ENDTAB
  0
TABLE
  2
UCS
 70
     0
  0
ENDTAB
  0
TABLE
  2
APPID
 70
     3
  0
APPID
  2
ACAD
 70
     0
  0
APPID
  2
ACAD_MLEADERVER
 70
     0
  0
APPID
  2
ACAD_NAV_VCDISPLAY
 70
     0
  0
ENDTAB
  0
TABLE
  2
DIMSTYLE
 70
     1
  0
DIMSTYLE
  2
STANDARD
 70
     0
  3

  4

  5

  6

  7

 40
1.0
 41
0.18
 42
0.0625
 43
0.38
 44
0.18
 45
0.0
 46
0.0
 47
0.0
 48
0.0
140
0.18
141
0.09
142
0.0
143
25.399999999999999
144
1.0
145
0.0
146
1.0
147
0.09
 71
     0
 72
     0
 73
     1
 74
     1
 75
     0
 76
     0
 77
     0
 78
     0
170
     0
171
     2
172
     0
173
     0
174
     0
175
     0
176
     0
177
     0
178
     0
  0
ENDTAB
  0
ENDSEC
  0
SECTION
  2
BLOCKS
  0
BLOCK
  8
0
  2
$MODEL_SPACE
 70
     0
 10
0.0
 20
0.0
 30
0.0
  3
$MODEL_SPACE
  1

  0
ENDBLK
  5
D0
  8
0
  0
BLOCK
 67
     1
  8
0
  2
$PAPER_SPACE
 70
     0
 10
0.0
 20
0.0
 30
0.0
  3
$PAPER_SPACE
  1

  0
ENDBLK
  5
CE
 67
     1
  8
0
  0
ENDSEC
  0
SECTION
  2
ENTITIES
  0
LINE
  5
40
  8
1
 10
22.35404603152379
 20
35.451438848920873
 30
0.0
 11
22.35404603152379
 21
63.451438848920859
 31
0.0
  0
ARC
  5
41
  8
0
 10
22.35404603152379
 20
49.451438848920859
 30
0.0
 40
10.0
 50
233.13010235415601
 51
306.86989764584399
  0
ARC
  5
42
  8
0
 10
22.35404603152379
 20
49.451438848920859
 30
0.0
 40
10.0
 50
53.130102354155973
 51
126.86989764584401
  0
LINE
  5
43
  8
0
 10
16.35404603152379
 20
41.451438848920859
 30
0.0
 11
16.35404603152379
 21
57.451438848920859
 31
0.0
  0
LINE
  5
44
  8
0
 10
28.354046031523801
 20
41.451438848920859
 30
0.0
 11
28.354046031523801
 21
57.451438848920859
 31
0.0
  0
LINE
  5
45
  8
1
 10
36.354046031523779
 20
49.451438848920859
 30
0.0
 11
8.3540460315237937
 21
49.451438848920859
 31
0.0
  0
LINE
  5
46
  8
2
 10
16.35404603152379
 20
44.451438848920859
 30
0.0
 11
28.354046031523801
 21
44.451438848920859
 31
0.0
  0
LINE
  5
47
  8
2
 10
16.35404603152379
 20
54.451438848920859
 30
0.0
 11
28.354046031523801
 21
54.451438848920859
 31
0.0
  0
LINE
  5
48
  8
1
 10
69.650864264402003
 20
63.451438848920859
 30
0.0
 11
69.650864264402003
 21
35.451438848920859
 31
0.0
  0
LINE
  5
49
  8
1
 10
55.650864264402003
 20
49.451438848920859
 30
0.0
 11
174.65086426440189
 21
49.45143884892083
 31
0.0
  0
CIRCLE
  5
4A
  8
0
 10
69.650864264402003
 20
49.451438848920859
 30
0.0
 40
5.0
  0
CIRCLE
  5
4B
  8
0
 10
69.650864264402003
 20
49.451438848920859
 30
0.0
 40
8.0
  0
LINE
  5
4C
  8
0
 10
169.65086426440189
 20
52.951438848920823
 30
0.0
 11
169.650864264402
 21
45.951438848920823
 31
0.0
  0
LINE
  5
4D
  8
0
 10
168.150864264402
 20
44.451438848920823
 30
0.0
 11
80.374669559165625
 21
44.451438848920851
 31
0.0
  0
ARC
  5
4E
  8
0
 10
80.374669559165625
 20
58.451438848920859
 30
0.0
 40
4.0
 50
220.0052008848603
 51
270.0
  0
ARC
  5
4F
  8
0
 10
69.650864264402003
 20
49.451438848920859
 30
0.0
 40
10.0
 50
40.00520088486013
 51
319.99479911513981
  0
LINE
  5
50
  8
0
 10
80.374669559165625
 20
54.451438848920859
 30
0.0
 11
168.15086426440189
 21
54.45143884892083
 31
0.0
  0
ARC
  5
51
  8
0
 10
80.374669559165625
 20
40.451438848920859
 30
0.0
 40
4.0
 50
89.999999999999986
 51
139.9947991151397
  0
LINE
  5
52
  8
0
 10
168.15086426440189
 20
54.45143884892083
 30
0.0
 11
169.65086426440189
 21
52.951438848920823
 31
0.0
  0
LINE
  5
53
  8
0
 10
169.650864264402
 20
45.951438848920823
 30
0.0
 11
168.150864264402
 21
44.451438848920823
 31
0.0
  0
LINE
  5
54
  8
0
 10
168.150864264402
 20
54.451438848920787
 30
0.0
 11
168.150864264402
 21
44.451438848920823
 31
0.0
  0
LINE
  5
55
  8
3
 10
168.96286426440199
 20
53.639438848920832
 30
0.0
 11
124.6508642644019
 21
53.63943884892084
 31
0.0
  0
LINE
  5
56
  8
3
 10
124.6508642644019
 20
53.63943884892084
 30
0.0
 11
123.2444390086561
 21
54.45143884892083
 31
0.0
  0
LINE
  5
57
  8
3
 10
168.96286426440199
 20
45.263438848920813
 30
0.0
 11
124.6508642644019
 21
45.263438848920813
 31
0.0
  0
LINE
  5
58
  8
3
 10
124.6508642644019
 20
45.263438848920813
 30
0.0
 11
123.2444390086561
 21
44.451438848920802
 31
0.0
  0
LINE
  5
59
  8
0
 10
124.6508642644019
 20
54.45143884892083
 30
0.0
 11
124.6508642644019
 21
44.45143884892083
 31
0.0
  0
ARC
  5
5A
  8
0
 10
80.296615575465694
 20
85.285521582733793
 30
0.0
 40
4.0
 50
90.000000000000014
 51
131.40962210926389
  0
ARC
  5
5B
  8
0
 10
80.296615575465694
 20
103.28552158273369
 30
0.0
 40
4.0
 50
228.59037789073611
 51
270.0
  0
ARC
  5
5C
  8
0
 10
69.650864264402003
 20
94.285521582733793
 30
0.0
 40
10.0
 50
143.13010235415601
 51
216.86989764584399
  0
LINE
  5
5D
  8
0
 10
61.650864264402031
 20
100.28552158273379
 30
0.0
 11
77.650864264402003
 21
100.28552158273379
 31
0.0
  0
LINE
  5
5E
  8
0
 10
61.650864264402031
 20
88.285521582733793
 30
0.0
 11
77.650864264402003
 21
88.285521582733793
 31
0.0
  0
LINE
  5
5F
  8
2
 10
64.650864264402003
 20
100.28552158273379
 30
0.0
 11
64.650864264402003
 21
88.285521582733793
 31
0.0
  0
LINE
  5
60
  8
2
 10
74.650864264402003
 20
100.28552158273379
 30
0.0
 11
74.650864264402003
 21
88.285521582733793
 31
0.0
  0
LINE
  5
61
  8
1
 10
69.650864264402003
 20
105.28552158273379
 30
0.0
 11
69.650864264402003
 21
83.285521582733864
 31
0.0
  0
LINE
  5
62
  8
1
 10
55.650864264402003
 20
94.285521582733779
 30
0.0
 11
174.650864264402
 21
94.285521582733764
 31
0.0
  0
LINE
  5
63
  8
0
 10
169.650864264402
 20
97.785521582733764
 30
0.0
 11
169.650864264402
 21
90.785521582733779
 31
0.0
  0
LINE
  5
64
  8
0
 10
168.150864264402
 20
89.285521582733779
 30
0.0
 11
80.296615575465694
 21
89.285521582733779
 31
0.0
  0
LINE
  5
65
  8
0
 10
80.296615575465694
 20
99.285521582733764
 30
0.0
 11
168.150864264402
 21
99.285521582733764
 31
0.0
  0
LINE
  5
66
  8
0
 10
168.150864264402
 20
99.285521582733764
 30
0.0
 11
169.650864264402
 21
97.785521582733764
 31
0.0
  0
LINE
  5
67
  8
0
 10
169.650864264402
 20
90.785521582733779
 30
0.0
 11
168.150864264402
 21
89.285521582733779
 31
0.0
  0
LINE
  5
68
  8
0
 10
168.150864264402
 20
99.285521582733764
 30
0.0
 11
168.150864264402
 21
89.285521582733764
 31
0.0
  0
LINE
  5
69
  8
3
 10
168.96286426440199
 20
98.473521582733795
 30
0.0
 11
124.650864264402
 21
98.473521582733795
 31
0.0
  0
LINE
  5
6A
  8
3
 10
124.650864264402
 20
98.473521582733795
 30
0.0
 11
123.2444390086561
 21
99.285521582733779
 31
0.0
  0
LINE
  5
6B
  8
3
 10
168.96286426440199
 20
90.097521582733748
 30
0.0
 11
124.650864264402
 21
90.097521582733748
 31
0.0
  0
LINE
  5
6C
  8
3
 10
124.650864264402
 20
90.097521582733748
 30
0.0
 11
123.2444390086561
 21
89.285521582733736
 31
0.0
  0
LINE
  5
6D
  8
0
 10
124.650864264402
 20
99.285521582733779
 30
0.0
 11
124.6508642644019
 21
89.285521582733764
 31
0.0
  0
TEXT
  5
1C2
  8
0
 62
     3
 10
0.0
 20
0.0
 30
0.0
 40
10.0
  1
BJ761-10002N
  7
STANDARD1
  0
ENDSEC
  0
EOF
