  0
SECTION
  2
HEADER
  9
$ACADVER
  1
AC1009
  9
$INSBASE
 10
0.0
 20
0.0
 30
0.0
  9
$EXTMIN
 10
0.0
 20
-1.4802182810368341
 30
0.0
  9
$EXTMAX
 10
127.11146947512709
 20
125.93475613279411
 30
0.0
  9
$LIMMIN
 10
0.0
 20
0.0
  9
$LIMMAX
 10
187.5
 20
135.0
  9
$ORTHOMODE
 70
     1
  9
$REGENMODE
 70
     1
  9
$FILLMODE
 70
     1
  9
$QTEXTMODE
 70
     0
  9
$MIRRTEXT
 70
     0
  9
$DRAGMODE
 70
     2
  9
$LTSCALE
 40
5.0
  9
$OSMODE
 70
  3071
  9
$ATTMODE
 70
     1
  9
$TEXTSIZE
 40
0.2
  9
$TRACEWID
 40
0.05
  9
$TEXTSTYLE
  7
STANDARD
  9
$CLAYER
  8
0
  9
$CELTYPE
  6
BYLAYER
  9
$CECOLOR
 62
   256
  9
$DIMSCALE
 40
0.5
  9
$DIMASZ
 40
3.0
  9
$DIMEXO
 40
2.0
  9
$DIMDLI
 40
0.38
  9
$DIMRND
 40
0.0
  9
$DIMDLE
 40
0.0
  9
$DIMEXE
 40
2.0
  9
$DIMTP
 40
0.0
  9
$DIMTM
 40
0.0
  9
$DIMTXT
 40
3.2000000000000002
  9
$DIMCEN
 40
0.0
  9
$DIMTSZ
 40
0.0
  9
$DIMTOL
 70
     0
  9
$DIMLIM
 70
     0
  9
$DIMTIH
 70
     0
  9
$DIMTOH
 70
     0
  9
$DIMSE1
 70
     0
  9
$DIMSE2
 70
     0
  9
$DIMTAD
 70
     1
  9
$DIMZIN
 70
     0
  9
$DIMBLK
  1

  9
$DIMASO
 70
     0
  9
$DIMSHO
 70
     0
  9
$DIMPOST
  1

  9
$DIMAPOST
  1

  9
$DIMALT
 70
     0
  9
$DIMALTD
 70
     2
  9
$DIMALTF
 40
25.399999999999999
  9
$DIMLFAC
 40
1.0
  9
$DIMTOFL
 70
     1
  9
$DIMTVP
 40
1.6000000000000001
  9
$DIMTIX
 70
     1
  9
$DIMSOXD
 70
     0
  9
$DIMSAH
 70
     0
  9
$DIMBLK1
  1

  9
$DIMBLK2
  1

  9
$DIMSTYLE
  2
STANDARD
  9
$DIMCLRD
 70
     0
  9
$DIMCLRE
 70
     0
  9
$DIMCLRT
 70
     0
  9
$DIMTFAC
 40
1.0
  9
$DIMGAP
 40
0.09
  9
$LUNITS
 70
     2
  9
$LUPREC
 70
     4
  9
$SKETCHINC
 40
0.1
  9
$FILLETRAD
 40
0.0
  9
$AUNITS
 70
     0
  9
$AUPREC
 70
     4
  9
$MENU
  1
E:\r13\win\SUPPORT\ACAD
  9
$ELEVATION
 40
0.0
  9
$PELEVATION
 40
0.0
  9
$THICKNESS
 40
0.0
  9
$LIMCHECK
 70
     0
  9
$BLIPMODE
 70
     0
  9
$CHAMFERA
 40
0.0
  9
$CHAMFERB
 40
0.0
  9
$SKPOLY
 70
     0
  9
$TDCREATE
 40
2449839.773379629
  9
$TDUPDATE
 40
2456598.3685596408
  9
$TDINDWG
 40
0.0001697685
  9
$TDUSRTIMER
 40
0.0001697685
  9
$USRTIMER
 70
     1
  9
$ANGBASE
 50
0.0
  9
$ANGDIR
 70
     0
  9
$PDMODE
 70
     0
  9
$PDSIZE
 40
0.0
  9
$PLINEWID
 40
0.0
  9
$COORDS
 70
     1
  9
$SPLFRAME
 70
     0
  9
$SPLINETYPE
 70
     6
  9
$SPLINESEGS
 70
     8
  9
$ATTDIA
 70
     0
  9
$ATTREQ
 70
     1
  9
$HANDLING
 70
     1
  9
$HANDSEED
  5
2E6
  9
$SURFTAB1
 70
     6
  9
$SURFTAB2
 70
     6
  9
$SURFTYPE
 70
     6
  9
$SURFU
 70
     6
  9
$SURFV
 70
     6
  9
$UCSNAME
  2

  9
$UCSORG
 10
0.0
 20
0.0
 30
0.0
  9
$UCSXDIR
 10
1.0
 20
0.0
 30
0.0
  9
$UCSYDIR
 10
0.0
 20
1.0
 30
0.0
  9
$PUCSNAME
  2

  9
$PUCSORG
 10
0.0
 20
0.0
 30
0.0
  9
$PUCSXDIR
 10
1.0
 20
0.0
 30
0.0
  9
$PUCSYDIR
 10
0.0
 20
1.0
 30
0.0
  9
$USERI1
 70
     0
  9
$USERI2
 70
     1
  9
$USERI3
 70
     0
  9
$USERI4
 70
     0
  9
$USERI5
 70
     0
  9
$USERR1
 40
0.0
  9
$USERR2
 40
0.0
  9
$USERR3
 40
0.0
  9
$USERR4
 40
0.0
  9
$USERR5
 40
0.0
  9
$WORLDVIEW
 70
     1
  9
$SHADEDGE
 70
     3
  9
$SHADEDIF
 70
    70
  9
$TILEMODE
 70
     1
  9
$MAXACTVP
 70
    16
  9
$PLIMCHECK
 70
     0
  9
$PEXTMIN
 10
1.0000000000000000E+020
 20
1.0000000000000000E+020
 30
1.0000000000000000E+020
  9
$PEXTMAX
 10
-1.0000000000000000E+020
 20
-1.0000000000000000E+020
 30
-1.0000000000000000E+020
  9
$PLIMMIN
 10
0.0
 20
0.0
  9
$PLIMMAX
 10
12.0
 20
9.0
  9
$UNITMODE
 70
     0
  9
$VISRETAIN
 70
     0
  9
$PLINEGEN
 70
     0
  9
$PSLTSCALE
 70
     0
  0
ENDSEC
  0
SECTION
  2
TABLES
  0
TABLE
  2
VPORT
 70
     1
  0
VPORT
  2
*ACTIVE
 70
     0
 10
0.0
 20
0.0
 11
1.0
 21
1.0
 12
97.52905416604365
 22
66.75636307133405
 13
0.0
 23
0.0
 14
5.0
 24
5.0
 15
5.0
 25
5.0
 16
0.0
 26
0.0
 36
1.0
 17
0.0
 27
0.0
 37
0.0
 40
137.71137496815999
 41
1.831871345029239
 42
50.0
 43
0.0
 44
0.0
 50
0.0
 51
0.0
 71
     0
 72
   500
 73
     1
 74
     0
 75
     0
 76
     0
 77
     0
 78
     2
  0
ENDTAB
  0
TABLE
  2
LTYPE
 70
     3
  0
LTYPE
  2
CONTINUOUS
 70
     0
  3
Solid Line
 72
    65
 73
     0
 40
0.0
  0
LTYPE
  2
CENTER
 70
     0
  3
____ _ ____ _ ____ _ ____ _ ____ _ ____ _ ____
 72
    65
 73
     4
 40
2.0
 49
1.25
 49
-0.25
 49
0.25
 49
-0.25
  0
LTYPE
  2
PHANTOM2
 70
     0
  3
___ _ _ ___ _ _ ___ _ _ ___ _ _
 72
    65
 73
     6
 40
1.25
 49
0.625
 49
-0.125
 49
0.125
 49
-0.125
 49
0.125
 49
-0.125
  0
ENDTAB
  0
TABLE
  2
LAYER
 70
     3
  0
LAYER
  2
0
 70
     0
 62
     7
  6
CONTINUOUS
  0
LAYER
  2
1
 70
     0
 62
     1
  6
CENTER
  0
LAYER
  2
3
 70
     0
 62
     3
  6
CONTINUOUS
  0
ENDTAB
  0
TABLE
  2
STYLE
 70
     2
  0
STYLE
  2
STANDARD
 70
     0
 40
0.0
 41
1.0
 50
0.0
 71
     0
 42
0.2
  3
TXT
  4
BIGFONT
  0
STYLE
  2
STANDARD1
 70
     0
 40
0.0
 41
1.0
 50
0.0
 71
     0
 42
3.0
  3
txt
  4

  0
ENDTAB
  0
TABLE
  2
VIEW
 70
     1
  0
VIEW
  2
ALL
 70
     0
 40
270.0
 10
220.99159663865549
 20
135.0
 41
0.0
 11
0.0
 21
0.0
 31
1.0
 12
0.0
 22
0.0
 32
0.0
 42
0.0
 43
0.0
 44
0.0
 50
0.0
 71
     0
  0
ENDTAB
  0
TABLE
  2
UCS
 70
     0
  0
ENDTAB
  0
TABLE
  2
APPID
 70
     3
  0
APPID
  2
ACAD
 70
     0
  0
APPID
  2
ACAD_MLEADERVER
 70
     0
  0
APPID
  2
ACAD_NAV_VCDISPLAY
 70
     0
  0
ENDTAB
  0
TABLE
  2
DIMSTYLE
 70
     1
  0
DIMSTYLE
  2
STANDARD
 70
     0
  3

  4

  5

  6

  7

 40
1.0
 41
0.18
 42
0.0625
 43
0.38
 44
0.18
 45
0.0
 46
0.0
 47
0.0
 48
0.0
140
0.18
141
0.09
142
0.0
143
25.399999999999999
144
1.0
145
0.0
146
1.0
147
0.09
 71
     0
 72
     0
 73
     1
 74
     1
 75
     0
 76
     0
 77
     0
 78
     0
170
     0
171
     2
172
     0
173
     0
174
     0
175
     0
176
     0
177
     0
178
     0
  0
ENDTAB
  0
ENDSEC
  0
SECTION
  2
BLOCKS
  0
BLOCK
  8
0
  2
$MODEL_SPACE
 70
     0
 10
0.0
 20
0.0
 30
0.0
  3
$MODEL_SPACE
  1

  0
ENDBLK
  5
19C
  8
0
  0
BLOCK
 67
     1
  8
0
  2
$PAPER_SPACE
 70
     0
 10
0.0
 20
0.0
 30
0.0
  3
$PAPER_SPACE
  1

  0
ENDBLK
  5
19A
 67
     1
  8
0
  0
ENDSEC
  0
SECTION
  2
ENTITIES
  0
LINE
  5
3E
  8
0
 10
55.581580730085577
 20
121.8847561327935
 30
0.0
 11
65.081580730085577
 21
116.3999285754921
 31
0.0
  0
LINE
  5
3F
  8
0
 10
55.581580730085577
 20
121.8847561327935
 30
0.0
 11
46.081580730085562
 21
116.3999285754921
 31
0.0
  0
LINE
  5
40
  8
0
 10
55.581580730085562
 20
99.984756132794672
 30
0.0
 11
65.081580730085562
 21
105.4695836900961
 31
0.0
  0
LINE
  5
41
  8
0
 10
55.581580730085562
 20
99.984756132794672
 30
0.0
 11
46.081580730085562
 21
105.4695836900961
 31
0.0
  0
LINE
  5
42
  8
0
 10
65.081580730085577
 20
116.3999285754921
 30
0.0
 11
65.081580730085562
 21
105.4695836900961
 31
0.0
  0
LINE
  5
43
  8
0
 10
46.081580730085562
 20
116.3999285754921
 30
0.0
 11
46.081580730085562
 21
105.4695836900961
 31
0.0
  0
LINE
  5
44
  8
1
 10
55.581580730085577
 20
125.93475613279411
 30
0.0
 11
55.581580730085562
 21
95.934756132794121
 31
0.0
  0
LINE
  5
45
  8
1
 10
40.581580730085562
 20
110.93475613279411
 30
0.0
 11
70.581580730085577
 21
110.93475613279411
 31
0.0
  0
CIRCLE
  5
46
  8
0
 10
55.581580730085562
 20
110.93475613279411
 30
0.0
 40
7.5
  0
POLYLINE
  5
47
  8
0
 66
     1
 10
0.0
 20
0.0
 30
0.0
 70
     2
  0
VERTEX
  5
48
  8
0
 10
124.3690550439851
 20
72.475612628325905
 30
0.0
 42
0.0282042197016302
 50
360.0
  0
VERTEX
  5
49
  8
0
 10
124.18104814262119
 20
72.455848213177077
 30
0.0
 42
0.0475863049412021
 70
     1
 50
360.0
  0
VERTEX
  5
4A
  8
0
 10
124.0725022103728
 20
72.427409742206123
 30
0.0
 42
0.0075382824628236
 50
360.0
  0
VERTEX
  5
4B
  8
0
 10
123.8628349574187
 20
72.346951606032576
 30
0.0
 70
     1
 50
360.0
  0
VERTEX
  5
4C
  8
0
 10
123.8065096451412
 20
72.320709383336194
 30
0.0
 42
0.0147348975272234
 50
360.0
  0
VERTEX
  5
4D
  8
0
 10
123.7048602676096
 20
72.262511395763966
 30
0.0
 70
     1
 50
360.0
  0
VERTEX
  5
4E
  8
0
 10
123.6177407278801
 20
72.205117327893774
 30
0.0
 42
0.021911784341064
 50
360.0
  0
VERTEX
  5
4F
  8
0
 10
123.5037872256098
 20
72.116780271039943
 30
0.0
 70
     1
 50
360.0
  0
VERTEX
  5
50
  8
0
 10
123.428971810619
 20
72.045066789588887
 30
0.0
 50
360.0
  0
VERTEX
  5
51
  8
0
 10
123.3652425817766
 20
71.970464410640943
 30
0.0
 42
0.0125286967256197
 70
     1
 50
360.0
  0
VERTEX
  5
52
  8
0
 10
123.27452451467801
 20
71.849449464994009
 30
0.0
 42
0.011637229381424
 50
360.0
  0
VERTEX
  5
53
  8
0
 10
123.16919161990209
 20
71.693801739447181
 30
0.0
 70
     1
 50
360.0
  0
VERTEX
  5
54
  8
0
 10
123.12007721873709
 20
71.609373657536665
 30
0.0
 50
360.0
  0
VERTEX
  5
55
  8
0
 10
123.04184077646219
 20
71.445861062163218
 30
0.0
 42
0.0103515272952474
 70
     1
 50
360.0
  0
VERTEX
  5
56
  8
0
 10
122.9227278961459
 20
71.155897132339462
 30
0.0
 50
360.0
  0
VERTEX
  5
57
  8
0
 10
122.6910569522345
 20
70.551261765409834
 30
0.0
 50
360.0
  0
VERTEX
  5
58
  8
0
 10
122.5022880349733
 20
70.044435060777673
 30
0.0
 42
0.0176644759634939
 50
360.0
  0
VERTEX
  5
59
  8
0
 10
122.0506927723183
 20
68.686683135155377
 30
0.0
 42
0.015070372731458
 70
     1
 50
360.0
  0
VERTEX
  5
5A
  8
0
 10
121.6266419178253
 20
67.064137268049592
 30
0.0
 50
360.0
  0
SEQEND
  5
5B
  8
0
  0
POLYLINE
  5
5C
  8
0
 66
     1
 10
0.0
 20
0.0
 30
0.0
 70
     2
  0
VERTEX
  5
5D
  8
0
 10
124.3690550439851
 20
72.475612628325905
 30
0.0
 42
-0.0282042197016302
 50
360.0
  0
VERTEX
  5
5E
  8
0
 10
124.55706194534901
 20
72.455848213177077
 30
0.0
 42
-0.0475863049412021
 70
     1
 50
360.0
  0
VERTEX
  5
5F
  8
0
 10
124.6656078775973
 20
72.427409742206123
 30
0.0
 42
-0.0075382824628236
 50
360.0
  0
VERTEX
  5
60
  8
0
 10
124.8752751305515
 20
72.346951606032576
 30
0.0
 70
     1
 50
360.0
  0
VERTEX
  5
61
  8
0
 10
124.93160044282899
 20
72.320709383336194
 30
0.0
 42
-0.0147348975272234
 50
360.0
  0
VERTEX
  5
62
  8
0
 10
125.0332498203606
 20
72.262511395763966
 30
0.0
 70
     1
 50
360.0
  0
VERTEX
  5
63
  8
0
 10
125.12036936009009
 20
72.205117327893774
 30
0.0
 42
-0.021911784341064
 50
360.0
  0
VERTEX
  5
64
  8
0
 10
125.2343228623604
 20
72.116780271039943
 30
0.0
 70
     1
 50
360.0
  0
VERTEX
  5
65
  8
0
 10
125.30913827735129
 20
72.045066789588887
 30
0.0
 50
360.0
  0
VERTEX
  5
66
  8
0
 10
125.3728675061936
 20
71.970464410640943
 30
0.0
 42
-0.0125286967256197
 70
     1
 50
360.0
  0
VERTEX
  5
67
  8
0
 10
125.46358557329221
 20
71.849449464994009
 30
0.0
 42
-0.011637229381424
 50
360.0
  0
VERTEX
  5
68
  8
0
 10
125.56891846806811
 20
71.693801739447181
 30
0.0
 70
     1
 50
360.0
  0
VERTEX
  5
69
  8
0
 10
125.6180328692331
 20
71.609373657536665
 30
0.0
 50
360.0
  0
VERTEX
  5
6A
  8
0
 10
125.6962693115081
 20
71.445861062163218
 30
0.0
 42
-0.0103515272952474
 70
     1
 50
360.0
  0
VERTEX
  5
6B
  8
0
 10
125.8153821918243
 20
71.155897132339462
 30
0.0
 50
360.0
  0
VERTEX
  5
6C
  8
0
 10
126.04705313573569
 20
70.551261765409834
 30
0.0
 50
360.0
  0
VERTEX
  5
6D
  8
0
 10
126.23582205299689
 20
70.044435060777673
 30
0.0
 42
-0.0176644759634939
 50
360.0
  0
VERTEX
  5
6E
  8
0
 10
126.6874173156519
 20
68.686683135155377
 30
0.0
 42
-0.015070372731458
 70
     1
 50
360.0
  0
VERTEX
  5
6F
  8
0
 10
127.111468170145
 20
67.064137268049592
 30
0.0
 50
360.0
  0
SEQEND
  5
70
  8
0
  0
POLYLINE
  5
71
  8
0
 66
     1
 10
0.0
 20
0.0
 30
0.0
 70
     2
  0
VERTEX
  5
72
  8
0
 10
107.9538839062692
 20
72.475612628325919
 30
0.0
 42
-0.0282042197016302
 50
360.0
  0
VERTEX
  5
73
  8
0
 10
108.1418908076331
 20
72.455848213177092
 30
0.0
 42
-0.0475863049412021
 70
     1
 50
360.0
  0
VERTEX
  5
74
  8
0
 10
108.25043673988149
 20
72.427409742206152
 30
0.0
 42
-0.0075382824628236
 50
360.0
  0
VERTEX
  5
75
  8
0
 10
108.4601039928356
 20
72.34695160603259
 30
0.0
 70
     1
 50
360.0
  0
VERTEX
  5
76
  8
0
 10
108.51642930511311
 20
72.320709383336222
 30
0.0
 42
-0.0147348975272234
 50
360.0
  0
VERTEX
  5
77
  8
0
 10
108.61807868264481
 20
72.262511395763994
 30
0.0
 70
     1
 50
360.0
  0
VERTEX
  5
78
  8
0
 10
108.70519822237419
 20
72.205117327893788
 30
0.0
 42
-0.021911784341064
 50
360.0
  0
VERTEX
  5
79
  8
0
 10
108.8191517246446
 20
72.116780271039957
 30
0.0
 70
     1
 50
360.0
  0
VERTEX
  5
7A
  8
0
 10
108.89396713963539
 20
72.045066789588901
 30
0.0
 50
360.0
  0
VERTEX
  5
7B
  8
0
 10
108.9576963684778
 20
71.970464410640972
 30
0.0
 42
-0.0125286967256197
 70
     1
 50
360.0
  0
VERTEX
  5
7C
  8
0
 10
109.0484144355763
 20
71.849449464994024
 30
0.0
 42
-0.011637229381424
 50
360.0
  0
VERTEX
  5
7D
  8
0
 10
109.1537473303522
 20
71.693801739447196
 30
0.0
 70
     1
 50
360.0
  0
VERTEX
  5
7E
  8
0
 10
109.2028617315173
 20
71.609373657536665
 30
0.0
 50
360.0
  0
VERTEX
  5
7F
  8
0
 10
109.2810981737922
 20
71.445861062163232
 30
0.0
 42
-0.0103515272952474
 70
     1
 50
360.0
  0
VERTEX
  5
80
  8
0
 10
109.4002110541085
 20
71.155897132339476
 30
0.0
 50
360.0
  0
VERTEX
  5
81
  8
0
 10
109.63188199801979
 20
70.551261765409862
 30
0.0
 50
360.0
  0
VERTEX
  5
82
  8
0
 10
109.82065091528101
 20
70.044435060777687
 30
0.0
 42
-0.0176644759634939
 50
360.0
  0
VERTEX
  5
83
  8
0
 10
110.2722461779361
 20
68.686683135155391
 30
0.0
 42
-0.015070372731458
 70
     1
 50
360.0
  0
VERTEX
  5
84
  8
0
 10
110.6962970324291
 20
67.064137268049606
 30
0.0
 50
360.0
  0
SEQEND
  5
85
  8
0
  0
POLYLINE
  5
86
  8
0
 66
     1
 10
0.0
 20
0.0
 30
0.0
 70
     2
  0
VERTEX
  5
87
  8
0
 10
107.9538839062692
 20
72.475612628325919
 30
0.0
 42
0.0282042197016302
 50
360.0
  0
VERTEX
  5
88
  8
0
 10
107.76587700490541
 20
72.455848213177092
 30
0.0
 42
0.0475863049412021
 70
     1
 50
360.0
  0
VERTEX
  5
89
  8
0
 10
107.657331072657
 20
72.427409742206152
 30
0.0
 42
0.0075382824628236
 50
360.0
  0
VERTEX
  5
8A
  8
0
 10
107.4476638197028
 20
72.34695160603259
 30
0.0
 70
     1
 50
360.0
  0
VERTEX
  5
8B
  8
0
 10
107.3913385074254
 20
72.320709383336222
 30
0.0
 42
0.0147348975272234
 50
360.0
  0
VERTEX
  5
8C
  8
0
 10
107.2896891298937
 20
72.262511395763994
 30
0.0
 70
     1
 50
360.0
  0
VERTEX
  5
8D
  8
0
 10
107.2025695901642
 20
72.205117327893788
 30
0.0
 42
0.021911784341064
 50
360.0
  0
VERTEX
  5
8E
  8
0
 10
107.0886160878939
 20
72.116780271039957
 30
0.0
 70
     1
 50
360.0
  0
VERTEX
  5
8F
  8
0
 10
107.0138006729031
 20
72.045066789588901
 30
0.0
 50
360.0
  0
VERTEX
  5
90
  8
0
 10
106.9500714440607
 20
71.970464410640972
 30
0.0
 42
0.0125286967256197
 70
     1
 50
360.0
  0
VERTEX
  5
91
  8
0
 10
106.8593533769621
 20
71.849449464994024
 30
0.0
 42
0.011637229381424
 50
360.0
  0
VERTEX
  5
92
  8
0
 10
106.75402048218621
 20
71.693801739447196
 30
0.0
 70
     1
 50
360.0
  0
VERTEX
  5
93
  8
0
 10
106.70490608102121
 20
71.609373657536665
 30
0.0
 50
360.0
  0
VERTEX
  5
94
  8
0
 10
106.62666963874631
 20
71.445861062163232
 30
0.0
 42
0.0103515272952474
 70
     1
 50
360.0
  0
VERTEX
  5
95
  8
0
 10
106.50755675843
 20
71.155897132339476
 30
0.0
 50
360.0
  0
VERTEX
  5
96
  8
0
 10
106.2758858145186
 20
70.551261765409862
 30
0.0
 50
360.0
  0
VERTEX
  5
97
  8
0
 10
106.0871168972575
 20
70.044435060777687
 30
0.0
 42
0.0176644759634939
 50
360.0
  0
VERTEX
  5
98
  8
0
 10
105.6355216346024
 20
68.686683135155391
 30
0.0
 42
0.015070372731458
 70
     1
 50
360.0
  0
VERTEX
  5
99
  8
0
 10
105.21147078010939
 20
67.064137268049606
 30
0.0
 50
360.0
  0
SEQEND
  5
9A
  8
0
  0
POLYLINE
  5
9B
  8
0
 66
     1
 10
0.0
 20
0.0
 30
0.0
 70
     2
  0
VERTEX
  5
9C
  8
0
 10
116.16146947512721
 20
72.475612628325905
 30
0.0
 42
-0.0094783019413115
 50
360.0
  0
VERTEX
  5
9D
  8
0
 10
116.52941078684471
 20
72.4197589316923
 30
0.0
 42
-0.0153617774073396
 70
     1
 50
360.0
  0
VERTEX
  5
9E
  8
0
 10
116.7544741632894
 20
72.374059562771166
 30
0.0
 42
-0.0038747796337175
 50
360.0
  0
VERTEX
  5
9F
  8
0
 10
117.259923053687
 20
72.251011386523132
 30
0.0
 42
-0.0203186850867438
 70
     1
 50
360.0
  0
VERTEX
  5
A0
  8
0
 10
117.35510253639301
 20
72.222900721038769
 30
0.0
 42
-0.0416347699472432
 50
360.0
  0
VERTEX
  5
A1
  8
0
 10
117.5333731080583
 20
72.145199769608638
 30
0.0
 42
-0.0150418315070572
 70
     1
 50
360.0
  0
VERTEX
  5
A2
  8
0
 10
117.998632936147
 20
71.876124554711495
 30
0.0
 42
-0.0182896203961092
 50
360.0
  0
VERTEX
  5
A3
  8
0
 10
118.5002110206493
 20
71.53956884146308
 30
0.0
 42
-0.0314870423098067
 70
     1
 50
360.0
  0
VERTEX
  5
A4
  8
0
 10
118.77086941585171
 20
71.315947670644334
 30
0.0
 42
-0.0261276784092509
 50
360.0
  0
VERTEX
  5
A5
  8
0
 10
119.0828078748897
 20
70.991067743107877
 30
0.0
 42
-0.0173249810826215
 70
     1
 50
360.0
  0
VERTEX
  5
A6
  8
0
 10
119.50878427423611
 20
70.462344799684885
 30
0.0
 42
-0.0060460618474615
 50
360.0
  0
VERTEX
  5
A7
  8
0
 10
120.03727131964141
 20
69.739715032012796
 30
0.0
 42
-0.0095267473456615
 70
     1
 50
360.0
  0
VERTEX
  5
A8
  8
0
 10
120.35824440191131
 20
69.270857458970653
 30
0.0
 50
360.0
  0
VERTEX
  5
A9
  8
0
 10
121.00177480166521
 20
68.239420656561336
 30
0.0
 42
-0.0163709334382431
 50
360.0
  0
VERTEX
  5
AA
  8
0
 10
121.2376708603945
 20
67.828759251685611
 30
0.0
 42
-0.0090360251208713
 70
     1
 50
360.0
  0
VERTEX
  5
AB
  8
0
 10
121.6266419178253
 20
67.064143827610948
 30
0.0
 50
360.0
  0
SEQEND
  5
AC
  8
0
  0
POLYLINE
  5
AD
  8
0
 66
     1
 10
0.0
 20
0.0
 30
0.0
 70
     2
  0
VERTEX
  5
AE
  8
0
 10
116.16146947512721
 20
72.475612628325905
 30
0.0
 42
0.0094783019413115
 50
360.0
  0
VERTEX
  5
AF
  8
0
 10
115.7935281634097
 20
72.4197589316923
 30
0.0
 42
0.0153617774073396
 70
     1
 50
360.0
  0
VERTEX
  5
B0
  8
0
 10
115.568464786965
 20
72.374059562771166
 30
0.0
 42
0.0038747796337175
 50
360.0
  0
VERTEX
  5
B1
  8
0
 10
115.06301589656741
 20
72.251011386523132
 30
0.0
 42
0.0203186850867438
 70
     1
 50
360.0
  0
VERTEX
  5
B2
  8
0
 10
114.96783641386131
 20
72.222900721038769
 30
0.0
 42
0.0416347699472432
 50
360.0
  0
VERTEX
  5
B3
  8
0
 10
114.7895658421961
 20
72.145199769608638
 30
0.0
 42
0.0150418315070572
 70
     1
 50
360.0
  0
VERTEX
  5
B4
  8
0
 10
114.32430601410741
 20
71.876124554711495
 30
0.0
 42
0.0182896203961092
 50
360.0
  0
VERTEX
  5
B5
  8
0
 10
113.82272792960509
 20
71.53956884146308
 30
0.0
 42
0.0314870423098067
 70
     1
 50
360.0
  0
VERTEX
  5
B6
  8
0
 10
113.5520695344027
 20
71.315947670644334
 30
0.0
 42
0.0261276784092509
 50
360.0
  0
VERTEX
  5
B7
  8
0
 10
113.2401310753647
 20
70.991067743107877
 30
0.0
 42
0.0173249810826215
 70
     1
 50
360.0
  0
VERTEX
  5
B8
  8
0
 10
112.8141546760183
 20
70.462344799684885
 30
0.0
 42
0.0060460618474615
 50
360.0
  0
VERTEX
  5
B9
  8
0
 10
112.28566763061301
 20
69.739715032012796
 30
0.0
 42
0.0095267473456615
 70
     1
 50
360.0
  0
VERTEX
  5
BA
  8
0
 10
111.9646945483431
 20
69.270857458970653
 30
0.0
 50
360.0
  0
VERTEX
  5
BB
  8
0
 10
111.3211641485892
 20
68.23942065656135
 30
0.0
 42
0.0163709334382431
 50
360.0
  0
VERTEX
  5
BC
  8
0
 10
111.08526808985989
 20
67.828759251685625
 30
0.0
 42
0.0090360251208713
 70
     1
 50
360.0
  0
VERTEX
  5
BD
  8
0
 10
110.6962970324291
 20
67.064143827610962
 30
0.0
 50
360.0
  0
SEQEND
  5
BE
  8
0
  0
LINE
  5
BF
  8
0
 10
127.1114681701449
 20
30.43971424346379
 30
0.0
 11
126.6114681701449
 21
29.93971424346379
 31
0.0
  0
LINE
  5
C0
  8
0
 10
105.21147078010939
 20
30.43971424346374
 30
0.0
 11
105.71147078010939
 21
29.93971424346374
 31
0.0
  0
ARC
  5
C1
  8
0
 10
122.8941424871482
 20
78.939714243463769
 30
0.0
 40
1.0
 50
15.000000000000069
 51
89.999999999999687
  0
ARC
  5
C2
  8
0
 10
109.4287964631061
 20
78.939714243463825
 30
0.0
 40
1.0
 50
89.999999999999886
 51
165.0000000000002
  0
LINE
  5
C3
  8
0
 10
120.16146947512711
 20
9.9397142434637331
 30
0.0
 11
122.16146947512711
 21
11.93971424346373
 31
0.0
  0
LINE
  5
C4
  8
0
 10
110.16146947512711
 20
11.93971424346373
 30
0.0
 11
112.16146947512711
 21
9.9397142434637367
 31
0.0
  0
LINE
  5
C5
  8
0
 10
126.6114681701449
 20
29.93971424346379
 30
0.0
 11
105.71147078010939
 21
29.93971424346374
 31
0.0
  0
LINE
  5
C6
  8
0
 10
105.21147078010939
 20
30.43971424346374
 30
0.0
 11
105.21147078010939
 21
67.064137268049606
 31
0.0
  0
LINE
  5
C7
  8
0
 10
108.462870636817
 20
79.198533288566338
 30
0.0
 11
105.2114694751272
 21
67.064138957351133
 31
0.0
  0
LINE
  5
C8
  8
0
 10
109.4287964631061
 20
79.939714243463825
 30
0.0
 11
122.8941424871482
 21
79.939714243463754
 31
0.0
  0
LINE
  5
C9
  8
0
 10
123.8600683134372
 20
79.198533288566281
 30
0.0
 11
127.11146947512709
 21
67.064138957351119
 31
0.0
  0
LINE
  5
CA
  8
0
 10
127.1114681701449
 20
67.064137268049564
 30
0.0
 11
127.1114681701449
 21
30.43971424346379
 31
0.0
  0
LINE
  5
CB
  8
1
 10
116.16146947512721
 20
84.939714243463669
 30
0.0
 11
116.16146947512711
 21
4.9397142434637349
 31
0.0
  0
LINE
  5
CC
  8
0
 10
110.6962970324292
 20
67.064138957351062
 30
0.0
 11
110.6962970324291
 21
29.93971424346374
 31
0.0
  0
LINE
  5
CD
  8
0
 10
121.6266419178254
 20
67.064140306050362
 30
0.0
 11
121.6266419178253
 21
29.93971424346374
 31
0.0
  0
LINE
  5
CE
  8
0
 10
122.16146947512711
 20
11.93971424346373
 30
0.0
 11
122.16146947512711
 21
26.43971424346374
 31
0.0
  0
LINE
  5
CF
  8
0
 10
122.16146947512711
 20
26.43971424346374
 30
0.0
 11
110.16146947512711
 21
26.43971424346374
 31
0.0
  0
LINE
  5
D0
  8
0
 10
110.16146947512711
 20
26.43971424346374
 30
0.0
 11
110.16146947512711
 21
11.93971424346373
 31
0.0
  0
LINE
  5
D1
  8
0
 10
112.16146947512711
 20
9.9397142434637367
 30
0.0
 11
120.16146947512711
 21
9.9397142434637331
 31
0.0
  0
LINE
  5
D2
  8
0
 10
111.4614694751273
 20
28.939713634320231
 30
0.0
 11
111.4614694751273
 21
27.43971424346374
 31
0.0
  0
ARC
  5
D3
  8
0
 10
110.4614694751273
 20
27.43971424346374
 30
0.0
 40
1.0
 50
270.0
 51
360.0
  0
ARC
  5
D4
  8
0
 10
110.4614694751273
 20
28.939713634320231
 30
0.0
 40
1.0
 50
360.0
 51
89.99995762656647
  0
ARC
  5
D5
  8
0
 10
121.8614694751269
 20
27.43971424346374
 30
0.0
 40
1.0
 50
180.0
 51
270.0
  0
LINE
  5
D6
  8
0
 10
120.8614694751269
 20
28.939713634320231
 30
0.0
 11
120.8614694751269
 21
27.43971424346374
 31
0.0
  0
ARC
  5
D7
  8
0
 10
121.8614694751269
 20
28.939713634320231
 30
0.0
 40
1.0
 50
90.000042373433558
 51
180.0
  0
LINE
  5
D8
  8
3
 10
121.2144694751271
 20
26.43971424346374
 30
0.0
 11
121.2144694751271
 21
10.99271424346373
 31
0.0
  0
LINE
  5
D9
  8
3
 10
111.10846947512709
 20
26.43971424346374
 30
0.0
 11
111.10846947512709
 21
11.009034337379131
 31
0.0
  0
LINE
  5
DA
  8
0
 10
122.16146947512711
 20
11.93971424346373
 30
0.0
 11
110.16146947512711
 21
11.93971424346379
 31
0.0
  0
ARC
  5
DB
  8
0
 10
62.314253742106501
 20
78.939714243463854
 30
0.0
 40
1.0
 50
15.000000000000069
 51
89.999999999999687
  0
ARC
  5
DC
  8
0
 10
48.848907718064439
 20
78.939714243463897
 30
0.0
 40
1.0
 50
89.999999999999886
 51
165.0000000000002
  0
LINE
  5
DD
  8
0
 10
59.581580730085491
 20
9.9397142434638006
 30
0.0
 11
61.581580730085491
 21
11.939714243463801
 31
0.0
  0
LINE
  5
DE
  8
0
 10
49.581580730085491
 20
11.939714243463859
 30
0.0
 11
51.581580730085491
 21
9.9397142434638592
 31
0.0
  0
LINE
  5
DF
  8
0
 10
64.581580730085491
 20
29.939714243463861
 30
0.0
 11
46.581580730085491
 21
29.939714243463861
 31
0.0
  0
LINE
  5
E0
  8
0
 10
47.882981891775373
 20
79.198533288566409
 30
0.0
 11
46.081580730085498
 21
72.475612628326132
 31
0.0
  0
LINE
  5
E1
  8
0
 10
48.848907718064439
 20
79.939714243463897
 30
0.0
 11
62.314253742106501
 21
79.939714243463868
 31
0.0
  0
LINE
  5
E2
  8
0
 10
63.28017956839556
 20
79.198533288566381
 30
0.0
 11
65.081580730085534
 21
72.47561262832599
 31
0.0
  0
LINE
  5
E3
  8
1
 10
55.581580730085548
 20
84.939714243463754
 30
0.0
 11
55.581580730085498
 21
4.9397142434638583
 31
0.0
  0
LINE
  5
E4
  8
0
 10
55.581580730085527
 20
67.064138957351133
 30
0.0
 11
55.58158073008552
 21
29.939714243463861
 31
0.0
  0
LINE
  5
E5
  8
0
 10
61.581580730085491
 20
11.939714243463801
 30
0.0
 11
61.581580730085491
 21
26.439714243463801
 31
0.0
  0
LINE
  5
E6
  8
0
 10
61.581580730085491
 20
26.439714243463801
 30
0.0
 11
49.581580730085513
 21
26.439714243463861
 31
0.0
  0
LINE
  5
E7
  8
0
 10
49.581580730085513
 20
26.439714243463861
 30
0.0
 11
49.581580730085491
 21
11.939714243463859
 31
0.0
  0
LINE
  5
E8
  8
0
 10
51.581580730085491
 20
9.9397142434638592
 30
0.0
 11
59.581580730085491
 21
9.9397142434638006
 31
0.0
  0
LINE
  5
E9
  8
0
 10
50.88158073008568
 20
28.939713634320348
 30
0.0
 11
50.88158073008568
 21
27.439714243463801
 31
0.0
  0
ARC
  5
EA
  8
0
 10
49.881580730085687
 20
27.439714243463801
 30
0.0
 40
1.0
 50
270.0
 51
360.0
  0
ARC
  5
EB
  8
0
 10
49.881580730085687
 20
28.939713634320348
 30
0.0
 40
1.0
 50
360.0
 51
89.99995762656647
  0
ARC
  5
EC
  8
0
 10
61.281580730085288
 20
27.439714243463801
 30
0.0
 40
1.0
 50
180.0
 51
270.0
  0
LINE
  5
ED
  8
0
 10
60.281580730085302
 20
28.939713634320348
 30
0.0
 11
60.281580730085302
 21
27.439714243463801
 31
0.0
  0
ARC
  5
EE
  8
0
 10
61.281580730085288
 20
28.939713634320348
 30
0.0
 40
1.0
 50
90.000042373433558
 51
180.0
  0
LINE
  5
EF
  8
3
 10
60.634580730085489
 20
26.439714243463801
 30
0.0
 11
60.634580730085489
 21
10.9927142434638
 31
0.0
  0
LINE
  5
F0
  8
3
 10
50.52858073008548
 20
26.439714243463861
 30
0.0
 11
50.52858073008548
 21
11.009034337379189
 31
0.0
  0
LINE
  5
F1
  8
0
 10
61.58158073008547
 20
11.939714243463801
 30
0.0
 11
49.58158073008547
 21
11.939714243463859
 31
0.0
  0
LINE
  5
F2
  8
0
 10
65.081580730085506
 20
72.475612628326019
 30
0.0
 11
65.081580730085491
 21
30.439714243463861
 31
0.0
  0
LINE
  5
F3
  8
0
 10
46.081580730085498
 20
72.475612628326161
 30
0.0
 11
46.081580730085491
 21
30.439714243463861
 31
0.0
  0
LINE
  5
F4
  8
0
 10
64.581580730085491
 20
29.939714243463861
 30
0.0
 11
65.081580730085491
 21
30.439714243463861
 31
0.0
  0
LINE
  5
F5
  8
0
 10
46.581580730085491
 20
29.939714243463861
 30
0.0
 11
46.081580730085491
 21
30.439714243463861
 31
0.0
  0
POLYLINE
  5
F6
  8
0
 66
     1
 10
0.0
 20
0.0
 30
0.0
 70
     2
  0
VERTEX
  5
F7
  8
0
 10
50.83158073008552
 20
72.475612628326161
 30
0.0
 42
0.018601584125303
 50
360.0
  0
VERTEX
  5
F8
  8
0
 10
50.43885469424184
 20
72.431779750869481
 30
0.0
 42
0.0324133284949146
 70
     1
 50
360.0
  0
VERTEX
  5
F9
  8
0
 10
50.217051176617829
 20
72.383772007963444
 30
0.0
 42
0.0058633523525041
 50
360.0
  0
VERTEX
  5
FA
  8
0
 10
49.756688477558313
 20
72.246551701404087
 30
0.0
 42
0.0159479445323549
 70
     1
 50
360.0
  0
VERTEX
  5
FB
  8
0
 10
49.589757714093921
 20
72.188756635747751
 30
0.0
 42
0.0271798700604388
 50
360.0
  0
VERTEX
  5
FC
  8
0
 10
49.261807554752728
 20
72.042482230463065
 30
0.0
 42
0.0271788886847264
 70
     1
 50
360.0
  0
VERTEX
  5
FD
  8
0
 10
48.951648847043728
 20
71.86148945938578
 30
0.0
 42
0.0328321549163536
 50
360.0
  0
VERTEX
  5
FE
  8
0
 10
48.67578826099983
 20
71.652552614518143
 30
0.0
 42
0.0292776002002819
 70
     1
 50
360.0
  0
VERTEX
  5
FF
  8
0
 10
48.397900135298457
 20
71.381796474855236
 30
0.0
 42
0.0217714379450913
 50
360.0
  0
VERTEX
  5
100
  8
0
 10
48.065433588708132
 20
70.984119126947348
 30
0.0
 42
0.0218964344456655
 70
     1
 50
360.0
  0
VERTEX
  5
101
  8
0
 10
47.770606672774548
 20
70.561386977947848
 30
0.0
 42
0.0095709129364748
 50
360.0
  0
VERTEX
  5
102
  8
0
 10
47.418234065022837
 20
69.981555324587816
 30
0.0
 42
0.011410147643573
 70
     1
 50
360.0
  0
VERTEX
  5
103
  8
0
 10
47.143313210250611
 20
69.483198540755353
 30
0.0
 50
360.0
  0
VERTEX
  5
104
  8
0
 10
46.591727579410609
 20
68.351212759503341
 30
0.0
 42
0.0178242231642754
 50
360.0
  0
VERTEX
  5
105
  8
0
 10
46.392465884063043
 20
67.896500954703583
 30
0.0
 42
0.0099569548454717
 70
     1
 50
360.0
  0
VERTEX
  5
106
  8
0
 10
46.081580730085498
 20
67.064138957351133
 30
0.0
 50
360.0
  0
SEQEND
  5
107
  8
0
  0
POLYLINE
  5
108
  8
0
 66
     1
 10
0.0
 20
0.0
 30
0.0
 70
     2
  0
VERTEX
  5
109
  8
0
 10
50.831580730089073
 20
72.475612628326161
 30
0.0
 42
-0.018601584125303
 50
360.0
  0
VERTEX
  5
10A
  8
0
 10
51.224306765932752
 20
72.431779750869481
 30
0.0
 42
-0.0324133284949146
 70
     1
 50
360.0
  0
VERTEX
  5
10B
  8
0
 10
51.446110283556763
 20
72.383772007963444
 30
0.0
 42
-0.0058633523525041
 50
360.0
  0
VERTEX
  5
10C
  8
0
 10
51.906472982616279
 20
72.246551701404087
 30
0.0
 42
-0.0159479445323549
 70
     1
 50
360.0
  0
VERTEX
  5
10D
  8
0
 10
52.073403746080672
 20
72.188756635747751
 30
0.0
 42
-0.0271798700604388
 50
360.0
  0
VERTEX
  5
10E
  8
0
 10
52.40135390542185
 20
72.042482230463065
 30
0.0
 42
-0.0271788886847264
 70
     1
 50
360.0
  0
VERTEX
  5
10F
  8
0
 10
52.711512613130857
 20
71.86148945938578
 30
0.0
 42
-0.0328321549163536
 50
360.0
  0
VERTEX
  5
110
  8
0
 10
52.987373199174769
 20
71.652552614518143
 30
0.0
 42
-0.0292776002002819
 70
     1
 50
360.0
  0
VERTEX
  5
111
  8
0
 10
53.265261324876143
 20
71.381796474855236
 30
0.0
 42
-0.0217714379450913
 50
360.0
  0
VERTEX
  5
112
  8
0
 10
53.597727871466461
 20
70.984119126947348
 30
0.0
 42
-0.0218964344456655
 70
     1
 50
360.0
  0
VERTEX
  5
113
  8
0
 10
53.892554787400037
 20
70.561386977947848
 30
0.0
 42
-0.0095709129364748
 50
360.0
  0
VERTEX
  5
114
  8
0
 10
54.244927395151748
 20
69.981555324587816
 30
0.0
 42
-0.011410147643573
 70
     1
 50
360.0
  0
VERTEX
  5
115
  8
0
 10
54.519848249923982
 20
69.483198540755353
 30
0.0
 50
360.0
  0
VERTEX
  5
116
  8
0
 10
55.071433880763969
 20
68.351212759503341
 30
0.0
 42
-0.0178242231642754
 50
360.0
  0
VERTEX
  5
117
  8
0
 10
55.270695576111549
 20
67.896500954703583
 30
0.0
 42
-0.0099569548454717
 70
     1
 50
360.0
  0
VERTEX
  5
118
  8
0
 10
55.58158073008908
 20
67.064138957351133
 30
0.0
 50
360.0
  0
SEQEND
  5
119
  8
0
  0
POLYLINE
  5
11A
  8
0
 66
     1
 10
0.0
 20
0.0
 30
0.0
 70
     2
  0
VERTEX
  5
11B
  8
0
 10
60.331580730089101
 20
72.475612628326161
 30
0.0
 42
-0.018601584125303
 50
360.0
  0
VERTEX
  5
11C
  8
0
 10
60.724306765932781
 20
72.431779750869481
 30
0.0
 42
-0.0324133284949146
 70
     1
 50
360.0
  0
VERTEX
  5
11D
  8
0
 10
60.946110283556791
 20
72.383772007963444
 30
0.0
 42
-0.0058633523525041
 50
360.0
  0
VERTEX
  5
11E
  8
0
 10
61.4064729826163
 20
72.246551701404087
 30
0.0
 42
-0.0159479445323549
 70
     1
 50
360.0
  0
VERTEX
  5
11F
  8
0
 10
61.5734037460807
 20
72.188756635747751
 30
0.0
 42
-0.0271798700604388
 50
360.0
  0
VERTEX
  5
120
  8
0
 10
61.901353905421878
 20
72.042482230463065
 30
0.0
 42
-0.0271788886847264
 70
     1
 50
360.0
  0
VERTEX
  5
121
  8
0
 10
62.211512613130893
 20
71.86148945938578
 30
0.0
 42
-0.0328321549163536
 50
360.0
  0
VERTEX
  5
122
  8
0
 10
62.487373199174812
 20
71.652552614518143
 30
0.0
 42
-0.0292776002002819
 70
     1
 50
360.0
  0
VERTEX
  5
123
  8
0
 10
62.765261324876171
 20
71.381796474855236
 30
0.0
 42
-0.0217714379450913
 50
360.0
  0
VERTEX
  5
124
  8
0
 10
63.097727871466503
 20
70.984119126947348
 30
0.0
 42
-0.0218964344456655
 70
     1
 50
360.0
  0
VERTEX
  5
125
  8
0
 10
63.392554787400087
 20
70.561386977947848
 30
0.0
 42
-0.0095709129364748
 50
360.0
  0
VERTEX
  5
126
  8
0
 10
63.744927395151791
 20
69.981555324587816
 30
0.0
 42
-0.011410147643573
 70
     1
 50
360.0
  0
VERTEX
  5
127
  8
0
 10
64.019848249924024
 20
69.483198540755353
 30
0.0
 50
360.0
  0
VERTEX
  5
128
  8
0
 10
64.571433880764005
 20
68.351212759503341
 30
0.0
 42
-0.0178242231642754
 50
360.0
  0
VERTEX
  5
129
  8
0
 10
64.770695576111592
 20
67.896500954703583
 30
0.0
 42
-0.0099569548454717
 70
     1
 50
360.0
  0
VERTEX
  5
12A
  8
0
 10
65.081580730089115
 20
67.064138957351133
 30
0.0
 50
360.0
  0
SEQEND
  5
12B
  8
0
  0
POLYLINE
  5
12C
  8
0
 66
     1
 10
0.0
 20
0.0
 30
0.0
 70
     2
  0
VERTEX
  5
12D
  8
0
 10
60.331580730085548
 20
72.475612628326161
 30
0.0
 42
0.018601584125303
 50
360.0
  0
VERTEX
  5
12E
  8
0
 10
59.938854694241869
 20
72.431779750869481
 30
0.0
 42
0.0324133284949146
 70
     1
 50
360.0
  0
VERTEX
  5
12F
  8
0
 10
59.717051176617858
 20
72.383772007963444
 30
0.0
 42
0.0058633523525041
 50
360.0
  0
VERTEX
  5
130
  8
0
 10
59.256688477558342
 20
72.246551701404087
 30
0.0
 42
0.0159479445323549
 70
     1
 50
360.0
  0
VERTEX
  5
131
  8
0
 10
59.089757714093942
 20
72.188756635747751
 30
0.0
 42
0.0271798700604388
 50
360.0
  0
VERTEX
  5
132
  8
0
 10
58.761807554752757
 20
72.042482230463065
 30
0.0
 42
0.0271788886847264
 70
     1
 50
360.0
  0
VERTEX
  5
133
  8
0
 10
58.451648847043757
 20
71.86148945938578
 30
0.0
 42
0.0328321549163536
 50
360.0
  0
VERTEX
  5
134
  8
0
 10
58.175788260999852
 20
71.652552614518143
 30
0.0
 42
0.0292776002002819
 70
     1
 50
360.0
  0
VERTEX
  5
135
  8
0
 10
57.897900135298492
 20
71.381796474855236
 30
0.0
 42
0.0217714379450913
 50
360.0
  0
VERTEX
  5
136
  8
0
 10
57.56543358870816
 20
70.984119126947348
 30
0.0
 42
0.0218964344456655
 70
     1
 50
360.0
  0
VERTEX
  5
137
  8
0
 10
57.270606672774569
 20
70.561386977947848
 30
0.0
 42
0.0095709129364748
 50
360.0
  0
VERTEX
  5
138
  8
0
 10
56.918234065022872
 20
69.981555324587816
 30
0.0
 42
0.011410147643573
 70
     1
 50
360.0
  0
VERTEX
  5
139
  8
0
 10
56.643313210250639
 20
69.483198540755353
 30
0.0
 50
360.0
  0
VERTEX
  5
13A
  8
0
 10
56.091727579410637
 20
68.351212759503341
 30
0.0
 42
0.0178242231642754
 50
360.0
  0
VERTEX
  5
13B
  8
0
 10
55.892465884063071
 20
67.896500954703583
 30
0.0
 42
0.0099569548454717
 70
     1
 50
360.0
  0
VERTEX
  5
13C
  8
0
 10
55.581580730085527
 20
67.064138957351133
 30
0.0
 50
360.0
  0
SEQEND
  5
13D
  8
0
  0
TEXT
  5
255
  8
0
 62
     3
 10
0.0
 20
0.0
 30
0.0
 40
5.0
  1
BJ760-12002
  7
STANDARD1
  0
ENDSEC
  0
EOF
