  0
SECTION
  2
HEADER
  9
$ACADVER
  1
AC1009
  9
$INSBASE
 10
0.0
 20
0.0
 30
0.0
  9
$EXTMIN
 10
0.0
 20
-1.4802182810368341
 30
0.0
  9
$EXTMAX
 10
135.26898224981329
 20
126.8476297731978
 30
0.0
  9
$LIMMIN
 10
0.0
 20
0.0
  9
$LIMMAX
 10
187.5
 20
135.0
  9
$ORTHOMODE
 70
     1
  9
$REGENMODE
 70
     1
  9
$FILLMODE
 70
     1
  9
$QTEXTMODE
 70
     0
  9
$MIRRTEXT
 70
     0
  9
$DRAGMODE
 70
     2
  9
$LTSCALE
 40
5.0
  9
$OSMODE
 70
  3071
  9
$ATTMODE
 70
     1
  9
$TEXTSIZE
 40
0.2
  9
$TRACEWID
 40
0.05
  9
$TEXTSTYLE
  7
STANDARD
  9
$CLAYER
  8
0
  9
$CELTYPE
  6
BYLAYER
  9
$CECOLOR
 62
   256
  9
$DIMSCALE
 40
0.5
  9
$DIMASZ
 40
3.0
  9
$DIMEXO
 40
2.0
  9
$DIMDLI
 40
0.38
  9
$DIMRND
 40
0.0
  9
$DIMDLE
 40
0.0
  9
$DIMEXE
 40
2.0
  9
$DIMTP
 40
0.0
  9
$DIMTM
 40
0.0
  9
$DIMTXT
 40
3.2000000000000002
  9
$DIMCEN
 40
0.0
  9
$DIMTSZ
 40
0.0
  9
$DIMTOL
 70
     0
  9
$DIMLIM
 70
     0
  9
$DIMTIH
 70
     0
  9
$DIMTOH
 70
     0
  9
$DIMSE1
 70
     0
  9
$DIMSE2
 70
     0
  9
$DIMTAD
 70
     1
  9
$DIMZIN
 70
     0
  9
$DIMBLK
  1

  9
$DIMASO
 70
     0
  9
$DIMSHO
 70
     0
  9
$DIMPOST
  1

  9
$DIMAPOST
  1

  9
$DIMALT
 70
     0
  9
$DIMALTD
 70
     2
  9
$DIMALTF
 40
25.399999999999999
  9
$DIMLFAC
 40
1.0
  9
$DIMTOFL
 70
     1
  9
$DIMTVP
 40
1.6000000000000001
  9
$DIMTIX
 70
     1
  9
$DIMSOXD
 70
     0
  9
$DIMSAH
 70
     0
  9
$DIMBLK1
  1

  9
$DIMBLK2
  1

  9
$DIMSTYLE
  2
STANDARD
  9
$DIMCLRD
 70
     0
  9
$DIMCLRE
 70
     0
  9
$DIMCLRT
 70
     0
  9
$DIMTFAC
 40
1.0
  9
$DIMGAP
 40
0.09
  9
$LUNITS
 70
     2
  9
$LUPREC
 70
     4
  9
$SKETCHINC
 40
0.1
  9
$FILLETRAD
 40
0.0
  9
$AUNITS
 70
     0
  9
$AUPREC
 70
     4
  9
$MENU
  1
E:\r13\win\SUPPORT\ACAD
  9
$ELEVATION
 40
0.0
  9
$PELEVATION
 40
0.0
  9
$THICKNESS
 40
0.0
  9
$LIMCHECK
 70
     0
  9
$BLIPMODE
 70
     0
  9
$CHAMFERA
 40
0.0
  9
$CHAMFERB
 40
0.0
  9
$SKPOLY
 70
     0
  9
$TDCREATE
 40
2449839.773344907
  9
$TDUPDATE
 40
2456598.3685033112
  9
$TDINDWG
 40
0.0002806481
  9
$TDUSRTIMER
 40
0.0002806481
  9
$USRTIMER
 70
     1
  9
$ANGBASE
 50
0.0
  9
$ANGDIR
 70
     0
  9
$PDMODE
 70
     0
  9
$PDSIZE
 40
0.0
  9
$PLINEWID
 40
0.0
  9
$COORDS
 70
     1
  9
$SPLFRAME
 70
     0
  9
$SPLINETYPE
 70
     6
  9
$SPLINESEGS
 70
     8
  9
$ATTDIA
 70
     0
  9
$ATTREQ
 70
     1
  9
$HANDLING
 70
     1
  9
$HANDSEED
  5
2FE
  9
$SURFTAB1
 70
     6
  9
$SURFTAB2
 70
     6
  9
$SURFTYPE
 70
     6
  9
$SURFU
 70
     6
  9
$SURFV
 70
     6
  9
$UCSNAME
  2

  9
$UCSORG
 10
0.0
 20
0.0
 30
0.0
  9
$UCSXDIR
 10
1.0
 20
0.0
 30
0.0
  9
$UCSYDIR
 10
0.0
 20
1.0
 30
0.0
  9
$PUCSNAME
  2

  9
$PUCSORG
 10
0.0
 20
0.0
 30
0.0
  9
$PUCSXDIR
 10
1.0
 20
0.0
 30
0.0
  9
$PUCSYDIR
 10
0.0
 20
1.0
 30
0.0
  9
$USERI1
 70
     0
  9
$USERI2
 70
     1
  9
$USERI3
 70
     0
  9
$USERI4
 70
     0
  9
$USERI5
 70
     0
  9
$USERR1
 40
0.0
  9
$USERR2
 40
0.0
  9
$USERR3
 40
0.0
  9
$USERR4
 40
0.0
  9
$USERR5
 40
0.0
  9
$WORLDVIEW
 70
     1
  9
$SHADEDGE
 70
     3
  9
$SHADEDIF
 70
    70
  9
$TILEMODE
 70
     1
  9
$MAXACTVP
 70
    16
  9
$PLIMCHECK
 70
     0
  9
$PEXTMIN
 10
1.0000000000000000E+020
 20
1.0000000000000000E+020
 30
1.0000000000000000E+020
  9
$PEXTMAX
 10
-1.0000000000000000E+020
 20
-1.0000000000000000E+020
 30
-1.0000000000000000E+020
  9
$PLIMMIN
 10
0.0
 20
0.0
  9
$PLIMMAX
 10
12.0
 20
9.0
  9
$UNITMODE
 70
     0
  9
$VISRETAIN
 70
     0
  9
$PLINEGEN
 70
     0
  9
$PSLTSCALE
 70
     0
  0
ENDSEC
  0
SECTION
  2
TABLES
  0
TABLE
  2
VPORT
 70
     1
  0
VPORT
  2
*ACTIVE
 70
     0
 10
0.0
 20
0.0
 11
1.0
 21
1.0
 12
97.52905416604365
 22
66.75636307133405
 13
0.0
 23
0.0
 14
5.0
 24
5.0
 15
5.0
 25
5.0
 16
0.0
 26
0.0
 36
1.0
 17
0.0
 27
0.0
 37
0.0
 40
137.71137496815999
 41
1.831871345029239
 42
50.0
 43
0.0
 44
0.0
 50
0.0
 51
0.0
 71
     0
 72
   500
 73
     1
 74
     0
 75
     0
 76
     0
 77
     0
 78
     2
  0
ENDTAB
  0
TABLE
  2
LTYPE
 70
     3
  0
LTYPE
  2
CONTINUOUS
 70
     0
  3
Solid Line
 72
    65
 73
     0
 40
0.0
  0
LTYPE
  2
CENTER
 70
     0
  3
____ _ ____ _ ____ _ ____ _ ____ _ ____ _ ____
 72
    65
 73
     4
 40
2.0
 49
1.25
 49
-0.25
 49
0.25
 49
-0.25
  0
LTYPE
  2
PHANTOM2
 70
     0
  3
___ _ _ ___ _ _ ___ _ _ ___ _ _
 72
    65
 73
     6
 40
1.25
 49
0.625
 49
-0.125
 49
0.125
 49
-0.125
 49
0.125
 49
-0.125
  0
ENDTAB
  0
TABLE
  2
LAYER
 70
     3
  0
LAYER
  2
0
 70
     0
 62
     7
  6
CONTINUOUS
  0
LAYER
  2
1
 70
     0
 62
     1
  6
CENTER
  0
LAYER
  2
3
 70
     0
 62
     3
  6
CONTINUOUS
  0
ENDTAB
  0
TABLE
  2
STYLE
 70
     2
  0
STYLE
  2
STANDARD
 70
     0
 40
0.0
 41
1.0
 50
0.0
 71
     0
 42
0.2
  3
TXT
  4
BIGFONT
  0
STYLE
  2
STANDARD1
 70
     0
 40
0.0
 41
1.0
 50
0.0
 71
     0
 42
3.0
  3
txt
  4

  0
ENDTAB
  0
TABLE
  2
VIEW
 70
     1
  0
VIEW
  2
ALL
 70
     0
 40
270.0
 10
220.99159663865549
 20
135.0
 41
0.0
 11
0.0
 21
0.0
 31
1.0
 12
0.0
 22
0.0
 32
0.0
 42
0.0
 43
0.0
 44
0.0
 50
0.0
 71
     0
  0
ENDTAB
  0
TABLE
  2
UCS
 70
     0
  0
ENDTAB
  0
TABLE
  2
APPID
 70
     3
  0
APPID
  2
ACAD
 70
     0
  0
APPID
  2
ACAD_MLEADERVER
 70
     0
  0
APPID
  2
ACAD_NAV_VCDISPLAY
 70
     0
  0
ENDTAB
  0
TABLE
  2
DIMSTYLE
 70
     1
  0
DIMSTYLE
  2
STANDARD
 70
     0
  3

  4

  5

  6

  7

 40
1.0
 41
0.18
 42
0.0625
 43
0.38
 44
0.18
 45
0.0
 46
0.0
 47
0.0
 48
0.0
140
0.18
141
0.09
142
0.0
143
25.399999999999999
144
1.0
145
0.0
146
1.0
147
0.09
 71
     0
 72
     0
 73
     1
 74
     1
 75
     0
 76
     0
 77
     0
 78
     0
170
     0
171
     2
172
     0
173
     0
174
     0
175
     0
176
     0
177
     0
178
     0
  0
ENDTAB
  0
ENDSEC
  0
SECTION
  2
BLOCKS
  0
BLOCK
  8
0
  2
$MODEL_SPACE
 70
     0
 10
0.0
 20
0.0
 30
0.0
  3
$MODEL_SPACE
  1

  0
ENDBLK
  5
1B4
  8
0
  0
BLOCK
 67
     1
  8
0
  2
$PAPER_SPACE
 70
     0
 10
0.0
 20
0.0
 30
0.0
  3
$PAPER_SPACE
  1

  0
ENDBLK
  5
1B2
 67
     1
  8
0
  0
ENDSEC
  0
SECTION
  2
ENTITIES
  0
LINE
  5
3E
  8
0
 10
61.26056130870051
 20
124.14762977319781
 30
0.0
 11
69.760561308700517
 21
119.240152485086
 31
0.0
  0
LINE
  5
3F
  8
0
 10
61.260561308700531
 20
124.14762977319781
 30
0.0
 11
52.760561308700517
 21
119.240152485086
 31
0.0
  0
LINE
  5
40
  8
0
 10
61.260561308700503
 20
104.5476297731978
 30
0.0
 11
69.760561308700503
 21
109.4551070613096
 31
0.0
  0
LINE
  5
41
  8
0
 10
61.26056130870051
 20
104.5476297731978
 30
0.0
 11
52.760561308700517
 21
109.4551070613096
 31
0.0
  0
LINE
  5
42
  8
0
 10
69.760561308700517
 20
119.240152485086
 30
0.0
 11
69.760561308700503
 21
109.4551070613096
 31
0.0
  0
LINE
  5
43
  8
0
 10
52.760561308700517
 20
119.240152485086
 30
0.0
 11
52.760561308700517
 21
109.4551070613096
 31
0.0
  0
LINE
  5
44
  8
1
 10
61.260561308700503
 20
101.8476297731978
 30
0.0
 11
61.26056130870051
 21
126.8476297731978
 31
0.0
  0
LINE
  5
45
  8
1
 10
73.760561308700517
 20
114.3476297731978
 30
0.0
 11
48.760561308700517
 21
114.3476297731978
 31
0.0
  0
CIRCLE
  5
46
  8
0
 10
61.260561308700503
 20
114.3476297731978
 30
0.0
 40
6.5
  0
POLYLINE
  5
47
  8
0
 66
     1
 10
0.0
 20
0.0
 30
0.0
 70
     2
  0
VERTEX
  5
48
  8
0
 10
132.81524360575699
 20
73.36809873054095
 30
0.0
 42
0.0341702485012531
 50
360.0
  0
VERTEX
  5
49
  8
0
 10
132.64719385629331
 20
73.359043081326504
 30
0.0
 42
0.0584056062892824
 70
     1
 50
360.0
  0
VERTEX
  5
4A
  8
0
 10
132.55131387113161
 20
73.335698792728337
 30
0.0
 42
0.0032727002578919
 50
360.0
  0
VERTEX
  5
4B
  8
0
 10
132.4093397173408
 20
73.281926571583156
 30
0.0
 70
     1
 50
360.0
  0
VERTEX
  5
4C
  8
0
 10
132.35171295281549
 20
73.258603025154585
 30
0.0
 42
0.0096097645259437
 50
360.0
  0
VERTEX
  5
4D
  8
0
 10
132.23853997273
 20
73.208092284244415
 30
0.0
 42
0.0089744401120224
 70
     1
 50
360.0
  0
VERTEX
  5
4E
  8
0
 10
132.1194500660477
 20
73.149540719806325
 30
0.0
 42
0.0528471915468566
 50
360.0
  0
VERTEX
  5
4F
  8
0
 10
131.99778818441581
 20
73.069745294029573
 30
0.0
 42
0.0325603929327565
 70
     1
 50
360.0
  0
VERTEX
  5
50
  8
0
 10
131.82549234998211
 20
72.908851494210197
 30
0.0
 42
0.0377713034533916
 50
360.0
  0
VERTEX
  5
51
  8
0
 10
131.6579385956951
 20
72.701228779913293
 30
0.0
 42
0.050801414859236
 70
     1
 50
360.0
  0
VERTEX
  5
52
  8
0
 10
131.5623820485655
 20
72.527133425491328
 30
0.0
 42
0.0078409784401779
 50
360.0
  0
VERTEX
  5
53
  8
0
 10
131.47489936757901
 20
72.311109685921011
 30
0.0
 42
0.0077849401003396
 70
     1
 50
360.0
  0
VERTEX
  5
54
  8
0
 10
131.39362854489821
 20
72.090884204098344
 30
0.0
 50
360.0
  0
VERTEX
  5
55
  8
0
 10
131.16136565813039
 20
71.404543834234374
 30
0.0
 42
0.0138905320745574
 50
360.0
  0
VERTEX
  5
56
  8
0
 10
130.7665387373782
 20
70.118877682686175
 30
0.0
 42
0.0113020685255924
 70
     1
 50
360.0
  0
VERTEX
  5
57
  8
0
 10
130.3615049617008
 20
68.516432680701428
 30
0.0
 50
360.0
  0
SEQEND
  5
58
  8
0
  0
POLYLINE
  5
59
  8
0
 66
     1
 10
0.0
 20
0.0
 30
0.0
 70
     2
  0
VERTEX
  5
5A
  8
0
 10
132.81524360575699
 20
73.36809873054095
 30
0.0
 42
-0.0341702485012531
 50
360.0
  0
VERTEX
  5
5B
  8
0
 10
132.98329335522081
 20
73.359043081326504
 30
0.0
 42
-0.0584056062892824
 70
     1
 50
360.0
  0
VERTEX
  5
5C
  8
0
 10
133.07917334038251
 20
73.335698792728337
 30
0.0
 42
-0.0032727002578919
 50
360.0
  0
VERTEX
  5
5D
  8
0
 10
133.22114749417329
 20
73.281926571583156
 30
0.0
 70
     1
 50
360.0
  0
VERTEX
  5
5E
  8
0
 10
133.2787742586986
 20
73.258603025154585
 30
0.0
 42
-0.0096097645259437
 50
360.0
  0
VERTEX
  5
5F
  8
0
 10
133.3919472387841
 20
73.208092284244415
 30
0.0
 42
-0.0089744401120224
 70
     1
 50
360.0
  0
VERTEX
  5
60
  8
0
 10
133.51103714546639
 20
73.149540719806325
 30
0.0
 42
-0.0528471915468566
 50
360.0
  0
VERTEX
  5
61
  8
0
 10
133.63269902709831
 20
73.069745294029573
 30
0.0
 42
-0.0325603929327565
 70
     1
 50
360.0
  0
VERTEX
  5
62
  8
0
 10
133.80499486153201
 20
72.908851494210197
 30
0.0
 42
-0.0377713034533916
 50
360.0
  0
VERTEX
  5
63
  8
0
 10
133.97254861581899
 20
72.701228779913293
 30
0.0
 42
-0.050801414859236
 70
     1
 50
360.0
  0
VERTEX
  5
64
  8
0
 10
134.0681051629486
 20
72.527133425491328
 30
0.0
 42
-0.0078409784401779
 50
360.0
  0
VERTEX
  5
65
  8
0
 10
134.15558784393511
 20
72.311109685921011
 30
0.0
 42
-0.0077849401003396
 70
     1
 50
360.0
  0
VERTEX
  5
66
  8
0
 10
134.23685866661589
 20
72.090884204098344
 30
0.0
 50
360.0
  0
VERTEX
  5
67
  8
0
 10
134.4691215533837
 20
71.404543834234374
 30
0.0
 42
-0.0138905320745574
 50
360.0
  0
VERTEX
  5
68
  8
0
 10
134.8639484741359
 20
70.118877682686175
 30
0.0
 42
-0.0113020685255924
 70
     1
 50
360.0
  0
VERTEX
  5
69
  8
0
 10
135.26898224981329
 20
68.516432680701428
 30
0.0
 50
360.0
  0
SEQEND
  5
6A
  8
0
  0
POLYLINE
  5
6B
  8
0
 66
     1
 10
0.0
 20
0.0
 30
0.0
 70
     2
  0
VERTEX
  5
6C
  8
0
 10
125.4689822498131
 20
73.36809873054095
 30
0.0
 42
-0.0152443453549019
 50
360.0
  0
VERTEX
  5
6D
  8
0
 10
125.9213986022569
 20
73.339514069839851
 30
0.0
 42
-0.0269886062158748
 70
     1
 50
360.0
  0
VERTEX
  5
6E
  8
0
 10
126.17479612044799
 20
73.301851870378897
 30
0.0
 42
-0.0035592449635733
 50
360.0
  0
VERTEX
  5
6F
  8
0
 10
126.6864743346603
 20
73.1935234396082
 30
0.0
 42
-0.0098765171351291
 70
     1
 50
360.0
  0
VERTEX
  5
70
  8
0
 10
126.8697702269486
 20
73.149540719806339
 30
0.0
 42
-0.0231460373689038
 50
360.0
  0
VERTEX
  5
71
  8
0
 10
127.3326222188762
 20
73.005583263386981
 30
0.0
 42
-0.0438827444900292
 70
     1
 50
360.0
  0
VERTEX
  5
72
  8
0
 10
127.5647443334492
 20
72.897569186760379
 30
0.0
 42
-0.0256676812820519
 50
360.0
  0
VERTEX
  5
73
  8
0
 10
127.77235472659819
 20
72.763156486389803
 30
0.0
 42
-0.0132578609685546
 70
     1
 50
360.0
  0
VERTEX
  5
74
  8
0
 10
128.1526597655803
 20
72.472602272817213
 30
0.0
 42
-0.0064616018800157
 50
360.0
  0
VERTEX
  5
75
  8
0
 10
128.43473003576929
 20
72.23892552863505
 30
0.0
 42
-0.0072923416641302
 70
     1
 50
360.0
  0
VERTEX
  5
76
  8
0
 10
128.6788803684137
 20
72.02507074397441
 30
0.0
 42
-0.0279688007448412
 50
360.0
  0
VERTEX
  5
77
  8
0
 10
129.01132219465319
 20
71.689652296949404
 30
0.0
 42
-0.0340048461304638
 70
     1
 50
360.0
  0
VERTEX
  5
78
  8
0
 10
129.24865026251601
 20
71.381979219334752
 30
0.0
 42
-0.0272345605525623
 50
360.0
  0
VERTEX
  5
79
  8
0
 10
129.44763054731999
 20
71.045924579478495
 30
0.0
 42
-0.0194943686726511
 70
     1
 50
360.0
  0
VERTEX
  5
7A
  8
0
 10
129.68051406759989
 20
70.552729621773082
 30
0.0
 42
-0.0064473753405002
 50
360.0
  0
VERTEX
  5
7B
  8
0
 10
129.94225226884629
 20
69.914671916241687
 30
0.0
 42
-0.0157104289347141
 70
     1
 50
360.0
  0
VERTEX
  5
7C
  8
0
 10
130.037981166766
 20
69.64826464121262
 30
0.0
 50
360.0
  0
VERTEX
  5
7D
  8
0
 10
130.20673467043329
 20
69.10107272989643
 30
0.0
 42
-0.009401913241086
 50
360.0
  0
VERTEX
  5
7E
  8
0
 10
130.26563238655109
 20
68.894378945484846
 30
0.0
 42
-0.0051820039028185
 70
     1
 50
360.0
  0
VERTEX
  5
7F
  8
0
 10
130.36150496170069
 20
68.516432680701683
 30
0.0
 50
360.0
  0
SEQEND
  5
80
  8
0
  0
POLYLINE
  5
81
  8
0
 66
     1
 10
0.0
 20
0.0
 30
0.0
 70
     2
  0
VERTEX
  5
82
  8
0
 10
125.4689822498131
 20
73.36809873054095
 30
0.0
 42
0.0152443453549019
 50
360.0
  0
VERTEX
  5
83
  8
0
 10
125.0165658973694
 20
73.339514069839851
 30
0.0
 42
0.0269886062158748
 70
     1
 50
360.0
  0
VERTEX
  5
84
  8
0
 10
124.7631683791782
 20
73.301851870378897
 30
0.0
 42
0.0035592449635733
 50
360.0
  0
VERTEX
  5
85
  8
0
 10
124.2514901649659
 20
73.1935234396082
 30
0.0
 42
0.0098765171351291
 70
     1
 50
360.0
  0
VERTEX
  5
86
  8
0
 10
124.0681942726776
 20
73.149540719806339
 30
0.0
 42
0.0231460373689038
 50
360.0
  0
VERTEX
  5
87
  8
0
 10
123.60534228075009
 20
73.005583263386995
 30
0.0
 42
0.0438827444900292
 70
     1
 50
360.0
  0
VERTEX
  5
88
  8
0
 10
123.37322016617701
 20
72.897569186760393
 30
0.0
 42
0.0256676812820519
 50
360.0
  0
VERTEX
  5
89
  8
0
 10
123.165609773028
 20
72.763156486389803
 30
0.0
 42
0.0132578609685546
 70
     1
 50
360.0
  0
VERTEX
  5
8A
  8
0
 10
122.78530473404589
 20
72.472602272817227
 30
0.0
 42
0.0064616018800157
 50
360.0
  0
VERTEX
  5
8B
  8
0
 10
122.5032344638569
 20
72.23892552863505
 30
0.0
 42
0.0072923416641302
 70
     1
 50
360.0
  0
VERTEX
  5
8C
  8
0
 10
122.2590841312125
 20
72.025070743974425
 30
0.0
 42
0.0279688007448412
 50
360.0
  0
VERTEX
  5
8D
  8
0
 10
121.926642304973
 20
71.689652296949404
 30
0.0
 42
0.0340048461304638
 70
     1
 50
360.0
  0
VERTEX
  5
8E
  8
0
 10
121.6893142371102
 20
71.381979219334752
 30
0.0
 42
0.0272345605525623
 50
360.0
  0
VERTEX
  5
8F
  8
0
 10
121.4903339523062
 20
71.045924579478495
 30
0.0
 42
0.0194943686726511
 70
     1
 50
360.0
  0
VERTEX
  5
90
  8
0
 10
121.2574504320263
 20
70.552729621773082
 30
0.0
 42
0.0064473753405002
 50
360.0
  0
VERTEX
  5
91
  8
0
 10
120.99571223078
 20
69.914671916241687
 30
0.0
 42
0.0157104289347141
 70
     1
 50
360.0
  0
VERTEX
  5
92
  8
0
 10
120.8999833328602
 20
69.648264641212634
 30
0.0
 50
360.0
  0
VERTEX
  5
93
  8
0
 10
120.7312298291929
 20
69.10107272989643
 30
0.0
 42
0.009401913241086
 50
360.0
  0
VERTEX
  5
94
  8
0
 10
120.6723321130751
 20
68.894378945484846
 30
0.0
 42
0.0051820039028185
 70
     1
 50
360.0
  0
VERTEX
  5
95
  8
0
 10
120.5764595379255
 20
68.516432680701683
 30
0.0
 50
360.0
  0
SEQEND
  5
96
  8
0
  0
POLYLINE
  5
97
  8
0
 66
     1
 10
0.0
 20
0.0
 30
0.0
 70
     2
  0
VERTEX
  5
98
  8
0
 10
118.1227208938693
 20
73.36809873054095
 30
0.0
 42
-0.0341702485012531
 50
360.0
  0
VERTEX
  5
99
  8
0
 10
118.2907706433331
 20
73.359043081326519
 30
0.0
 42
-0.0584056062892824
 70
     1
 50
360.0
  0
VERTEX
  5
9A
  8
0
 10
118.38665062849481
 20
73.335698792728351
 30
0.0
 42
-0.0032727002578919
 50
360.0
  0
VERTEX
  5
9B
  8
0
 10
118.5286247822856
 20
73.281926571583156
 30
0.0
 70
     1
 50
360.0
  0
VERTEX
  5
9C
  8
0
 10
118.5862515468109
 20
73.258603025154585
 30
0.0
 42
-0.0096097645259437
 50
360.0
  0
VERTEX
  5
9D
  8
0
 10
118.69942452689639
 20
73.208092284244415
 30
0.0
 42
-0.0089744401120224
 70
     1
 50
360.0
  0
VERTEX
  5
9E
  8
0
 10
118.8185144335787
 20
73.149540719806339
 30
0.0
 42
-0.0528471915468566
 50
360.0
  0
VERTEX
  5
9F
  8
0
 10
118.94017631521049
 20
73.069745294029573
 30
0.0
 42
-0.0325603929327565
 70
     1
 50
360.0
  0
VERTEX
  5
A0
  8
0
 10
119.1124721496442
 20
72.908851494210211
 30
0.0
 42
-0.0377713034533916
 50
360.0
  0
VERTEX
  5
A1
  8
0
 10
119.2800259039312
 20
72.701228779913293
 30
0.0
 42
-0.050801414859236
 70
     1
 50
360.0
  0
VERTEX
  5
A2
  8
0
 10
119.37558245106089
 20
72.527133425491343
 30
0.0
 42
-0.0078409784401779
 50
360.0
  0
VERTEX
  5
A3
  8
0
 10
119.4630651320474
 20
72.311109685921011
 30
0.0
 42
-0.0077849401003396
 70
     1
 50
360.0
  0
VERTEX
  5
A4
  8
0
 10
119.5443359547281
 20
72.090884204098359
 30
0.0
 50
360.0
  0
VERTEX
  5
A5
  8
0
 10
119.776598841496
 20
71.404543834234374
 30
0.0
 42
-0.0138905320745574
 50
360.0
  0
VERTEX
  5
A6
  8
0
 10
120.17142576224821
 20
70.118877682686175
 30
0.0
 42
-0.0113020685255924
 70
     1
 50
360.0
  0
VERTEX
  5
A7
  8
0
 10
120.5764595379255
 20
68.516432680701442
 30
0.0
 50
360.0
  0
SEQEND
  5
A8
  8
0
  0
POLYLINE
  5
A9
  8
0
 66
     1
 10
0.0
 20
0.0
 30
0.0
 70
     2
  0
VERTEX
  5
AA
  8
0
 10
118.1227208938693
 20
73.36809873054095
 30
0.0
 42
0.0341702485012531
 50
360.0
  0
VERTEX
  5
AB
  8
0
 10
117.95467114440559
 20
73.359043081326519
 30
0.0
 42
0.0584056062892824
 70
     1
 50
360.0
  0
VERTEX
  5
AC
  8
0
 10
117.85879115924391
 20
73.335698792728351
 30
0.0
 42
0.0032727002578919
 50
360.0
  0
VERTEX
  5
AD
  8
0
 10
117.71681700545309
 20
73.281926571583156
 30
0.0
 70
     1
 50
360.0
  0
VERTEX
  5
AE
  8
0
 10
117.6591902409278
 20
73.258603025154585
 30
0.0
 42
0.0096097645259437
 50
360.0
  0
VERTEX
  5
AF
  8
0
 10
117.54601726084231
 20
73.208092284244415
 30
0.0
 42
0.0089744401120224
 70
     1
 50
360.0
  0
VERTEX
  5
B0
  8
0
 10
117.42692735416
 20
73.149540719806339
 30
0.0
 42
0.0528471915468566
 50
360.0
  0
VERTEX
  5
B1
  8
0
 10
117.30526547252811
 20
73.069745294029573
 30
0.0
 42
0.0325603929327565
 70
     1
 50
360.0
  0
VERTEX
  5
B2
  8
0
 10
117.13296963809439
 20
72.908851494210211
 30
0.0
 42
0.0377713034533916
 50
360.0
  0
VERTEX
  5
B3
  8
0
 10
116.9654158838074
 20
72.701228779913293
 30
0.0
 42
0.050801414859236
 70
     1
 50
360.0
  0
VERTEX
  5
B4
  8
0
 10
116.86985933667771
 20
72.527133425491343
 30
0.0
 42
0.0078409784401779
 50
360.0
  0
VERTEX
  5
B5
  8
0
 10
116.78237665569119
 20
72.311109685921011
 30
0.0
 42
0.0077849401003396
 70
     1
 50
360.0
  0
VERTEX
  5
B6
  8
0
 10
116.7011058330105
 20
72.090884204098359
 30
0.0
 50
360.0
  0
VERTEX
  5
B7
  8
0
 10
116.4688429462426
 20
71.404543834234374
 30
0.0
 42
0.0138905320745574
 50
360.0
  0
VERTEX
  5
B8
  8
0
 10
116.07401602549039
 20
70.118877682686175
 30
0.0
 42
0.0113020685255924
 70
     1
 50
360.0
  0
VERTEX
  5
B9
  8
0
 10
115.6689822498131
 20
68.516432680701442
 30
0.0
 50
360.0
  0
SEQEND
  5
BA
  8
0
  0
LINE
  5
BB
  8
0
 10
135.26898224981309
 20
41.332200345678693
 30
0.0
 11
134.76898224981309
 21
40.832200345678679
 31
0.0
  0
LINE
  5
BC
  8
0
 10
115.6689822498131
 20
41.3322003456787
 30
0.0
 11
116.1689822498131
 21
40.8322003456787
 31
0.0
  0
LINE
  5
BD
  8
0
 10
130.46898224981311
 20
26.332200345678711
 30
0.0
 11
128.96898224981311
 21
24.832200345678711
 31
0.0
  0
LINE
  5
BE
  8
0
 10
120.4689822498131
 20
26.332200345678721
 30
0.0
 11
121.9689822498131
 21
24.832200345678711
 31
0.0
  0
ARC
  5
BF
  8
0
 10
131.20165526183411
 20
79.832200345678686
 30
0.0
 40
1.0
 50
14.99999999999997
 51
89.999999999999915
  0
ARC
  5
C0
  8
0
 10
119.7363092377921
 20
79.8322003456787
 30
0.0
 40
1.0
 50
89.999999999999986
 51
164.99999999999989
  0
LINE
  5
C1
  8
0
 10
134.76898224981309
 20
40.832200345678679
 30
0.0
 11
116.1689822498131
 21
40.8322003456787
 31
0.0
  0
LINE
  5
C2
  8
0
 10
115.6689822498131
 20
41.3322003456787
 30
0.0
 11
115.6689822498131
 21
68.516432680701428
 31
0.0
  0
LINE
  5
C3
  8
0
 10
118.770383411503
 20
80.091019390781227
 30
0.0
 11
115.6689822498131
 21
68.516432680701456
 31
0.0
  0
LINE
  5
C4
  8
0
 10
119.7363092377921
 20
80.832200345678714
 30
0.0
 11
131.20165526183411
 21
80.832200345678686
 31
0.0
  0
LINE
  5
C5
  8
0
 10
132.1675810881232
 20
80.091019390781184
 30
0.0
 11
135.26898224981309
 21
68.516432680701428
 31
0.0
  0
LINE
  5
C6
  8
0
 10
135.26898224981309
 20
68.516432680701399
 30
0.0
 11
135.26898224981309
 21
41.332200345678693
 31
0.0
  0
LINE
  5
C7
  8
1
 10
125.4689822498131
 20
85.832200345678601
 30
0.0
 11
125.4689822498131
 21
19.832200345678679
 31
0.0
  0
LINE
  5
C8
  8
0
 10
120.5764595379249
 20
40.832200345678679
 30
0.0
 11
120.5764595379255
 21
68.516432680701428
 31
0.0
  0
LINE
  5
C9
  8
0
 10
130.3615049617012
 20
40.832200345678672
 30
0.0
 11
130.36150496170089
 21
68.516432680701399
 31
0.0
  0
LINE
  5
CA
  8
0
 10
120.4689822498131
 20
26.332200345678721
 30
0.0
 11
120.4689822498131
 21
37.8322003456787
 31
0.0
  0
LINE
  5
CB
  8
0
 10
120.4689822498131
 20
37.8322003456787
 30
0.0
 11
130.46898224981311
 21
37.832200345678693
 31
0.0
  0
LINE
  5
CC
  8
0
 10
130.46898224981311
 20
37.832200345678693
 30
0.0
 11
130.46898224981311
 21
26.332200345678711
 31
0.0
  0
LINE
  5
CD
  8
0
 10
128.96898224981311
 20
24.832200345678711
 30
0.0
 11
121.9689822498131
 21
24.832200345678711
 31
0.0
  0
LINE
  5
CE
  8
0
 10
129.3189822498131
 20
40.032200345678703
 30
0.0
 11
129.3189822498131
 21
38.63220034567869
 31
0.0
  0
ARC
  5
CF
  8
0
 10
130.11898224981309
 20
40.032200345678703
 30
0.0
 40
0.8
 50
89.999999999999986
 51
180.0
  0
ARC
  5
D0
  8
0
 10
130.11898224981309
 20
38.63220034567869
 30
0.0
 40
0.8
 50
180.0
 51
270.0
  0
ARC
  5
D1
  8
0
 10
120.818982249813
 20
40.03220034567871
 30
0.0
 40
0.8
 50
0.0000000000000368
 51
89.999999999999986
  0
LINE
  5
D2
  8
0
 10
121.618982249813
 20
40.03220034567871
 30
0.0
 11
121.618982249813
 21
38.632200345678697
 31
0.0
  0
ARC
  5
D3
  8
0
 10
120.818982249813
 20
38.632200345678697
 30
0.0
 40
0.8
 50
270.0
 51
360.0
  0
LINE
  5
D4
  8
3
 10
129.6569822498131
 20
37.832200345678693
 30
0.0
 11
129.6569822498131
 21
25.520200345678731
 31
0.0
  0
LINE
  5
D5
  8
3
 10
121.28098224981311
 20
37.8322003456787
 30
0.0
 11
121.28098224981311
 21
25.500229017678709
 31
0.0
  0
LINE
  5
D6
  8
0
 10
130.46898224981311
 20
26.332200345678711
 30
0.0
 11
120.4689822498131
 21
26.332200345678721
 31
0.0
  0
LINE
  5
D7
  8
0
 10
66.26056130870046
 20
26.332200345678721
 30
0.0
 11
64.76056130870046
 21
24.832200345678721
 31
0.0
  0
LINE
  5
D8
  8
0
 10
56.260561308700488
 20
26.332200345678721
 30
0.0
 11
57.760561308700488
 21
24.832200345678721
 31
0.0
  0
ARC
  5
D9
  8
0
 10
66.993234320721541
 20
79.832200345678686
 30
0.0
 40
1.0
 50
14.99999999999997
 51
89.999999999999915
  0
ARC
  5
DA
  8
0
 10
55.52788829667945
 20
79.832200345678686
 30
0.0
 40
1.0
 50
89.999999999999986
 51
164.99999999999989
  0
LINE
  5
DB
  8
0
 10
69.260561308700488
 20
40.832200345678679
 30
0.0
 11
53.260561308700503
 21
40.832200345678693
 31
0.0
  0
LINE
  5
DC
  8
0
 10
54.561962470390377
 20
80.091019390781227
 30
0.0
 11
52.760561308700488
 21
73.368098730540979
 31
0.0
  0
LINE
  5
DD
  8
0
 10
55.52788829667945
 20
80.832200345678686
 30
0.0
 11
66.993234320721541
 21
80.832200345678686
 31
0.0
  0
LINE
  5
DE
  8
0
 10
67.959160147010607
 20
80.091019390781227
 30
0.0
 11
69.760561308700474
 21
73.36809873054095
 31
0.0
  0
LINE
  5
DF
  8
1
 10
61.260561308700503
 20
85.832200345678601
 30
0.0
 11
61.260561308700488
 21
19.832200345678721
 31
0.0
  0
LINE
  5
E0
  8
0
 10
61.260561308699899
 20
40.832200345678679
 30
0.0
 11
61.260561308700488
 21
68.516432680701428
 31
0.0
  0
LINE
  5
E1
  8
0
 10
56.260561308700488
 20
26.332200345678721
 30
0.0
 11
56.260561308700488
 21
37.832200345678693
 31
0.0
  0
LINE
  5
E2
  8
0
 10
56.260561308700488
 20
37.832200345678693
 30
0.0
 11
66.260561308700488
 21
37.832200345678693
 31
0.0
  0
LINE
  5
E3
  8
0
 10
66.260561308700488
 20
37.832200345678693
 30
0.0
 11
66.26056130870046
 21
26.332200345678721
 31
0.0
  0
LINE
  5
E4
  8
0
 10
64.76056130870046
 20
24.832200345678721
 30
0.0
 11
57.760561308700488
 21
24.832200345678721
 31
0.0
  0
LINE
  5
E5
  8
0
 10
65.110561308700539
 20
40.032200345678703
 30
0.0
 11
65.110561308700539
 21
38.632200345678697
 31
0.0
  0
ARC
  5
E6
  8
0
 10
65.910561308700537
 20
40.032200345678703
 30
0.0
 40
0.8
 50
89.999999999999986
 51
180.0
  0
ARC
  5
E7
  8
0
 10
65.910561308700537
 20
38.632200345678697
 30
0.0
 40
0.8
 50
180.0
 51
270.0
  0
ARC
  5
E8
  8
0
 10
56.610561308700433
 20
40.03220034567871
 30
0.0
 40
0.8
 50
0.0000000000000368
 51
89.999999999999986
  0
LINE
  5
E9
  8
0
 10
57.410561308700423
 20
40.032200345678703
 30
0.0
 11
57.410561308700423
 21
38.632200345678697
 31
0.0
  0
ARC
  5
EA
  8
0
 10
56.610561308700433
 20
38.632200345678697
 30
0.0
 40
0.8
 50
270.0
 51
360.0
  0
LINE
  5
EB
  8
3
 10
65.448561308700477
 20
37.832200345678693
 30
0.0
 11
65.448561308700477
 21
25.520200345678759
 31
0.0
  0
LINE
  5
EC
  8
3
 10
57.072561308700493
 20
37.832200345678693
 30
0.0
 11
57.072561308700493
 21
25.500229017678709
 31
0.0
  0
LINE
  5
ED
  8
0
 10
66.260561308700474
 20
26.332200345678721
 30
0.0
 11
56.260561308700488
 21
26.332200345678721
 31
0.0
  0
LINE
  5
EE
  8
0
 10
69.760561308700474
 20
73.368098730540979
 30
0.0
 11
69.760561308700474
 21
41.332200345678693
 31
0.0
  0
LINE
  5
EF
  8
0
 10
52.760561308700503
 20
73.368098730540979
 30
0.0
 11
52.760561308700503
 21
41.332200345678693
 31
0.0
  0
POLYLINE
  5
F0
  8
0
 66
     1
 10
0.0
 20
0.0
 30
0.0
 70
     2
  0
VERTEX
  5
F1
  8
0
 10
57.010561308700503
 20
73.368098730541661
 30
0.0
 42
0.0189904687179585
 50
360.0
  0
VERTEX
  5
F2
  8
0
 10
56.703064319859124
 20
73.350737564323524
 30
0.0
 42
0.0340455115980207
 70
     1
 50
360.0
  0
VERTEX
  5
F3
  8
0
 10
56.533396672558489
 20
73.322931602418763
 30
0.0
 42
0.0050947309028152
 50
360.0
  0
VERTEX
  5
F4
  8
0
 10
56.164723885644918
 20
73.232439608679044
 30
0.0
 42
0.0150254421348881
 70
     1
 50
360.0
  0
VERTEX
  5
F5
  8
0
 10
56.041027456065933
 20
73.196745185102714
 30
0.0
 42
0.0204958613536671
 50
360.0
  0
VERTEX
  5
F6
  8
0
 10
55.780640917391572
 20
73.101115666432392
 30
0.0
 42
0.0205188392128052
 70
     1
 50
360.0
  0
VERTEX
  5
F7
  8
0
 10
55.529245833188348
 20
72.984605700919261
 30
0.0
 42
0.0285450894026141
 50
360.0
  0
VERTEX
  5
F8
  8
0
 10
55.247296357887748
 20
72.818613375383293
 30
0.0
 42
0.0286900700008986
 70
     1
 50
360.0
  0
VERTEX
  5
F9
  8
0
 10
54.987463218624853
 20
72.622505546881925
 30
0.0
 42
0.0133323982388513
 50
360.0
  0
VERTEX
  5
FA
  8
0
 10
54.750652444937359
 20
72.410341013436536
 30
0.0
 42
0.0122799097716974
 70
     1
 50
360.0
  0
VERTEX
  5
FB
  8
0
 10
54.505682587433213
 20
72.167137171350134
 30
0.0
 42
0.010057807546853
 50
360.0
  0
VERTEX
  5
FC
  8
0
 10
54.146304343147769
 20
71.776968260934993
 30
0.0
 42
0.0152984127132174
 70
     1
 50
360.0
  0
VERTEX
  5
FD
  8
0
 10
53.923310395882858
 20
71.508773254918665
 30
0.0
 42
0.0105843105705335
 50
360.0
  0
VERTEX
  5
FE
  8
0
 10
53.765274741901891
 20
71.297341705627304
 30
0.0
 42
0.0121084129619269
 70
     1
 50
360.0
  0
VERTEX
  5
FF
  8
0
 10
53.635653828541329
 20
71.106439750432756
 30
0.0
 42
0.0153866319689034
 50
360.0
  0
VERTEX
  5
100
  8
0
 10
53.527218933111051
 20
70.926157003587164
 30
0.0
 42
0.0086389519928652
 70
     1
 50
360.0
  0
VERTEX
  5
101
  8
0
 10
53.349762025416616
 20
70.596207715198361
 30
0.0
 42
0.0191754084647297
 50
360.0
  0
VERTEX
  5
102
  8
0
 10
53.14549531137888
 20
70.159862261663534
 30
0.0
 42
0.0209966230235591
 70
     1
 50
360.0
  0
VERTEX
  5
103
  8
0
 10
52.991514889402318
 20
69.747649778464449
 30
0.0
 42
0.017801581752213
 50
360.0
  0
VERTEX
  5
104
  8
0
 10
52.950896160677232
 20
69.606345548015639
 30
0.0
 42
0.0049219556093702
 70
     1
 50
360.0
  0
VERTEX
  5
105
  8
0
 10
52.827391817238137
 20
69.089285862032966
 30
0.0
 42
0.0271277578386433
 50
360.0
  0
VERTEX
  5
106
  8
0
 10
52.7929523386291
 20
68.889111974701933
 30
0.0
 42
0.0147217987286529
 70
     1
 50
360.0
  0
VERTEX
  5
107
  8
0
 10
52.760561308700503
 20
68.516432680701428
 30
0.0
 50
360.0
  0
SEQEND
  5
108
  8
0
  0
POLYLINE
  5
109
  8
0
 66
     1
 10
0.0
 20
0.0
 30
0.0
 70
     2
  0
VERTEX
  5
10A
  8
0
 10
57.010561308700503
 20
73.368098730541661
 30
0.0
 42
-0.0189904687179585
 50
360.0
  0
VERTEX
  5
10B
  8
0
 10
57.31805829754186
 20
73.350737564323524
 30
0.0
 42
-0.0340455115980207
 70
     1
 50
360.0
  0
VERTEX
  5
10C
  8
0
 10
57.487725944842502
 20
73.322931602418763
 30
0.0
 42
-0.0050947309028152
 50
360.0
  0
VERTEX
  5
10D
  8
0
 10
57.85639873175608
 20
73.232439608679044
 30
0.0
 42
-0.0150254421348881
 70
     1
 50
360.0
  0
VERTEX
  5
10E
  8
0
 10
57.980095161335072
 20
73.196745185102714
 30
0.0
 42
-0.0204958613536671
 50
360.0
  0
VERTEX
  5
10F
  8
0
 10
58.240481700009418
 20
73.101115666432392
 30
0.0
 42
-0.0205188392128052
 70
     1
 50
360.0
  0
VERTEX
  5
110
  8
0
 10
58.491876784212629
 20
72.984605700919261
 30
0.0
 42
-0.0285450894026141
 50
360.0
  0
VERTEX
  5
111
  8
0
 10
58.773826259513243
 20
72.818613375383293
 30
0.0
 42
-0.0286900700008986
 70
     1
 50
360.0
  0
VERTEX
  5
112
  8
0
 10
59.03365939877613
 20
72.622505546881925
 30
0.0
 42
-0.0133323982388513
 50
360.0
  0
VERTEX
  5
113
  8
0
 10
59.270470172463646
 20
72.410341013436536
 30
0.0
 42
-0.0122799097716974
 70
     1
 50
360.0
  0
VERTEX
  5
114
  8
0
 10
59.515440029967792
 20
72.167137171350134
 30
0.0
 42
-0.010057807546853
 50
360.0
  0
VERTEX
  5
115
  8
0
 10
59.874818274253229
 20
71.776968260934993
 30
0.0
 42
-0.0152984127132174
 70
     1
 50
360.0
  0
VERTEX
  5
116
  8
0
 10
60.097812221518119
 20
71.508773254918665
 30
0.0
 42
-0.0105843105705335
 50
360.0
  0
VERTEX
  5
117
  8
0
 10
60.2558478754991
 20
71.297341705627304
 30
0.0
 42
-0.0121084129619269
 70
     1
 50
360.0
  0
VERTEX
  5
118
  8
0
 10
60.385468788859647
 20
71.106439750432756
 30
0.0
 42
-0.0153866319689034
 50
360.0
  0
VERTEX
  5
119
  8
0
 10
60.493903684289933
 20
70.926157003587164
 30
0.0
 42
-0.0086389519928652
 70
     1
 50
360.0
  0
VERTEX
  5
11A
  8
0
 10
60.67136059198436
 20
70.596207715198361
 30
0.0
 42
-0.0191754084647297
 50
360.0
  0
VERTEX
  5
11B
  8
0
 10
60.875627306022118
 20
70.159862261663534
 30
0.0
 42
-0.0209966230235591
 70
     1
 50
360.0
  0
VERTEX
  5
11C
  8
0
 10
61.02960772799868
 20
69.747649778464449
 30
0.0
 42
-0.017801581752213
 50
360.0
  0
VERTEX
  5
11D
  8
0
 10
61.070226456723759
 20
69.606345548015639
 30
0.0
 42
-0.0049219556093702
 70
     1
 50
360.0
  0
VERTEX
  5
11E
  8
0
 10
61.193730800162868
 20
69.089285862032966
 30
0.0
 42
-0.0271277578386433
 50
360.0
  0
VERTEX
  5
11F
  8
0
 10
61.228170278771877
 20
68.889111974701933
 30
0.0
 42
-0.0147217987286529
 70
     1
 50
360.0
  0
VERTEX
  5
120
  8
0
 10
61.260561308700503
 20
68.516432680701428
 30
0.0
 50
360.0
  0
SEQEND
  5
121
  8
0
  0
POLYLINE
  5
122
  8
0
 66
     1
 10
0.0
 20
0.0
 30
0.0
 70
     2
  0
VERTEX
  5
123
  8
0
 10
65.510561308700318
 20
73.368098730541661
 30
0.0
 42
0.0189904687179585
 50
360.0
  0
VERTEX
  5
124
  8
0
 10
65.203064319858925
 20
73.350737564323524
 30
0.0
 42
0.0340455115980207
 70
     1
 50
360.0
  0
VERTEX
  5
125
  8
0
 10
65.033396672558311
 20
73.322931602418791
 30
0.0
 42
0.0050947309028152
 50
360.0
  0
VERTEX
  5
126
  8
0
 10
64.664723885644733
 20
73.232439608679044
 30
0.0
 42
0.0150254421348881
 70
     1
 50
360.0
  0
VERTEX
  5
127
  8
0
 10
64.541027456065748
 20
73.196745185102756
 30
0.0
 42
0.0204958613536671
 50
360.0
  0
VERTEX
  5
128
  8
0
 10
64.280640917391381
 20
73.10111566643242
 30
0.0
 42
0.0205188392128052
 70
     1
 50
360.0
  0
VERTEX
  5
129
  8
0
 10
64.02924583318817
 20
72.984605700919261
 30
0.0
 42
0.0285450894026141
 50
360.0
  0
VERTEX
  5
12A
  8
0
 10
63.747296357887571
 20
72.818613375383322
 30
0.0
 42
0.0286900700008986
 70
     1
 50
360.0
  0
VERTEX
  5
12B
  8
0
 10
63.487463218624669
 20
72.622505546881953
 30
0.0
 42
0.0133323982388513
 50
360.0
  0
VERTEX
  5
12C
  8
0
 10
63.250652444937181
 20
72.410341013436536
 30
0.0
 42
0.0122799097716974
 70
     1
 50
360.0
  0
VERTEX
  5
12D
  8
0
 10
63.005682587433029
 20
72.167137171350177
 30
0.0
 42
0.010057807546853
 50
360.0
  0
VERTEX
  5
12E
  8
0
 10
62.646304343147591
 20
71.776968260934993
 30
0.0
 42
0.0152984127132174
 70
     1
 50
360.0
  0
VERTEX
  5
12F
  8
0
 10
62.42331039588268
 20
71.508773254918665
 30
0.0
 42
0.0105843105705335
 50
360.0
  0
VERTEX
  5
130
  8
0
 10
62.265274741901699
 20
71.297341705627346
 30
0.0
 42
0.0121084129619269
 70
     1
 50
360.0
  0
VERTEX
  5
131
  8
0
 10
62.135653828541152
 20
71.106439750432756
 30
0.0
 42
0.0153866319689034
 50
360.0
  0
VERTEX
  5
132
  8
0
 10
62.027218933110873
 20
70.926157003587164
 30
0.0
 42
0.0086389519928652
 70
     1
 50
360.0
  0
VERTEX
  5
133
  8
0
 10
61.849762025416439
 20
70.596207715198361
 30
0.0
 42
0.0191754084647297
 50
360.0
  0
VERTEX
  5
134
  8
0
 10
61.645495311378689
 20
70.159862261663534
 30
0.0
 42
0.0209966230235591
 70
     1
 50
360.0
  0
VERTEX
  5
135
  8
0
 10
61.49151488940214
 20
69.747649778464449
 30
0.0
 42
0.017801581752213
 50
360.0
  0
VERTEX
  5
136
  8
0
 10
61.45089616067704
 20
69.606345548015639
 30
0.0
 42
0.0049219556093702
 70
     1
 50
360.0
  0
VERTEX
  5
137
  8
0
 10
61.327391817237952
 20
69.089285862032966
 30
0.0
 42
0.0271277578386433
 50
360.0
  0
VERTEX
  5
138
  8
0
 10
61.292952338628922
 20
68.889111974701933
 30
0.0
 42
0.0147217987286529
 70
     1
 50
360.0
  0
VERTEX
  5
139
  8
0
 10
61.260561308700318
 20
68.516432680701456
 30
0.0
 50
360.0
  0
SEQEND
  5
13A
  8
0
  0
POLYLINE
  5
13B
  8
0
 66
     1
 10
0.0
 20
0.0
 30
0.0
 70
     2
  0
VERTEX
  5
13C
  8
0
 10
65.510561308700318
 20
73.368098730541661
 30
0.0
 42
-0.0189904687179585
 50
360.0
  0
VERTEX
  5
13D
  8
0
 10
65.818058297541683
 20
73.350737564323524
 30
0.0
 42
-0.0340455115980207
 70
     1
 50
360.0
  0
VERTEX
  5
13E
  8
0
 10
65.987725944842325
 20
73.322931602418791
 30
0.0
 42
-0.0050947309028152
 50
360.0
  0
VERTEX
  5
13F
  8
0
 10
66.356398731755888
 20
73.232439608679044
 30
0.0
 42
-0.0150254421348881
 70
     1
 50
360.0
  0
VERTEX
  5
140
  8
0
 10
66.480095161334873
 20
73.196745185102756
 30
0.0
 42
-0.0204958613536671
 50
360.0
  0
VERTEX
  5
141
  8
0
 10
66.740481700009241
 20
73.10111566643242
 30
0.0
 42
-0.0205188392128052
 70
     1
 50
360.0
  0
VERTEX
  5
142
  8
0
 10
66.991876784212451
 20
72.984605700919261
 30
0.0
 42
-0.0285450894026141
 50
360.0
  0
VERTEX
  5
143
  8
0
 10
67.273826259513072
 20
72.818613375383322
 30
0.0
 42
-0.0286900700008986
 70
     1
 50
360.0
  0
VERTEX
  5
144
  8
0
 10
67.533659398775967
 20
72.622505546881953
 30
0.0
 42
-0.0133323982388513
 50
360.0
  0
VERTEX
  5
145
  8
0
 10
67.770470172463462
 20
72.410341013436536
 30
0.0
 42
-0.0122799097716974
 70
     1
 50
360.0
  0
VERTEX
  5
146
  8
0
 10
68.015440029967607
 20
72.167137171350177
 30
0.0
 42
-0.010057807546853
 50
360.0
  0
VERTEX
  5
147
  8
0
 10
68.374818274253045
 20
71.776968260934993
 30
0.0
 42
-0.0152984127132174
 70
     1
 50
360.0
  0
VERTEX
  5
148
  8
0
 10
68.597812221517955
 20
71.508773254918665
 30
0.0
 42
-0.0105843105705335
 50
360.0
  0
VERTEX
  5
149
  8
0
 10
68.755847875498915
 20
71.297341705627346
 30
0.0
 42
-0.0121084129619269
 70
     1
 50
360.0
  0
VERTEX
  5
14A
  8
0
 10
68.885468788859455
 20
71.106439750432756
 30
0.0
 42
-0.0153866319689034
 50
360.0
  0
VERTEX
  5
14B
  8
0
 10
68.993903684289762
 20
70.926157003587164
 30
0.0
 42
-0.0086389519928652
 70
     1
 50
360.0
  0
VERTEX
  5
14C
  8
0
 10
69.171360591984183
 20
70.596207715198361
 30
0.0
 42
-0.0191754084647297
 50
360.0
  0
VERTEX
  5
14D
  8
0
 10
69.375627306021954
 20
70.159862261663534
 30
0.0
 42
-0.0209966230235591
 70
     1
 50
360.0
  0
VERTEX
  5
14E
  8
0
 10
69.529607727998496
 20
69.747649778464435
 30
0.0
 42
-0.017801581752213
 50
360.0
  0
VERTEX
  5
14F
  8
0
 10
69.570226456723589
 20
69.606345548015625
 30
0.0
 42
-0.0049219556093702
 70
     1
 50
360.0
  0
VERTEX
  5
150
  8
0
 10
69.693730800162683
 20
69.089285862032952
 30
0.0
 42
-0.0271277578386433
 50
360.0
  0
VERTEX
  5
151
  8
0
 10
69.728170278771685
 20
68.889111974701919
 30
0.0
 42
-0.0147217987286529
 70
     1
 50
360.0
  0
VERTEX
  5
152
  8
0
 10
69.760561308700304
 20
68.516432680701442
 30
0.0
 50
360.0
  0
SEQEND
  5
153
  8
0
  0
LINE
  5
154
  8
0
 10
69.260561308700488
 20
40.832200345678679
 30
0.0
 11
69.760561308700474
 21
41.332200345678693
 31
0.0
  0
LINE
  5
155
  8
0
 10
53.260561308700503
 20
40.832200345678693
 30
0.0
 11
52.760561308700503
 21
41.332200345678693
 31
0.0
  0
TEXT
  5
26D
  8
0
 62
     3
 10
0.0
 20
0.0
 30
0.0
 40
5.0
  1
BJ760-10002
  7
STANDARD1
  0
ENDSEC
  0
EOF
