  0
SECTION
  2
HEADER
  9
$ACADVER
  1
AC1009
  9
$INSBASE
 10
0.0
 20
0.0
 30
0.0
  9
$EXTMIN
 10
0.0
 20
-2.960436562073669
 30
0.0
  9
$EXTMAX
 10
116.4870395634379037
 20
136.7976471795278997
 30
0.0
  9
$LIMMIN
 10
0.0
 20
0.0
  9
$LIMMAX
 10
187.5
 20
135.0
  9
$ORTHOMODE
 70
     1
  9
$REGENMODE
 70
     1
  9
$FILLMODE
 70
     1
  9
$QTEXTMODE
 70
     0
  9
$MIRRTEXT
 70
     0
  9
$DRAGMODE
 70
     2
  9
$LTSCALE
 40
5.0
  9
$OSMODE
 70
    37
  9
$ATTMODE
 70
     1
  9
$TEXTSIZE
 40
2.500000000000048
  9
$TRACEWID
 40
0.05
  9
$TEXTSTYLE
  7
STANDARD
  9
$CLAYER
  8
1
  9
$CELTYPE
  6
BYLAYER
  9
$CECOLOR
 62
   256
  9
$DIMSCALE
 40
0.5
  9
$DIMASZ
 40
3.0
  9
$DIMEXO
 40
2.0
  9
$DIMDLI
 40
10.0
  9
$DIMRND
 40
0.0
  9
$DIMDLE
 40
0.0
  9
$DIMEXE
 40
2.0
  9
$DIMTP
 40
0.0
  9
$DIMTM
 40
0.0
  9
$DIMTXT
 40
3.2000000000000002
  9
$DIMCEN
 40
0.0
  9
$DIMTSZ
 40
0.0
  9
$DIMTOL
 70
     0
  9
$DIMLIM
 70
     0
  9
$DIMTIH
 70
     0
  9
$DIMTOH
 70
     0
  9
$DIMSE1
 70
     0
  9
$DIMSE2
 70
     0
  9
$DIMTAD
 70
     1
  9
$DIMZIN
 70
     0
  9
$DIMBLK
  1

  9
$DIMASO
 70
     1
  9
$DIMSHO
 70
     0
  9
$DIMPOST
  1

  9
$DIMAPOST
  1

  9
$DIMALT
 70
     0
  9
$DIMALTD
 70
     2
  9
$DIMALTF
 40
25.3999999999999986
  9
$DIMLFAC
 40
1.0
  9
$DIMTOFL
 70
     1
  9
$DIMTVP
 40
1.6000000000000001
  9
$DIMTIX
 70
     1
  9
$DIMSOXD
 70
     0
  9
$DIMSAH
 70
     0
  9
$DIMBLK1
  1

  9
$DIMBLK2
  1

  9
$DIMSTYLE
  2
STANDARD
  9
$DIMCLRD
 70
     0
  9
$DIMCLRE
 70
     0
  9
$DIMCLRT
 70
     0
  9
$DIMTFAC
 40
1.0
  9
$DIMGAP
 40
0.09
  9
$LUNITS
 70
     2
  9
$LUPREC
 70
     4
  9
$SKETCHINC
 40
0.1
  9
$FILLETRAD
 40
0.0
  9
$AUNITS
 70
     0
  9
$AUPREC
 70
     4
  9
$MENU
  1
E:\r13\win\SUPPORT\ACAD
  9
$ELEVATION
 40
0.0
  9
$PELEVATION
 40
0.0
  9
$THICKNESS
 40
0.0
  9
$LIMCHECK
 70
     0
  9
$BLIPMODE
 70
     0
  9
$CHAMFERA
 40
0.0
  9
$CHAMFERB
 40
0.0
  9
$SKPOLY
 70
     0
  9
$TDCREATE
 40
2449839.773148147854954
  9
$TDUPDATE
 40
2460580.571284722071141
  9
$TDINDWG
 40
0.1687060301
  9
$TDUSRTIMER
 40
2456598.4112192238681018
  9
$USRTIMER
 70
     1
  9
$ANGBASE
 50
0.0
  9
$ANGDIR
 70
     0
  9
$PDMODE
 70
    35
  9
$PDSIZE
 40
0.0
  9
$PLINEWID
 40
0.0
  9
$COORDS
 70
     1
  9
$SPLFRAME
 70
     0
  9
$SPLINETYPE
 70
     6
  9
$SPLINESEGS
 70
     8
  9
$ATTDIA
 70
     1
  9
$ATTREQ
 70
     1
  9
$HANDLING
 70
     1
  9
$HANDSEED
  5
140D
  9
$SURFTAB1
 70
     6
  9
$SURFTAB2
 70
     6
  9
$SURFTYPE
 70
     6
  9
$SURFU
 70
     6
  9
$SURFV
 70
     6
  9
$UCSNAME
  2

  9
$UCSORG
 10
0.0
 20
0.0
 30
0.0
  9
$UCSXDIR
 10
1.0
 20
0.0
 30
0.0
  9
$UCSYDIR
 10
0.0
 20
1.0
 30
0.0
  9
$PUCSNAME
  2

  9
$PUCSORG
 10
0.0
 20
0.0
 30
0.0
  9
$PUCSXDIR
 10
1.0
 20
0.0
 30
0.0
  9
$PUCSYDIR
 10
0.0
 20
1.0
 30
0.0
  9
$USERI1
 70
     0
  9
$USERI2
 70
     1
  9
$USERI3
 70
     1
  9
$USERI4
 70
     0
  9
$USERI5
 70
     0
  9
$USERR1
 40
0.0
  9
$USERR2
 40
0.0
  9
$USERR3
 40
0.0
  9
$USERR4
 40
0.0
  9
$USERR5
 40
0.0
  9
$WORLDVIEW
 70
     1
  9
$SHADEDGE
 70
     3
  9
$SHADEDIF
 70
    70
  9
$TILEMODE
 70
     1
  9
$MAXACTVP
 70
    16
  9
$PLIMCHECK
 70
     0
  9
$PEXTMIN
 10
1.0000000000000000E+20
 20
1.0000000000000000E+20
 30
1.0000000000000000E+20
  9
$PEXTMAX
 10
-1.0000000000000000E+20
 20
-1.0000000000000000E+20
 30
-1.0000000000000000E+20
  9
$PLIMMIN
 10
0.0
 20
0.0
  9
$PLIMMAX
 10
12.0
 20
9.0
  9
$UNITMODE
 70
     0
  9
$VISRETAIN
 70
     0
  9
$PLINEGEN
 70
     0
  9
$PSLTSCALE
 70
     0
  0
ENDSEC
  0
SECTION
  2
TABLES
  0
TABLE
  2
VPORT
 70
     1
  0
VPORT
  2
*ACTIVE
 70
     0
 10
0.0
 20
0.0
 11
1.0
 21
1.0
 12
176.1391625615763132
 22
75.0
 13
0.0
 23
0.0
 14
5.0
 24
5.0
 15
5.0
 25
5.0
 16
0.0
 26
0.0
 36
1.0
 17
0.0
 27
0.0
 37
0.0
 40
150.0
 41
2.3485221674876842
 42
50.0
 43
0.0
 44
0.0
 50
0.0
 51
0.0
 71
     0
 72
   500
 73
     1
 74
     0
 75
     0
 76
     0
 77
     0
 78
     2
  0
ENDTAB
  0
TABLE
  2
LTYPE
 70
     4
  0
LTYPE
  2
CONTINUOUS
 70
     0
  3
Solid Line
 72
    65
 73
     0
 40
0.0
  0
LTYPE
  2
CENTER
 70
     0
  3
____ _ ____ _ ____ _ ____ _ ____ _ ____ _ ____
 72
    65
 73
     4
 40
2.0
 49
1.25
 49
-0.25
 49
0.25
 49
-0.25
  0
LTYPE
  2
HIDDEN
 70
     0
  3
_ _ _ _ _ _ _ _ _ _ _ _ _ _ _ _ _ _ _ _ _ _ _
 72
    65
 73
     2
 40
0.375
 49
0.25
 49
-0.125
  0
LTYPE
  2
PHANTOM2
 70
     0
  3
___ _ _ ___ _ _ ___ _ _ ___ _ _
 72
    65
 73
     6
 40
1.25
 49
0.625
 49
-0.125
 49
0.125
 49
-0.125
 49
0.125
 49
-0.125
  0
ENDTAB
  0
TABLE
  2
LAYER
 70
     5
  0
LAYER
  2
0
 70
     0
 62
     7
  6
CONTINUOUS
  0
LAYER
  2
1
 70
     0
 62
     1
  6
CENTER
  0
LAYER
  2
3
 70
     0
 62
     3
  6
CONTINUOUS
  0
LAYER
  2
2
 70
     0
 62
     2
  6
HIDDEN
  0
LAYER
  2
DEFPOINTS
 70
     0
 62
     7
  6
CONTINUOUS
  0
ENDTAB
  0
TABLE
  2
STYLE
 70
     2
  0
STYLE
  2
STANDARD
 70
     0
 40
0.0
 41
1.0
 50
0.0
 71
     0
 42
2.500000000000048
  3
TXT
  4
BIGFONT
  0
STYLE
  2
STANDARD1
 70
     0
 40
0.0
 41
1.0
 50
0.0
 71
     0
 42
3.0
  3
txt
  4

  0
ENDTAB
  0
TABLE
  2
VIEW
 70
     1
  0
VIEW
  2
ALL
 70
     0
 40
135.0
 10
106.6284453781511985
 20
67.5
 41
0.0
 11
0.0
 21
0.0
 31
1.0
 12
0.0
 22
0.0
 32
0.0
 42
50.0
 43
0.0
 44
0.0
 50
0.0
 71
     0
  0
ENDTAB
  0
TABLE
  2
UCS
 70
     0
  0
ENDTAB
  0
TABLE
  2
APPID
 70
    40
  0
APPID
  2
ACAD
 70
     0
  0
APPID
  2
DCO15
 70
     0
  0
APPID
  2
GENIUS_GENOREF_13
 70
     0
  0
APPID
  2
GENIUS_GENOENT_13
 70
     0
  0
APPID
  2
GENIUS_GENBH_13
 70
     0
  0
APPID
  2
GENIUS_GENOBJ_13
 70
     0
  0
APPID
  2
GENIUS_GENODEF_13
 70
     0
  0
APPID
  2
GENIUS_GENOLIS_13
 70
     0
  0
APPID
  2
GENIUS_GENOBJ-NBEHI-BHF_13
 70
     0
  0
APPID
  2
GENIUS_GENOBJ-NBEHI-BHB_13
 70
     0
  0
APPID
  2
GENIUS_GENOBJ-F-PART_13
 70
     0
  0
APPID
  2
GENIUS_GEFSTDP_13
 70
     0
  0
APPID
  2
GENIUS_GENOBJ-N-RSSYM_13
 70
     0
  0
APPID
  2
GENIUS_GENSYMENT_13
 70
     0
  0
APPID
  2
GENIUS_GENOBJ-N-TIT_13
 70
     0
  0
APPID
  2
GENIUS_GENTITLE_13
 70
     0
  0
APPID
  2
GENIUS_GENZVEED_13
 70
     0
  0
APPID
  2
GENIUS_GENOBJ-N-LEADER_13
 70
     0
  0
APPID
  2
GENIUS_GENOBJ-N-FIL_13
 70
     0
  0
APPID
  2
GENIUS_GENOBJ-N-SEC_13
 70
     0
  0
APPID
  2
GENIUS_GENOBJ-N-CRS_13
 70
     0
  0
APPID
  2
GENIUS_GENOBJ-N-ZOO_13
 70
     0
  0
APPID
  2
GENIUS_GENZOO_13
 70
     0
  0
APPID
  2
GENIUS_GENOBJ-F-TOL_13
 70
     0
  0
APPID
  2
GENIUS_GENFIL_13
 70
     0
  0
APPID
  2
GENIUS_GENOBJ-N-CHA_13
 70
     0
  0
APPID
  2
_CALL_MAC$
 70
     0
  0
APPID
  2
ASM_BASE
 70
     0
  0
APPID
  2
ASM_EXPLO_VER_2_00
 70
     0
  0
APPID
  2
ASM_CADM_VER_12_00
 70
     0
  0
APPID
  2
ASM_BASEFORO
 70
     0
  0
APPID
  2
ASM_BASETRAVI
 70
     0
  0
APPID
  2
ASM_BASETRAVI1
 70
     0
  0
APPID
  2
ASM_GRUPPI
 70
     0
  0
APPID
  2
ASM_CADM_ALBERO
 70
     0
  0
APPID
  2
ASM_GOLE
 70
     0
  0
APPID
  2
ACAD_MLEADERVER
 70
     0
  0
APPID
  2
ACAD_NAV_VCDISPLAY
 70
     0
  0
APPID
  2
ACAD_EXEMPT_FROM_CAD_STANDARDS
 70
     0
  0
APPID
  2
ACAD_TC
 70
     0
  0
ENDTAB
  0
TABLE
  2
DIMSTYLE
 70
     1
  0
DIMSTYLE
  2
STANDARD
 70
     0
  3

  4

  5

  6

  7

 40
1.0
 41
0.18
 42
0.0625
 43
0.38
 44
0.18
 45
0.0
 46
0.0
 47
0.0
 48
0.0
140
0.18
141
0.09
142
0.0
143
25.3999999999999986
144
1.0
145
0.0
146
1.0
147
0.09
 71
     0
 72
     0
 73
     1
 74
     1
 75
     0
 76
     0
 77
     0
 78
     0
170
     0
171
     2
172
     0
173
     0
174
     0
175
     0
176
     0
177
     0
178
     0
  0
ENDTAB
  0
ENDSEC
  0
SECTION
  2
BLOCKS
  0
BLOCK
  8
0
  2
$MODEL_SPACE
 70
     0
 10
0.0
 20
0.0
 30
0.0
  3
$MODEL_SPACE
  1

  0
ENDBLK
  5
E9
  8
0
  0
BLOCK
 67
     1
  8
0
  2
$PAPER_SPACE
 70
     0
 10
0.0
 20
0.0
 30
0.0
  3
$PAPER_SPACE
  1

  0
ENDBLK
  5
E7
 67
     1
  8
0
  0
ENDSEC
  0
SECTION
  2
ENTITIES
  0
LINE
  5
F7C
  8
0
 10
19.8610173869642495
 20
38.9976471795279309
 30
0.0
 11
21.0610173869642416
 21
37.7976471795279281
 31
0.0
  0
LINE
  5
F7D
  8
0
 10
58.6610173869642466
 20
37.7976471795279281
 30
0.0
 11
59.8610173869642566
 21
38.9976471795279309
 31
0.0
  0
LINE
  5
F7E
  8
0
 10
59.8610173869642566
 20
52.5976471795278826
 30
0.0
 11
58.6610173869642466
 21
53.7976471795278997
 31
0.0
  0
LINE
  5
F7F
  8
0
 10
21.0610173869642416
 20
53.7976471795278997
 30
0.0
 11
19.8610173869642495
 21
52.5976471795278826
 31
0.0
  0
LINE
  5
F80
  8
0
 10
19.8610173869642495
 20
52.5976471795278826
 30
0.0
 11
19.8610173869642495
 21
38.9976471795279309
 31
0.0
  0
LINE
  5
F81
  8
0
 10
59.8610173869642566
 20
38.9976471795279309
 30
0.0
 11
59.8610173869642566
 21
52.5976471795278826
 31
0.0
  0
ARC
  5
F82
  8
0
 10
22.6610173869642715
 20
36.5976471795279394
 30
0.0
 40
1.199999999999988
 50
0.0
 51
90.0
  0
ARC
  5
F83
  8
0
 10
57.0610173869642523
 20
36.5976471795279394
 30
0.0
 40
1.2000000000000011
 50
90.0
 51
180.0
  0
LINE
  5
F84
  8
0
 10
23.8610173869642495
 20
30.9976471795279203
 30
0.0
 11
25.0610173869642701
 21
29.7976471795278997
 31
0.0
  0
LINE
  5
F85
  8
0
 10
54.6610173869642466
 20
29.7976471795278997
 30
0.0
 11
55.8610173869642566
 21
30.9976471795279203
 31
0.0
  0
LINE
  5
F86
  8
0
 10
23.8610173869642495
 20
36.5976471795279394
 30
0.0
 11
23.8610173869642495
 21
30.9976471795279203
 31
0.0
  0
LINE
  5
F87
  8
0
 10
55.8610173869642566
 20
30.9976471795279203
 30
0.0
 11
55.8610173869642566
 21
36.5976471795279394
 31
0.0
  0
LINE
  5
F88
  8
0
 10
19.8610173869642992
 20
38.9976471795279309
 30
0.0
 11
59.8610173869642566
 21
38.9976471795279309
 31
0.0
  0
LINE
  5
F89
  8
0
 10
21.0610173869642416
 20
37.7976471795279281
 30
0.0
 11
58.6610173869642466
 21
37.7976471795279281
 31
0.0
  0
LINE
  5
F8B
  8
0
 10
19.8610173869642992
 20
52.5976471795278826
 30
0.0
 11
59.8610173869642566
 21
52.5976471795278826
 31
0.0
  0
LINE
  5
F8C
  8
0
 10
58.6610173869642466
 20
53.7976471795278997
 30
0.0
 11
21.0610173869642416
 21
53.7976471795278997
 31
0.0
  0
LINE
  5
F8E
  8
0
 10
54.6610173869642466
 20
29.7976471795278997
 30
0.0
 11
25.0610173869642701
 21
29.7976471795278997
 31
0.0
  0
LINE
  5
F8F
  8
0
 10
55.8610173869642566
 20
30.9976471795279203
 30
0.0
 11
23.8610173869642495
 21
30.9976471795279203
 31
0.0
  0
LINE
  5
F90
  8
0
 10
23.8610173869642495
 20
36.5976471795279394
 30
0.0
 11
55.8610173869642566
 21
36.5976471795279394
 31
0.0
  0
LINE
  5
F96
  8
2
 10
30.2786785682687913
 20
53.7976471795278997
 30
0.0
 11
34.8080173869642522
 21
36.8939245834623719
 31
0.0
  0
LINE
  5
F97
  8
2
 10
49.4433562056597111
 20
29.7976471795278997
 30
0.0
 11
44.9140173869642396
 21
46.7013697755934629
 31
0.0
  0
LINE
  5
F98
  8
2
 10
34.8080173869642522
 20
36.8939245834623719
 30
0.0
 11
34.8080173869642522
 21
29.7976471795278997
 31
0.0
  0
LINE
  5
F99
  8
2
 10
44.9140173869642396
 20
46.7013697755934629
 30
0.0
 11
44.9140173869642396
 21
53.7976471795278997
 31
0.0
  0
POLYLINE
  5
F9E
  8
0
 10
38.5755216430026451
 20
119.6583212612574698
 30
0.0
 66
     1
 70
     8
  0
VERTEX
  8
0
  5
1309
 10
38.5755
 20
119.658
 30
0.00000
  70
    32
  0
VERTEX
  8
0
  5
130A
 10
38.3966
 20
119.711
 30
0.00000
  70
    32
  0
VERTEX
  8
0
  5
130B
 10
38.2162
 20
119.758
 30
0.00000
  70
    32
  0
VERTEX
  8
0
  5
130C
 10
38.0344
 20
119.800
 30
0.00000
  70
    32
  0
VERTEX
  8
0
  5
130D
 10
37.8514
 20
119.836
 30
0.00000
  70
    32
  0
VERTEX
  8
0
  5
130E
 10
37.6674
 20
119.868
 30
0.00000
  70
    32
  0
VERTEX
  8
0
  5
130F
 10
37.4825
 20
119.894
 30
0.00000
  70
    32
  0
VERTEX
  8
0
  5
1310
 10
37.2969
 20
119.915
 30
0.00000
  70
    32
  0
VERTEX
  8
0
  5
1311
 10
37.1107
 20
119.931
 30
0.00000
  70
    32
  0
VERTEX
  8
0
  5
1312
 10
36.9241
 20
119.942
 30
0.00000
  70
    32
  0
VERTEX
  8
0
  5
1313
 10
36.7373
 20
119.947
 30
0.00000
  70
    32
  0
VERTEX
  8
0
  5
1314
 10
36.5504
 20
119.947
 30
0.00000
  70
    32
  0
VERTEX
  8
0
  5
1315
 10
36.3636
 20
119.942
 30
0.00000
  70
    32
  0
VERTEX
  8
0
  5
1316
 10
36.1770
 20
119.931
 30
0.00000
  70
    32
  0
VERTEX
  8
0
  5
1317
 10
35.9909
 20
119.915
 30
0.00000
  70
    32
  0
VERTEX
  8
0
  5
1318
 10
35.8053
 20
119.894
 30
0.00000
  70
    32
  0
VERTEX
  8
0
  5
1319
 10
35.6204
 20
119.867
 30
0.00000
  70
    32
  0
VERTEX
  8
0
  5
131A
 10
35.4364
 20
119.836
 30
0.00000
  70
    32
  0
VERTEX
  8
0
  5
131B
 10
35.2534
 20
119.799
 30
0.00000
  70
    32
  0
VERTEX
  8
0
  5
131C
 10
35.0717
 20
119.757
 30
0.00000
  70
    32
  0
VERTEX
  8
0
  5
131D
 10
34.8913
 20
119.710
 30
0.00000
  70
    32
  0
VERTEX
  8
0
  5
131E
 10
34.7124
 20
119.657
 30
0.00000
  70
    32
  0
VERTEX
  8
0
  5
131F
 10
34.5352
 20
119.600
 30
0.00000
  70
    32
  0
VERTEX
  8
0
  5
1320
 10
34.3597
 20
119.538
 30
0.00000
  70
    32
  0
VERTEX
  8
0
  5
1321
 10
34.1863
 20
119.470
 30
0.00000
  70
    32
  0
VERTEX
  8
0
  5
1322
 10
34.0150
 20
119.398
 30
0.00000
  70
    32
  0
VERTEX
  8
0
  5
1323
 10
33.8460
 20
119.321
 30
0.00000
  70
    32
  0
VERTEX
  8
0
  5
1324
 10
33.6793
 20
119.239
 30
0.00000
  70
    32
  0
VERTEX
  8
0
  5
1325
 10
33.5152
 20
119.153
 30
0.00000
  70
    32
  0
VERTEX
  8
0
  5
1326
 10
33.3539
 20
119.062
 30
0.00000
  70
    32
  0
VERTEX
  8
0
  5
1327
 10
33.1953
 20
118.966
 30
0.00000
  70
    32
  0
VERTEX
  8
0
  5
1328
 10
33.0397
 20
118.866
 30
0.00000
  70
    32
  0
VERTEX
  8
0
  5
1329
 10
32.8873
 20
118.762
 30
0.00000
  70
    32
  0
VERTEX
  8
0
  5
132A
 10
32.7380
 20
118.653
 30
0.00000
  70
    32
  0
VERTEX
  8
0
  5
132B
 10
32.5922
 20
118.540
 30
0.00000
  70
    32
  0
VERTEX
  8
0
  5
132C
 10
32.4498
 20
118.423
 30
0.00000
  70
    32
  0
VERTEX
  8
0
  5
132D
 10
32.3111
 20
118.302
 30
0.00000
  70
    32
  0
VERTEX
  8
0
  5
132E
 10
32.1760
 20
118.178
 30
0.00000
  70
    32
  0
VERTEX
  8
0
  5
132F
 10
32.0449
 20
118.049
 30
0.00000
  70
    32
  0
VERTEX
  8
0
  5
1330
 10
31.9177
 20
117.917
 30
0.00000
  70
    32
  0
VERTEX
  8
0
  5
1331
 10
31.7946
 20
117.781
 30
0.00000
  70
    32
  0
VERTEX
  8
0
  5
1332
 10
31.6756
 20
117.642
 30
0.00000
  70
    32
  0
VERTEX
  8
0
  5
1333
 10
31.5609
 20
117.499
 30
0.00000
  70
    32
  0
VERTEX
  8
0
  5
1334
 10
31.4507
 20
117.353
 30
0.00000
  70
    32
  0
VERTEX
  8
0
  5
1335
 10
31.3449
 20
117.204
 30
0.00000
  70
    32
  0
VERTEX
  8
0
  5
1336
 10
31.2436
 20
117.053
 30
0.00000
  70
    32
  0
VERTEX
  8
0
  5
1337
 10
31.1470
 20
116.898
 30
0.00000
  70
    32
  0
VERTEX
  8
0
  5
1338
 10
31.0552
 20
116.741
 30
0.00000
  70
    32
  0
VERTEX
  8
0
  5
1339
 10
30.9682
 20
116.581
 30
0.00000
  70
    32
  0
VERTEX
  8
0
  5
133A
 10
30.8860
 20
116.419
 30
0.00000
  70
    32
  0
VERTEX
  8
0
  5
133B
 10
30.8088
 20
116.255
 30
0.00000
  70
    32
  0
VERTEX
  8
0
  5
133C
 10
30.7367
 20
116.088
 30
0.00000
  70
    32
  0
VERTEX
  8
0
  5
133D
 10
30.6697
 20
115.920
 30
0.00000
  70
    32
  0
VERTEX
  8
0
  5
133E
 10
30.6077
 20
115.749
 30
0.00000
  70
    32
  0
VERTEX
  8
0
  5
133F
 10
30.5510
 20
115.577
 30
0.00000
  70
    32
  0
VERTEX
  8
0
  5
1340
 10
30.4996
 20
115.404
 30
0.00000
  70
    32
  0
VERTEX
  8
0
  5
1341
 10
30.4534
 20
115.229
 30
0.00000
  70
    32
  0
VERTEX
  8
0
  5
1342
 10
30.4126
 20
115.053
 30
0.00000
  70
    32
  0
VERTEX
  8
0
  5
1343
 10
30.3772
 20
114.875
 30
0.00000
  70
    32
  0
VERTEX
  8
0
  5
1344
 10
30.3471
 20
114.697
 30
0.00000
  70
    32
  0
VERTEX
  8
0
  5
1345
 10
30.3225
 20
114.518
 30
0.00000
  70
    32
  0
VERTEX
  8
0
  5
1346
 10
30.3034
 20
114.339
 30
0.00000
  70
    32
  0
VERTEX
  8
0
  5
1347
 10
30.2896
 20
114.159
 30
0.00000
  70
    32
  0
VERTEX
  8
0
  5
1348
 10
30.2814
 20
113.978
 30
0.00000
  70
    32
  0
VERTEX
  8
0
  5
1349
 10
30.2787
 20
113.798
 30
0.00000
  70
    32
  0
VERTEX
  8
0
  5
134A
 10
30.2814
 20
113.617
 30
0.00000
  70
    32
  0
VERTEX
  8
0
  5
134B
 10
30.2896
 20
113.437
 30
0.00000
  70
    32
  0
VERTEX
  8
0
  5
134C
 10
30.3034
 20
113.257
 30
0.00000
  70
    32
  0
VERTEX
  8
0
  5
134D
 10
30.3225
 20
113.077
 30
0.00000
  70
    32
  0
VERTEX
  8
0
  5
134E
 10
30.3471
 20
112.898
 30
0.00000
  70
    32
  0
VERTEX
  8
0
  5
134F
 10
30.3772
 20
112.720
 30
0.00000
  70
    32
  0
VERTEX
  8
0
  5
1350
 10
30.4126
 20
112.543
 30
0.00000
  70
    32
  0
VERTEX
  8
0
  5
1351
 10
30.4534
 20
112.367
 30
0.00000
  70
    32
  0
VERTEX
  8
0
  5
1352
 10
30.4996
 20
112.192
 30
0.00000
  70
    32
  0
VERTEX
  8
0
  5
1353
 10
30.5510
 20
112.018
 30
0.00000
  70
    32
  0
VERTEX
  8
0
  5
1354
 10
30.6077
 20
111.846
 30
0.00000
  70
    32
  0
VERTEX
  8
0
  5
1355
 10
30.6697
 20
111.676
 30
0.00000
  70
    32
  0
VERTEX
  8
0
  5
1356
 10
30.7367
 20
111.507
 30
0.00000
  70
    32
  0
VERTEX
  8
0
  5
1357
 10
30.8088
 20
111.341
 30
0.00000
  70
    32
  0
VERTEX
  8
0
  5
1358
 10
30.8860
 20
111.176
 30
0.00000
  70
    32
  0
VERTEX
  8
0
  5
1359
 10
30.9682
 20
111.014
 30
0.00000
  70
    32
  0
VERTEX
  8
0
  5
135A
 10
31.0552
 20
110.854
 30
0.00000
  70
    32
  0
VERTEX
  8
0
  5
135B
 10
31.1470
 20
110.697
 30
0.00000
  70
    32
  0
VERTEX
  8
0
  5
135C
 10
31.2436
 20
110.543
 30
0.00000
  70
    32
  0
VERTEX
  8
0
  5
135D
 10
31.3449
 20
110.391
 30
0.00000
  70
    32
  0
VERTEX
  8
0
  5
135E
 10
31.4507
 20
110.242
 30
0.00000
  70
    32
  0
VERTEX
  8
0
  5
135F
 10
31.5609
 20
110.096
 30
0.00000
  70
    32
  0
VERTEX
  8
0
  5
1360
 10
31.6756
 20
109.954
 30
0.00000
  70
    32
  0
VERTEX
  8
0
  5
1361
 10
31.7946
 20
109.814
 30
0.00000
  70
    32
  0
VERTEX
  8
0
  5
1362
 10
31.9177
 20
109.679
 30
0.00000
  70
    32
  0
VERTEX
  8
0
  5
1363
 10
32.0449
 20
109.546
 30
0.00000
  70
    32
  0
VERTEX
  8
0
  5
1364
 10
32.1760
 20
109.418
 30
0.00000
  70
    32
  0
VERTEX
  8
0
  5
1365
 10
32.3111
 20
109.293
 30
0.00000
  70
    32
  0
VERTEX
  8
0
  5
1366
 10
32.4498
 20
109.172
 30
0.00000
  70
    32
  0
VERTEX
  8
0
  5
1367
 10
32.5922
 20
109.055
 30
0.00000
  70
    32
  0
VERTEX
  8
0
  5
1368
 10
32.7380
 20
108.942
 30
0.00000
  70
    32
  0
VERTEX
  8
0
  5
1369
 10
32.8873
 20
108.833
 30
0.00000
  70
    32
  0
VERTEX
  8
0
  5
136A
 10
33.0397
 20
108.729
 30
0.00000
  70
    32
  0
VERTEX
  8
0
  5
136B
 10
33.1953
 20
108.629
 30
0.00000
  70
    32
  0
VERTEX
  8
0
  5
136C
 10
33.3539
 20
108.533
 30
0.00000
  70
    32
  0
VERTEX
  8
0
  5
136D
 10
33.5152
 20
108.442
 30
0.00000
  70
    32
  0
VERTEX
  8
0
  5
136E
 10
33.6793
 20
108.356
 30
0.00000
  70
    32
  0
VERTEX
  8
0
  5
136F
 10
33.8460
 20
108.274
 30
0.00000
  70
    32
  0
VERTEX
  8
0
  5
1370
 10
34.0150
 20
108.197
 30
0.00000
  70
    32
  0
VERTEX
  8
0
  5
1371
 10
34.1863
 20
108.125
 30
0.00000
  70
    32
  0
VERTEX
  8
0
  5
1372
 10
34.3597
 20
108.058
 30
0.00000
  70
    32
  0
VERTEX
  8
0
  5
1373
 10
34.5352
 20
107.995
 30
0.00000
  70
    32
  0
VERTEX
  8
0
  5
1374
 10
34.7124
 20
107.938
 30
0.00000
  70
    32
  0
VERTEX
  8
0
  5
1375
 10
34.8913
 20
107.886
 30
0.00000
  70
    32
  0
VERTEX
  8
0
  5
1376
 10
35.0717
 20
107.839
 30
0.00000
  70
    32
  0
VERTEX
  8
0
  5
1377
 10
35.2534
 20
107.796
 30
0.00000
  70
    32
  0
VERTEX
  8
0
  5
1378
 10
35.4364
 20
107.760
 30
0.00000
  70
    32
  0
VERTEX
  8
0
  5
1379
 10
35.6204
 20
107.728
 30
0.00000
  70
    32
  0
VERTEX
  8
0
  5
137A
 10
35.8053
 20
107.701
 30
0.00000
  70
    32
  0
VERTEX
  8
0
  5
137B
 10
35.9909
 20
107.680
 30
0.00000
  70
    32
  0
VERTEX
  8
0
  5
137C
 10
36.1770
 20
107.664
 30
0.00000
  70
    32
  0
VERTEX
  8
0
  5
137D
 10
36.3636
 20
107.654
 30
0.00000
  70
    32
  0
VERTEX
  8
0
  5
137E
 10
36.5504
 20
107.648
 30
0.00000
  70
    32
  0
VERTEX
  8
0
  5
137F
 10
36.7373
 20
107.648
 30
0.00000
  70
    32
  0
VERTEX
  8
0
  5
1380
 10
36.9241
 20
107.654
 30
0.00000
  70
    32
  0
VERTEX
  8
0
  5
1381
 10
37.1107
 20
107.664
 30
0.00000
  70
    32
  0
VERTEX
  8
0
  5
1382
 10
37.2969
 20
107.680
 30
0.00000
  70
    32
  0
VERTEX
  8
0
  5
1383
 10
37.4825
 20
107.701
 30
0.00000
  70
    32
  0
VERTEX
  8
0
  5
1384
 10
37.6674
 20
107.727
 30
0.00000
  70
    32
  0
VERTEX
  8
0
  5
1385
 10
37.8514
 20
107.759
 30
0.00000
  70
    32
  0
VERTEX
  8
0
  5
1386
 10
38.0344
 20
107.796
 30
0.00000
  70
    32
  0
VERTEX
  8
0
  5
1387
 10
38.2162
 20
107.838
 30
0.00000
  70
    32
  0
VERTEX
  8
0
  5
1388
 10
38.3966
 20
107.885
 30
0.00000
  70
    32
  0
VERTEX
  8
0
  5
1389
 10
38.5755
 20
107.937
 30
0.00000
  70
    32
  0
SEQEND
  8
0
  5
138A
  0
CIRCLE
  5
F9F
  8
0
 10
39.8610173869642495
 20
113.7976471795278997
 30
0.0
 40
18.8000000000000007
  0
CIRCLE
  5
FA1
  8
0
 10
39.8610173869642495
 20
113.7976471795278997
 30
0.0
 40
20.0000000000000107
  0
POLYLINE
  5
FA2
  8
2
 10
41.1465131309259817
 20
107.9369730977983153
 30
0.0
 66
     1
 70
     8
  0
VERTEX
  8
2
  5
138B
 10
41.1465
 20
107.937
 30
0.00000
  70
    32
  0
VERTEX
  8
2
  5
138C
 10
41.3254
 20
107.885
 30
0.00000
  70
    32
  0
VERTEX
  8
2
  5
138D
 10
41.5059
 20
107.838
 30
0.00000
  70
    32
  0
VERTEX
  8
2
  5
138E
 10
41.6876
 20
107.796
 30
0.00000
  70
    32
  0
VERTEX
  8
2
  5
138F
 10
41.8706
 20
107.759
 30
0.00000
  70
    32
  0
VERTEX
  8
2
  5
1390
 10
42.0546
 20
107.727
 30
0.00000
  70
    32
  0
VERTEX
  8
2
  5
1391
 10
42.2395
 20
107.701
 30
0.00000
  70
    32
  0
VERTEX
  8
2
  5
1392
 10
42.4251
 20
107.680
 30
0.00000
  70
    32
  0
VERTEX
  8
2
  5
1393
 10
42.6113
 20
107.664
 30
0.00000
  70
    32
  0
VERTEX
  8
2
  5
1394
 10
42.7979
 20
107.654
 30
0.00000
  70
    32
  0
VERTEX
  8
2
  5
1395
 10
42.9847
 20
107.648
 30
0.00000
  70
    32
  0
VERTEX
  8
2
  5
1396
 10
43.1716
 20
107.648
 30
0.00000
  70
    32
  0
VERTEX
  8
2
  5
1397
 10
43.3584
 20
107.654
 30
0.00000
  70
    32
  0
VERTEX
  8
2
  5
1398
 10
43.5450
 20
107.664
 30
0.00000
  70
    32
  0
VERTEX
  8
2
  5
1399
 10
43.7312
 20
107.680
 30
0.00000
  70
    32
  0
VERTEX
  8
2
  5
139A
 10
43.9168
 20
107.701
 30
0.00000
  70
    32
  0
VERTEX
  8
2
  5
139B
 10
44.1017
 20
107.728
 30
0.00000
  70
    32
  0
VERTEX
  8
2
  5
139C
 10
44.2857
 20
107.760
 30
0.00000
  70
    32
  0
VERTEX
  8
2
  5
139D
 10
44.4686
 20
107.796
 30
0.00000
  70
    32
  0
VERTEX
  8
2
  5
139E
 10
44.6504
 20
107.839
 30
0.00000
  70
    32
  0
VERTEX
  8
2
  5
139F
 10
44.8308
 20
107.886
 30
0.00000
  70
    32
  0
VERTEX
  8
2
  5
13A0
 10
45.0097
 20
107.938
 30
0.00000
  70
    32
  0
VERTEX
  8
2
  5
13A1
 10
45.1869
 20
107.995
 30
0.00000
  70
    32
  0
VERTEX
  8
2
  5
13A2
 10
45.3623
 20
108.058
 30
0.00000
  70
    32
  0
VERTEX
  8
2
  5
13A3
 10
45.5357
 20
108.125
 30
0.00000
  70
    32
  0
VERTEX
  8
2
  5
13A4
 10
45.7070
 20
108.197
 30
0.00000
  70
    32
  0
VERTEX
  8
2
  5
13A5
 10
45.8761
 20
108.274
 30
0.00000
  70
    32
  0
VERTEX
  8
2
  5
13A6
 10
46.0427
 20
108.356
 30
0.00000
  70
    32
  0
VERTEX
  8
2
  5
13A7
 10
46.2068
 20
108.442
 30
0.00000
  70
    32
  0
VERTEX
  8
2
  5
13A8
 10
46.3682
 20
108.533
 30
0.00000
  70
    32
  0
VERTEX
  8
2
  5
13A9
 10
46.5267
 20
108.629
 30
0.00000
  70
    32
  0
VERTEX
  8
2
  5
13AA
 10
46.6823
 20
108.729
 30
0.00000
  70
    32
  0
VERTEX
  8
2
  5
13AB
 10
46.8348
 20
108.833
 30
0.00000
  70
    32
  0
VERTEX
  8
2
  5
13AC
 10
46.9840
 20
108.942
 30
0.00000
  70
    32
  0
VERTEX
  8
2
  5
13AD
 10
47.1299
 20
109.055
 30
0.00000
  70
    32
  0
VERTEX
  8
2
  5
13AE
 10
47.2722
 20
109.172
 30
0.00000
  70
    32
  0
VERTEX
  8
2
  5
13AF
 10
47.4110
 20
109.293
 30
0.00000
  70
    32
  0
VERTEX
  8
2
  5
13B0
 10
47.5460
 20
109.418
 30
0.00000
  70
    32
  0
VERTEX
  8
2
  5
13B1
 10
47.6772
 20
109.546
 30
0.00000
  70
    32
  0
VERTEX
  8
2
  5
13B2
 10
47.8044
 20
109.679
 30
0.00000
  70
    32
  0
VERTEX
  8
2
  5
13B3
 10
47.9275
 20
109.814
 30
0.00000
  70
    32
  0
VERTEX
  8
2
  5
13B4
 10
48.0464
 20
109.954
 30
0.00000
  70
    32
  0
VERTEX
  8
2
  5
13B5
 10
48.1611
 20
110.096
 30
0.00000
  70
    32
  0
VERTEX
  8
2
  5
13B6
 10
48.2714
 20
110.242
 30
0.00000
  70
    32
  0
VERTEX
  8
2
  5
13B7
 10
48.3772
 20
110.391
 30
0.00000
  70
    32
  0
VERTEX
  8
2
  5
13B8
 10
48.4784
 20
110.543
 30
0.00000
  70
    32
  0
VERTEX
  8
2
  5
13B9
 10
48.5750
 20
110.697
 30
0.00000
  70
    32
  0
VERTEX
  8
2
  5
13BA
 10
48.6668
 20
110.854
 30
0.00000
  70
    32
  0
VERTEX
  8
2
  5
13BB
 10
48.7539
 20
111.014
 30
0.00000
  70
    32
  0
VERTEX
  8
2
  5
13BC
 10
48.8360
 20
111.176
 30
0.00000
  70
    32
  0
VERTEX
  8
2
  5
13BD
 10
48.9132
 20
111.341
 30
0.00000
  70
    32
  0
VERTEX
  8
2
  5
13BE
 10
48.9853
 20
111.507
 30
0.00000
  70
    32
  0
VERTEX
  8
2
  5
13BF
 10
49.0524
 20
111.676
 30
0.00000
  70
    32
  0
VERTEX
  8
2
  5
13C0
 10
49.1143
 20
111.846
 30
0.00000
  70
    32
  0
VERTEX
  8
2
  5
13C1
 10
49.1710
 20
112.018
 30
0.00000
  70
    32
  0
VERTEX
  8
2
  5
13C2
 10
49.2224
 20
112.192
 30
0.00000
  70
    32
  0
VERTEX
  8
2
  5
13C3
 10
49.2686
 20
112.367
 30
0.00000
  70
    32
  0
VERTEX
  8
2
  5
13C4
 10
49.3094
 20
112.543
 30
0.00000
  70
    32
  0
VERTEX
  8
2
  5
13C5
 10
49.3449
 20
112.720
 30
0.00000
  70
    32
  0
VERTEX
  8
2
  5
13C6
 10
49.3749
 20
112.898
 30
0.00000
  70
    32
  0
VERTEX
  8
2
  5
13C7
 10
49.3995
 20
113.077
 30
0.00000
  70
    32
  0
VERTEX
  8
2
  5
13C8
 10
49.4187
 20
113.257
 30
0.00000
  70
    32
  0
VERTEX
  8
2
  5
13C9
 10
49.4324
 20
113.437
 30
0.00000
  70
    32
  0
VERTEX
  8
2
  5
13CA
 10
49.4406
 20
113.617
 30
0.00000
  70
    32
  0
VERTEX
  8
2
  5
13CB
 10
49.4434
 20
113.798
 30
0.00000
  70
    32
  0
VERTEX
  8
2
  5
13CC
 10
49.4406
 20
113.978
 30
0.00000
  70
    32
  0
VERTEX
  8
2
  5
13CD
 10
49.4324
 20
114.159
 30
0.00000
  70
    32
  0
VERTEX
  8
2
  5
13CE
 10
49.4187
 20
114.339
 30
0.00000
  70
    32
  0
VERTEX
  8
2
  5
13CF
 10
49.3995
 20
114.518
 30
0.00000
  70
    32
  0
VERTEX
  8
2
  5
13D0
 10
49.3749
 20
114.697
 30
0.00000
  70
    32
  0
VERTEX
  8
2
  5
13D1
 10
49.3449
 20
114.875
 30
0.00000
  70
    32
  0
VERTEX
  8
2
  5
13D2
 10
49.3094
 20
115.053
 30
0.00000
  70
    32
  0
VERTEX
  8
2
  5
13D3
 10
49.2686
 20
115.229
 30
0.00000
  70
    32
  0
VERTEX
  8
2
  5
13D4
 10
49.2224
 20
115.404
 30
0.00000
  70
    32
  0
VERTEX
  8
2
  5
13D5
 10
49.1710
 20
115.577
 30
0.00000
  70
    32
  0
VERTEX
  8
2
  5
13D6
 10
49.1143
 20
115.749
 30
0.00000
  70
    32
  0
VERTEX
  8
2
  5
13D7
 10
49.0524
 20
115.920
 30
0.00000
  70
    32
  0
VERTEX
  8
2
  5
13D8
 10
48.9853
 20
116.088
 30
0.00000
  70
    32
  0
VERTEX
  8
2
  5
13D9
 10
48.9132
 20
116.255
 30
0.00000
  70
    32
  0
VERTEX
  8
2
  5
13DA
 10
48.8360
 20
116.419
 30
0.00000
  70
    32
  0
VERTEX
  8
2
  5
13DB
 10
48.7539
 20
116.581
 30
0.00000
  70
    32
  0
VERTEX
  8
2
  5
13DC
 10
48.6668
 20
116.741
 30
0.00000
  70
    32
  0
VERTEX
  8
2
  5
13DD
 10
48.5750
 20
116.898
 30
0.00000
  70
    32
  0
VERTEX
  8
2
  5
13DE
 10
48.4784
 20
117.053
 30
0.00000
  70
    32
  0
VERTEX
  8
2
  5
13DF
 10
48.3772
 20
117.204
 30
0.00000
  70
    32
  0
VERTEX
  8
2
  5
13E0
 10
48.2714
 20
117.353
 30
0.00000
  70
    32
  0
VERTEX
  8
2
  5
13E1
 10
48.1611
 20
117.499
 30
0.00000
  70
    32
  0
VERTEX
  8
2
  5
13E2
 10
48.0464
 20
117.642
 30
0.00000
  70
    32
  0
VERTEX
  8
2
  5
13E3
 10
47.9275
 20
117.781
 30
0.00000
  70
    32
  0
VERTEX
  8
2
  5
13E4
 10
47.8044
 20
117.917
 30
0.00000
  70
    32
  0
VERTEX
  8
2
  5
13E5
 10
47.6772
 20
118.049
 30
0.00000
  70
    32
  0
VERTEX
  8
2
  5
13E6
 10
47.5460
 20
118.178
 30
0.00000
  70
    32
  0
VERTEX
  8
2
  5
13E7
 10
47.4110
 20
118.302
 30
0.00000
  70
    32
  0
VERTEX
  8
2
  5
13E8
 10
47.2722
 20
118.423
 30
0.00000
  70
    32
  0
VERTEX
  8
2
  5
13E9
 10
47.1299
 20
118.540
 30
0.00000
  70
    32
  0
VERTEX
  8
2
  5
13EA
 10
46.9840
 20
118.653
 30
0.00000
  70
    32
  0
VERTEX
  8
2
  5
13EB
 10
46.8348
 20
118.762
 30
0.00000
  70
    32
  0
VERTEX
  8
2
  5
13EC
 10
46.6823
 20
118.866
 30
0.00000
  70
    32
  0
VERTEX
  8
2
  5
13ED
 10
46.5267
 20
118.966
 30
0.00000
  70
    32
  0
VERTEX
  8
2
  5
13EE
 10
46.3682
 20
119.062
 30
0.00000
  70
    32
  0
VERTEX
  8
2
  5
13EF
 10
46.2068
 20
119.153
 30
0.00000
  70
    32
  0
VERTEX
  8
2
  5
13F0
 10
46.0427
 20
119.239
 30
0.00000
  70
    32
  0
VERTEX
  8
2
  5
13F1
 10
45.8761
 20
119.321
 30
0.00000
  70
    32
  0
VERTEX
  8
2
  5
13F2
 10
45.7070
 20
119.398
 30
0.00000
  70
    32
  0
VERTEX
  8
2
  5
13F3
 10
45.5357
 20
119.470
 30
0.00000
  70
    32
  0
VERTEX
  8
2
  5
13F4
 10
45.3623
 20
119.538
 30
0.00000
  70
    32
  0
VERTEX
  8
2
  5
13F5
 10
45.1869
 20
119.600
 30
0.00000
  70
    32
  0
VERTEX
  8
2
  5
13F6
 10
45.0097
 20
119.657
 30
0.00000
  70
    32
  0
VERTEX
  8
2
  5
13F7
 10
44.8308
 20
119.710
 30
0.00000
  70
    32
  0
VERTEX
  8
2
  5
13F8
 10
44.6504
 20
119.757
 30
0.00000
  70
    32
  0
VERTEX
  8
2
  5
13F9
 10
44.4686
 20
119.799
 30
0.00000
  70
    32
  0
VERTEX
  8
2
  5
13FA
 10
44.2857
 20
119.836
 30
0.00000
  70
    32
  0
VERTEX
  8
2
  5
13FB
 10
44.1017
 20
119.867
 30
0.00000
  70
    32
  0
VERTEX
  8
2
  5
13FC
 10
43.9168
 20
119.894
 30
0.00000
  70
    32
  0
VERTEX
  8
2
  5
13FD
 10
43.7312
 20
119.915
 30
0.00000
  70
    32
  0
VERTEX
  8
2
  5
13FE
 10
43.5450
 20
119.931
 30
0.00000
  70
    32
  0
VERTEX
  8
2
  5
13FF
 10
43.3584
 20
119.942
 30
0.00000
  70
    32
  0
VERTEX
  8
2
  5
1400
 10
43.1716
 20
119.947
 30
0.00000
  70
    32
  0
VERTEX
  8
2
  5
1401
 10
42.9847
 20
119.947
 30
0.00000
  70
    32
  0
VERTEX
  8
2
  5
1402
 10
42.7979
 20
119.942
 30
0.00000
  70
    32
  0
VERTEX
  8
2
  5
1403
 10
42.6113
 20
119.931
 30
0.00000
  70
    32
  0
VERTEX
  8
2
  5
1404
 10
42.4251
 20
119.915
 30
0.00000
  70
    32
  0
VERTEX
  8
2
  5
1405
 10
42.2395
 20
119.894
 30
0.00000
  70
    32
  0
VERTEX
  8
2
  5
1406
 10
42.0546
 20
119.868
 30
0.00000
  70
    32
  0
VERTEX
  8
2
  5
1407
 10
41.8706
 20
119.836
 30
0.00000
  70
    32
  0
VERTEX
  8
2
  5
1408
 10
41.6876
 20
119.800
 30
0.00000
  70
    32
  0
VERTEX
  8
2
  5
1409
 10
41.5059
 20
119.758
 30
0.00000
  70
    32
  0
VERTEX
  8
2
  5
140A
 10
41.3254
 20
119.711
 30
0.00000
  70
    32
  0
VERTEX
  8
2
  5
140B
 10
41.1465
 20
119.658
 30
0.00000
  70
    32
  0
SEQEND
  8
2
  5
140C
  0
LINE
  5
FA8
  8
2
 10
36.6456270777908912
 20
107.647647179527894
 30
0.0
 11
43.0764076961378208
 21
107.647647179527894
 31
0.0
  0
LINE
  5
FA9
  8
2
 10
43.076407696137629
 20
119.9476471795279053
 30
0.0
 11
36.6456270777907207
 21
119.9476471795279053
 31
0.0
  0
LINE
  5
FAB
  8
1
 10
62.8610173869642566
 20
113.7976471795278997
 30
0.0
 11
16.8610173869642495
 21
113.7976471795278997
 31
0.0
  0
LINE
  5
FAC
  8
1
 10
39.8610173869642495
 20
136.7976471795278997
 30
0.0
 11
39.8610173869642495
 21
90.7976471795278854
 31
0.0
  0
LINE
  5
FB0
  8
1
 10
39.8610173869642495
 20
56.7976471795278997
 30
0.0
 11
39.8610173869642495
 21
26.7976471795278997
 31
0.0
  0
CIRCLE
  5
FC7
  8
0
 10
39.8610173869642495
 20
113.7976471795278997
 30
0.0
 40
5.052999999999999
  0
CIRCLE
  5
FC8
  8
3
 10
39.8610173869642495
 20
113.7976471795278997
 30
0.0
 40
6.0
  0
LINE
  5
FC9
  8
2
 10
33.8610173869642495
 20
29.7976471795278997
 30
0.0
 11
33.8610173869642495
 21
40.4281766982301534
 31
0.0
  0
LINE
  5
FD2
  8
2
 10
45.8610173869642566
 20
43.167117660825653
 30
0.0
 11
45.8610173869642566
 21
53.7976471795278997
 31
0.0
  0
LINE
  5
FD8
  8
1
 10
35.8417795004974877
 20
56.7976471795278997
 30
0.0
 11
43.8802552734310893
 21
26.7976471795278997
 31
0.0
  0
LINE
  5
105A
  8
3
 10
59.8388148862037212
 20
38.997647179527938
 30
0.0
 11
59.8388148862036573
 21
52.5976471795278826
 31
0.0
  0
LINE
  5
105B
  8
3
 10
59.7722566790259009
 20
38.997647179527938
 30
0.0
 11
59.7722566790259009
 21
52.5976471795278826
 31
0.0
  0
LINE
  5
105C
  8
3
 10
59.6614905412954215
 20
38.997647179527938
 30
0.0
 11
59.6614905412954215
 21
52.5976471795278826
 31
0.0
  0
LINE
  5
105D
  8
3
 10
59.5067624015380403
 20
38.997647179527938
 30
0.0
 11
59.5067624015380403
 21
52.5976471795278826
 31
0.0
  0
LINE
  5
105E
  8
3
 10
59.3084157949177921
 20
38.997647179527938
 30
0.0
 11
59.3084157949177921
 21
52.5976471795278826
 31
0.0
  0
LINE
  5
105F
  8
3
 10
59.0668911005031205
 20
38.997647179528002
 30
0.0
 11
59.0668911005031703
 21
52.5976471795278826
 31
0.0
  0
LINE
  5
1060
  8
3
 10
58.7827245635151883
 20
52.5976471795278826
 30
0.0
 11
58.7827245635151883
 21
38.997647179527938
 31
0.0
  0
LINE
  5
1061
  8
3
 10
58.4565471047293101
 20
52.5976471795278826
 30
0.0
 11
58.4565471047293101
 21
38.997647179528002
 31
0.0
  0
LINE
  5
1062
  8
3
 10
58.0890829196731886
 20
52.5976471795278826
 30
0.0
 11
58.0890829196731886
 21
38.997647179527938
 31
0.0
  0
LINE
  5
1063
  8
3
 10
57.6811478707316212
 20
52.5976471795278826
 30
0.0
 11
57.6811478707316212
 21
38.997647179527938
 31
0.0
  0
LINE
  5
1064
  8
3
 10
57.2336476757281218
 20
52.5976471795278826
 30
0.0
 11
57.2336476757281218
 21
38.997647179527938
 31
0.0
  0
LINE
  5
1065
  8
3
 10
56.7475758970046229
 20
52.5976471795278826
 30
0.0
 11
56.747575897004559
 21
38.997647179527938
 31
0.0
  0
LINE
  5
1066
  8
3
 10
56.2240117354647495
 20
52.5976471795278826
 30
0.0
 11
56.2240117354647495
 21
38.997647179527938
 31
0.0
  0
LINE
  5
1067
  8
3
 10
55.6641176344781172
 20
52.5976471795278826
 30
0.0
 11
55.6641176344781172
 21
38.997647179527938
 31
0.0
  0
LINE
  5
1068
  8
3
 10
55.0691366989649111
 20
52.5976471795278826
 30
0.0
 11
55.0691366989649111
 21
38.997647179527938
 31
0.0
  0
LINE
  5
1069
  8
3
 10
54.4403899353925027
 20
52.5976471795278826
 30
0.0
 11
54.4403899353925027
 21
38.997647179527938
 31
0.0
  0
LINE
  5
106A
  8
3
 10
53.7792733188106027
 20
52.5976471795278826
 30
0.0
 11
53.7792733188106027
 21
38.997647179527938
 31
0.0
  0
LINE
  5
106B
  8
3
 10
53.087254693437302
 20
52.5976471795278826
 30
0.0
 11
53.0872546934373588
 21
38.997647179527938
 31
0.0
  0
LINE
  5
106C
  8
3
 10
52.365870513678388
 20
52.5976471795278826
 30
0.0
 11
52.365870513678388
 21
38.997647179527938
 31
0.0
  0
LINE
  5
106D
  8
3
 10
51.6167224328137593
 20
52.5976471795278826
 30
0.0
 11
51.6167224328137024
 21
38.997647179528002
 31
0.0
  0
LINE
  5
106E
  8
3
 10
50.8414737469269369
 20
52.5976471795278826
 30
0.0
 11
50.8414737469269369
 21
38.997647179527938
 31
0.0
  0
LINE
  5
106F
  8
3
 10
50.0418457019717096
 20
52.5976471795278826
 30
0.0
 11
50.0418457019717096
 21
38.997647179527938
 31
0.0
  0
LINE
  5
1070
  8
3
 10
49.2196136721757611
 20
52.5976471795278826
 30
0.0
 11
49.2196136721757611
 21
38.997647179527938
 31
0.0
  0
LINE
  5
1071
  8
3
 10
48.3766032182657213
 20
52.5976471795278826
 30
0.0
 11
48.3766032182657213
 21
38.997647179527938
 31
0.0
  0
LINE
  5
1072
  8
3
 10
47.5146860342660773
 20
52.5976471795278826
 30
0.0
 11
47.5146860342660773
 21
38.997647179527938
 31
0.0
  0
LINE
  5
1073
  8
3
 10
46.6357757918700813
 20
52.5976471795278826
 30
0.0
 11
46.6357757918700813
 21
38.997647179527938
 31
0.0
  0
LINE
  5
1074
  8
3
 10
45.7418238916103803
 20
52.5976471795278826
 30
0.0
 11
45.7418238916103803
 21
38.997647179527938
 31
0.0
  0
LINE
  5
1075
  8
3
 10
44.8348151302613616
 20
52.5976471795278826
 30
0.0
 11
44.8348151302613616
 21
38.997647179527938
 31
0.0
  0
LINE
  5
1076
  8
3
 10
43.9167632940945225
 20
52.5976471795278826
 30
0.0
 11
43.9167632940945225
 21
38.997647179528002
 31
0.0
  0
LINE
  5
1077
  8
3
 10
42.9897066877689085
 20
52.5976471795278826
 30
0.0
 11
42.9897066877689085
 21
38.997647179527938
 31
0.0
  0
LINE
  5
1078
  8
3
 10
42.0557036087851799
 20
52.5976471795278826
 30
0.0
 11
42.0557036087851799
 21
38.997647179527938
 31
0.0
  0
LINE
  5
1079
  8
3
 10
41.1168277775505189
 20
52.5976471795278826
 30
0.0
 11
41.1168277775505189
 21
38.997647179527938
 31
0.0
  0
LINE
  5
107A
  8
3
 10
40.1751637332007192
 20
52.5976471795278826
 30
0.0
 11
40.1751637332007192
 21
38.997647179527938
 31
0.0
  0
LINE
  5
107E
  8
3
 10
39.5468710407278934
 20
52.5976471795278826
 30
0.0
 11
39.5468710407278365
 21
38.997647179527938
 31
0.0
  0
LINE
  5
107F
  8
3
 10
38.6052069963780298
 20
52.5976471795278826
 30
0.0
 11
38.6052069963780298
 21
38.997647179527938
 31
0.0
  0
LINE
  5
1080
  8
3
 10
37.6663311651433617
 20
52.5976471795278826
 30
0.0
 11
37.6663311651433617
 21
38.997647179527938
 31
0.0
  0
LINE
  5
1081
  8
3
 10
36.7323280861597112
 20
52.5976471795278826
 30
0.0
 11
36.7323280861597112
 21
38.997647179527938
 31
0.0
  0
LINE
  5
1082
  8
3
 10
35.8052714798340332
 20
52.5976471795278826
 30
0.0
 11
35.8052714798340332
 21
38.997647179528002
 31
0.0
  0
LINE
  5
1083
  8
3
 10
34.88721964366718
 20
52.5976471795278826
 30
0.0
 11
34.88721964366718
 21
38.997647179527938
 31
0.0
  0
LINE
  5
1084
  8
3
 10
33.9802108823181825
 20
52.5976471795278826
 30
0.0
 11
33.9802108823181825
 21
38.997647179527938
 31
0.0
  0
LINE
  5
1085
  8
3
 10
33.0862589820584674
 20
52.5976471795278826
 30
0.0
 11
33.0862589820584674
 21
38.997647179527938
 31
0.0
  0
LINE
  5
1086
  8
3
 10
32.2073487396625424
 20
52.5976471795278826
 30
0.0
 11
32.2073487396624785
 21
38.997647179527938
 31
0.0
  0
LINE
  5
1087
  8
3
 10
31.3454315556628913
 20
52.5976471795278826
 30
0.0
 11
31.3454315556628913
 21
38.997647179527938
 31
0.0
  0
LINE
  5
1088
  8
3
 10
30.5024211017528586
 20
52.5976471795278826
 30
0.0
 11
30.5024211017528586
 21
38.997647179527938
 31
0.0
  0
LINE
  5
1089
  8
3
 10
29.6801890719568995
 20
52.5976471795278826
 30
0.0
 11
29.6801890719568995
 21
38.997647179527938
 31
0.0
  0
LINE
  5
108A
  8
3
 10
28.8805610270016793
 20
52.5976471795278826
 30
0.0
 11
28.8805610270016793
 21
38.997647179527938
 31
0.0
  0
LINE
  5
108B
  8
3
 10
28.1053123411148498
 20
52.5976471795278826
 30
0.0
 11
28.1053123411148498
 21
38.997647179528002
 31
0.0
  0
LINE
  5
108C
  8
3
 10
27.3561642602502104
 20
52.5976471795278826
 30
0.0
 11
27.3561642602502104
 21
38.997647179527938
 31
0.0
  0
LINE
  5
108D
  8
3
 10
26.6347800804912502
 20
52.5976471795278826
 30
0.0
 11
26.6347800804912502
 21
38.997647179527938
 31
0.0
  0
LINE
  5
108E
  8
3
 10
25.9427614551180206
 20
52.5976471795278826
 30
0.0
 11
25.9427614551179602
 21
38.997647179527938
 31
0.0
  0
LINE
  5
108F
  8
3
 10
25.2816448385360388
 20
52.5976471795278826
 30
0.0
 11
25.2816448385360992
 21
38.997647179527938
 31
0.0
  0
LINE
  5
1090
  8
3
 10
24.6528980749637014
 20
52.5976471795278826
 30
0.0
 11
24.6528980749637014
 21
38.997647179527938
 31
0.0
  0
LINE
  5
1091
  8
3
 10
24.0579171394504883
 20
52.5976471795278826
 30
0.0
 11
24.0579171394504385
 21
38.997647179527938
 31
0.0
  0
LINE
  5
1092
  8
3
 10
23.4980230384637991
 20
52.5976471795278826
 30
0.0
 11
23.4980230384637991
 21
38.997647179527938
 31
0.0
  0
LINE
  5
1093
  8
3
 10
22.9744588769239897
 20
52.5976471795278826
 30
0.0
 11
22.9744588769239897
 21
38.997647179527938
 31
0.0
  0
LINE
  5
1094
  8
3
 10
22.4883870982004908
 20
52.5976471795278826
 30
0.0
 11
22.4883870982004908
 21
38.997647179527938
 31
0.0
  0
LINE
  5
1095
  8
3
 10
22.040886903196931
 20
52.5976471795278826
 30
0.0
 11
22.040886903196931
 21
38.997647179527938
 31
0.0
  0
LINE
  5
1096
  8
3
 10
21.6329518542553707
 20
52.5976471795278826
 30
0.0
 11
21.6329518542553707
 21
38.997647179527938
 31
0.0
  0
LINE
  5
1097
  8
3
 10
21.2654876691992492
 20
52.5976471795278826
 30
0.0
 11
21.2654876691992492
 21
38.997647179528002
 31
0.0
  0
LINE
  5
1098
  8
3
 10
20.9393102104134208
 20
52.5976471795278826
 30
0.0
 11
20.9393102104134208
 21
38.997647179527938
 31
0.0
  0
LINE
  5
1099
  8
3
 10
20.6551436734254388
 20
38.997647179528002
 30
0.0
 11
20.6551436734254388
 21
52.5976471795278826
 31
0.0
  0
LINE
  5
109A
  8
3
 10
20.4136189790107494
 20
38.997647179527938
 30
0.0
 11
20.4136189790107494
 21
52.5976471795278826
 31
0.0
  0
LINE
  5
109B
  8
3
 10
20.2152723723905012
 20
38.997647179527938
 30
0.0
 11
20.2152723723905616
 21
52.5976471795278826
 31
0.0
  0
LINE
  5
109C
  8
3
 10
20.0605442326331307
 20
38.997647179527938
 30
0.0
 11
20.0605442326331307
 21
52.5976471795278826
 31
0.0
  0
LINE
  5
109D
  8
3
 10
19.9497780949027117
 20
38.997647179527938
 30
0.0
 11
19.9497780949027117
 21
52.5976471795278826
 31
0.0
  0
LINE
  5
109E
  8
3
 10
19.8832198877248914
 20
38.997647179527938
 30
0.0
 11
19.8832198877248914
 21
52.5976471795278826
 31
0.0
  0
TEXT
  5
11A6
  8
0
 62
     3
 10
0.0
 20
0.0
 30
0.0
 40
10.0
  1
BJ757-12001-SUS
  7
STANDARD1
  0
ENDSEC
  0
EOF
