  0
SECTION
  2
HEADER
  9
$ACADVER
  1
AC1009
  9
$INSBASE
 10
0.0
 20
0.0
 30
0.0
  9
$EXTMIN
 10
0.0
 20
-2.960436562073669
 30
0.0
  9
$EXTMAX
 10
116.4870395634379037
 20
120.5354344641364008
 30
0.0
  9
$LIMMIN
 10
0.0
 20
0.0
  9
$LIMMAX
 10
187.5
 20
135.0
  9
$ORTHOMODE
 70
     1
  9
$REGENMODE
 70
     1
  9
$FILLMODE
 70
     1
  9
$QTEXTMODE
 70
     0
  9
$MIRRTEXT
 70
     0
  9
$DRAGMODE
 70
     2
  9
$LTSCALE
 40
5.0
  9
$OSMODE
 70
    37
  9
$ATTMODE
 70
     1
  9
$TEXTSIZE
 40
2.500000000000048
  9
$TRACEWID
 40
0.05
  9
$TEXTSTYLE
  7
STANDARD
  9
$CLAYER
  8
1
  9
$CELTYPE
  6
BYLAYER
  9
$CECOLOR
 62
   256
  9
$DIMSCALE
 40
0.5
  9
$DIMASZ
 40
3.0
  9
$DIMEXO
 40
2.0
  9
$DIMDLI
 40
10.0
  9
$DIMRND
 40
0.0
  9
$DIMDLE
 40
0.0
  9
$DIMEXE
 40
2.0
  9
$DIMTP
 40
0.0
  9
$DIMTM
 40
0.0
  9
$DIMTXT
 40
3.2000000000000002
  9
$DIMCEN
 40
0.0
  9
$DIMTSZ
 40
0.0
  9
$DIMTOL
 70
     0
  9
$DIMLIM
 70
     0
  9
$DIMTIH
 70
     0
  9
$DIMTOH
 70
     0
  9
$DIMSE1
 70
     0
  9
$DIMSE2
 70
     0
  9
$DIMTAD
 70
     1
  9
$DIMZIN
 70
     0
  9
$DIMBLK
  1

  9
$DIMASO
 70
     1
  9
$DIMSHO
 70
     0
  9
$DIMPOST
  1

  9
$DIMAPOST
  1

  9
$DIMALT
 70
     0
  9
$DIMALTD
 70
     2
  9
$DIMALTF
 40
25.3999999999999986
  9
$DIMLFAC
 40
1.0
  9
$DIMTOFL
 70
     1
  9
$DIMTVP
 40
1.6000000000000001
  9
$DIMTIX
 70
     1
  9
$DIMSOXD
 70
     0
  9
$DIMSAH
 70
     0
  9
$DIMBLK1
  1

  9
$DIMBLK2
  1

  9
$DIMSTYLE
  2
STANDARD
  9
$DIMCLRD
 70
     0
  9
$DIMCLRE
 70
     0
  9
$DIMCLRT
 70
     0
  9
$DIMTFAC
 40
1.0
  9
$DIMGAP
 40
0.09
  9
$LUNITS
 70
     2
  9
$LUPREC
 70
     4
  9
$SKETCHINC
 40
0.1
  9
$FILLETRAD
 40
0.0
  9
$AUNITS
 70
     0
  9
$AUPREC
 70
     4
  9
$MENU
  1
E:\r13\win\SUPPORT\ACAD
  9
$ELEVATION
 40
0.0
  9
$PELEVATION
 40
0.0
  9
$THICKNESS
 40
0.0
  9
$LIMCHECK
 70
     0
  9
$BLIPMODE
 70
     0
  9
$CHAMFERA
 40
0.0
  9
$CHAMFERB
 40
0.0
  9
$SKPOLY
 70
     0
  9
$TDCREATE
 40
2449839.773148147854954
  9
$TDUPDATE
 40
2460580.571273148059845
  9
$TDINDWG
 40
0.1575296412
  9
$TDUSRTIMER
 40
2456598.4107962609268725
  9
$USRTIMER
 70
     1
  9
$ANGBASE
 50
0.0
  9
$ANGDIR
 70
     0
  9
$PDMODE
 70
    35
  9
$PDSIZE
 40
0.0
  9
$PLINEWID
 40
0.0
  9
$COORDS
 70
     1
  9
$SPLFRAME
 70
     0
  9
$SPLINETYPE
 70
     6
  9
$SPLINESEGS
 70
     8
  9
$ATTDIA
 70
     1
  9
$ATTREQ
 70
     1
  9
$HANDLING
 70
     1
  9
$HANDSEED
  5
124D
  9
$SURFTAB1
 70
     6
  9
$SURFTAB2
 70
     6
  9
$SURFTYPE
 70
     6
  9
$SURFU
 70
     6
  9
$SURFV
 70
     6
  9
$UCSNAME
  2

  9
$UCSORG
 10
0.0
 20
0.0
 30
0.0
  9
$UCSXDIR
 10
1.0
 20
0.0
 30
0.0
  9
$UCSYDIR
 10
0.0
 20
1.0
 30
0.0
  9
$PUCSNAME
  2

  9
$PUCSORG
 10
0.0
 20
0.0
 30
0.0
  9
$PUCSXDIR
 10
1.0
 20
0.0
 30
0.0
  9
$PUCSYDIR
 10
0.0
 20
1.0
 30
0.0
  9
$USERI1
 70
     0
  9
$USERI2
 70
     1
  9
$USERI3
 70
     1
  9
$USERI4
 70
     0
  9
$USERI5
 70
     0
  9
$USERR1
 40
0.0
  9
$USERR2
 40
0.0
  9
$USERR3
 40
0.0
  9
$USERR4
 40
0.0
  9
$USERR5
 40
0.0
  9
$WORLDVIEW
 70
     1
  9
$SHADEDGE
 70
     3
  9
$SHADEDIF
 70
    70
  9
$TILEMODE
 70
     1
  9
$MAXACTVP
 70
    16
  9
$PLIMCHECK
 70
     0
  9
$PEXTMIN
 10
1.0000000000000000E+20
 20
1.0000000000000000E+20
 30
1.0000000000000000E+20
  9
$PEXTMAX
 10
-1.0000000000000000E+20
 20
-1.0000000000000000E+20
 30
-1.0000000000000000E+20
  9
$PLIMMIN
 10
0.0
 20
0.0
  9
$PLIMMAX
 10
12.0
 20
9.0
  9
$UNITMODE
 70
     0
  9
$VISRETAIN
 70
     0
  9
$PLINEGEN
 70
     0
  9
$PSLTSCALE
 70
     0
  0
ENDSEC
  0
SECTION
  2
TABLES
  0
TABLE
  2
VPORT
 70
     1
  0
VPORT
  2
*ACTIVE
 70
     0
 10
0.0
 20
0.0
 11
1.0
 21
1.0
 12
152.6539408866995018
 22
65.0
 13
0.0
 23
0.0
 14
5.0
 24
5.0
 15
5.0
 25
5.0
 16
0.0
 26
0.0
 36
1.0
 17
0.0
 27
0.0
 37
0.0
 40
130.0
 41
2.3485221674876842
 42
50.0
 43
0.0
 44
0.0
 50
0.0
 51
0.0
 71
     0
 72
   500
 73
     1
 74
     0
 75
     0
 76
     0
 77
     0
 78
     2
  0
ENDTAB
  0
TABLE
  2
LTYPE
 70
     4
  0
LTYPE
  2
CONTINUOUS
 70
     0
  3
Solid Line
 72
    65
 73
     0
 40
0.0
  0
LTYPE
  2
CENTER
 70
     0
  3
____ _ ____ _ ____ _ ____ _ ____ _ ____ _ ____
 72
    65
 73
     4
 40
2.0
 49
1.25
 49
-0.25
 49
0.25
 49
-0.25
  0
LTYPE
  2
HIDDEN
 70
     0
  3
_ _ _ _ _ _ _ _ _ _ _ _ _ _ _ _ _ _ _ _ _ _ _
 72
    65
 73
     2
 40
0.375
 49
0.25
 49
-0.125
  0
LTYPE
  2
PHANTOM2
 70
     0
  3
___ _ _ ___ _ _ ___ _ _ ___ _ _
 72
    65
 73
     6
 40
1.25
 49
0.625
 49
-0.125
 49
0.125
 49
-0.125
 49
0.125
 49
-0.125
  0
ENDTAB
  0
TABLE
  2
LAYER
 70
     5
  0
LAYER
  2
0
 70
     0
 62
     7
  6
CONTINUOUS
  0
LAYER
  2
1
 70
     0
 62
     1
  6
CENTER
  0
LAYER
  2
3
 70
     0
 62
     3
  6
CONTINUOUS
  0
LAYER
  2
2
 70
     0
 62
     2
  6
HIDDEN
  0
LAYER
  2
DEFPOINTS
 70
     0
 62
     7
  6
CONTINUOUS
  0
ENDTAB
  0
TABLE
  2
STYLE
 70
     2
  0
STYLE
  2
STANDARD
 70
     0
 40
0.0
 41
1.0
 50
0.0
 71
     0
 42
2.500000000000048
  3
TXT
  4
BIGFONT
  0
STYLE
  2
STANDARD1
 70
     0
 40
0.0
 41
1.0
 50
0.0
 71
     0
 42
3.0
  3
txt
  4

  0
ENDTAB
  0
TABLE
  2
VIEW
 70
     1
  0
VIEW
  2
ALL
 70
     0
 40
135.0
 10
106.6284453781511985
 20
67.5
 41
0.0
 11
0.0
 21
0.0
 31
1.0
 12
0.0
 22
0.0
 32
0.0
 42
50.0
 43
0.0
 44
0.0
 50
0.0
 71
     0
  0
ENDTAB
  0
TABLE
  2
UCS
 70
     0
  0
ENDTAB
  0
TABLE
  2
APPID
 70
    40
  0
APPID
  2
ACAD
 70
     0
  0
APPID
  2
DCO15
 70
     0
  0
APPID
  2
GENIUS_GENOREF_13
 70
     0
  0
APPID
  2
GENIUS_GENOENT_13
 70
     0
  0
APPID
  2
GENIUS_GENBH_13
 70
     0
  0
APPID
  2
GENIUS_GENOBJ_13
 70
     0
  0
APPID
  2
GENIUS_GENODEF_13
 70
     0
  0
APPID
  2
GENIUS_GENOLIS_13
 70
     0
  0
APPID
  2
GENIUS_GENOBJ-NBEHI-BHF_13
 70
     0
  0
APPID
  2
GENIUS_GENOBJ-NBEHI-BHB_13
 70
     0
  0
APPID
  2
GENIUS_GENOBJ-F-PART_13
 70
     0
  0
APPID
  2
GENIUS_GEFSTDP_13
 70
     0
  0
APPID
  2
GENIUS_GENOBJ-N-RSSYM_13
 70
     0
  0
APPID
  2
GENIUS_GENSYMENT_13
 70
     0
  0
APPID
  2
GENIUS_GENOBJ-N-TIT_13
 70
     0
  0
APPID
  2
GENIUS_GENTITLE_13
 70
     0
  0
APPID
  2
GENIUS_GENZVEED_13
 70
     0
  0
APPID
  2
GENIUS_GENOBJ-N-LEADER_13
 70
     0
  0
APPID
  2
GENIUS_GENOBJ-N-FIL_13
 70
     0
  0
APPID
  2
GENIUS_GENOBJ-N-SEC_13
 70
     0
  0
APPID
  2
GENIUS_GENOBJ-N-CRS_13
 70
     0
  0
APPID
  2
GENIUS_GENOBJ-N-ZOO_13
 70
     0
  0
APPID
  2
GENIUS_GENZOO_13
 70
     0
  0
APPID
  2
GENIUS_GENOBJ-F-TOL_13
 70
     0
  0
APPID
  2
GENIUS_GENFIL_13
 70
     0
  0
APPID
  2
GENIUS_GENOBJ-N-CHA_13
 70
     0
  0
APPID
  2
_CALL_MAC$
 70
     0
  0
APPID
  2
ASM_BASE
 70
     0
  0
APPID
  2
ASM_EXPLO_VER_2_00
 70
     0
  0
APPID
  2
ASM_CADM_VER_12_00
 70
     0
  0
APPID
  2
ASM_BASEFORO
 70
     0
  0
APPID
  2
ASM_BASETRAVI
 70
     0
  0
APPID
  2
ASM_BASETRAVI1
 70
     0
  0
APPID
  2
ASM_GRUPPI
 70
     0
  0
APPID
  2
ASM_CADM_ALBERO
 70
     0
  0
APPID
  2
ASM_GOLE
 70
     0
  0
APPID
  2
ACAD_MLEADERVER
 70
     0
  0
APPID
  2
ACAD_NAV_VCDISPLAY
 70
     0
  0
APPID
  2
ACAD_EXEMPT_FROM_CAD_STANDARDS
 70
     0
  0
APPID
  2
ACAD_TC
 70
     0
  0
ENDTAB
  0
TABLE
  2
DIMSTYLE
 70
     1
  0
DIMSTYLE
  2
STANDARD
 70
     0
  3

  4

  5

  6

  7

 40
1.0
 41
0.18
 42
0.0625
 43
0.38
 44
0.18
 45
0.0
 46
0.0
 47
0.0
 48
0.0
140
0.18
141
0.09
142
0.0
143
25.3999999999999986
144
1.0
145
0.0
146
1.0
147
0.09
 71
     0
 72
     0
 73
     1
 74
     1
 75
     0
 76
     0
 77
     0
 78
     0
170
     0
171
     2
172
     0
173
     0
174
     0
175
     0
176
     0
177
     0
178
     0
  0
ENDTAB
  0
ENDSEC
  0
SECTION
  2
BLOCKS
  0
BLOCK
  8
0
  2
$MODEL_SPACE
 70
     0
 10
0.0
 20
0.0
 30
0.0
  3
$MODEL_SPACE
  1

  0
ENDBLK
  5
E9
  8
0
  0
BLOCK
 67
     1
  8
0
  2
$PAPER_SPACE
 70
     0
 10
0.0
 20
0.0
 30
0.0
  3
$PAPER_SPACE
  1

  0
ENDBLK
  5
E7
 67
     1
  8
0
  0
ENDSEC
  0
SECTION
  2
ENTITIES
  0
LINE
  5
DC0
  8
0
 10
21.4953039799547589
 20
38.5354344641364222
 30
0.0
 11
22.4953039799547696
 21
37.5354344641364435
 31
0.0
  0
LINE
  5
DC1
  8
0
 10
56.4953039799547625
 20
37.5354344641364435
 30
0.0
 11
57.4953039799547767
 21
38.5354344641364222
 31
0.0
  0
LINE
  5
DC2
  8
0
 10
57.4953039799547767
 20
50.5354344641364079
 30
0.0
 11
56.4953039799547625
 21
51.5354344641364222
 31
0.0
  0
LINE
  5
DC3
  8
0
 10
22.4953039799547696
 20
51.5354344641364222
 30
0.0
 11
21.4953039799547589
 21
50.5354344641364079
 31
0.0
  0
LINE
  5
DC4
  8
0
 10
21.4953039799547589
 20
50.5354344641364079
 30
0.0
 11
21.4953039799547589
 21
38.5354344641364222
 31
0.0
  0
LINE
  5
DC5
  8
0
 10
57.4953039799547767
 20
38.5354344641364222
 30
0.0
 11
57.4953039799547767
 21
50.5354344641364079
 31
0.0
  0
ARC
  5
DC6
  8
0
 10
24.4953039799547696
 20
36.5354344641364506
 30
0.0
 40
1.0
 50
0.0
 51
90.0
  0
ARC
  5
DC7
  8
0
 10
54.4953039799547696
 20
36.5354344641364506
 30
0.0
 40
1.0
 50
90.0
 51
180.0
  0
LINE
  5
DC8
  8
0
 10
25.4953039799547696
 20
32.5354344641364435
 30
0.0
 11
26.4953039799547696
 21
31.5354344641364506
 31
0.0
  0
LINE
  5
DC9
  8
0
 10
52.4953039799547767
 20
31.5354344641364506
 30
0.0
 11
53.4953039799547767
 21
32.5354344641364435
 31
0.0
  0
LINE
  5
DCA
  8
0
 10
25.4953039799547696
 20
36.5354344641364506
 30
0.0
 11
25.4953039799547696
 21
32.5354344641364435
 31
0.0
  0
LINE
  5
DCB
  8
0
 10
53.4953039799547767
 20
32.5354344641364435
 30
0.0
 11
53.4953039799547767
 21
36.5354344641364506
 31
0.0
  0
LINE
  5
DCC
  8
0
 10
21.4953039799547589
 20
38.5354344641364222
 30
0.0
 11
57.4953039799547767
 21
38.5354344641364222
 31
0.0
  0
LINE
  5
DCD
  8
0
 10
22.4953039799547696
 20
37.5354344641364435
 30
0.0
 11
56.4953039799547625
 21
37.5354344641364435
 31
0.0
  0
LINE
  5
DCF
  8
0
 10
21.4953039799547589
 20
50.5354344641364079
 30
0.0
 11
57.4953039799547767
 21
50.5354344641364079
 31
0.0
  0
LINE
  5
DD0
  8
0
 10
56.4953039799547625
 20
51.5354344641364222
 30
0.0
 11
22.4953039799547696
 21
51.5354344641364222
 31
0.0
  0
LINE
  5
DD1
  8
0
 10
52.4953039799547767
 20
31.5354344641364506
 30
0.0
 11
26.4953039799548016
 21
31.5354344641364506
 31
0.0
  0
LINE
  5
DD3
  8
0
 10
53.4953039799547767
 20
32.5354344641364435
 30
0.0
 11
25.4953039799547696
 21
32.5354344641364435
 31
0.0
  0
LINE
  5
DD4
  8
0
 10
25.4953039799547696
 20
36.5354344641364506
 30
0.0
 11
53.4953039799547767
 21
36.5354344641364506
 31
0.0
  0
LINE
  5
DDA
  8
2
 10
31.4841397265314811
 20
51.5354344641364222
 30
0.0
 11
35.3073039799547814
 21
37.2671912246800972
 31
0.0
  0
LINE
  5
DDB
  8
2
 10
47.5064682333780226
 20
31.5354344641364506
 30
0.0
 11
43.6833039799547507
 21
45.8036777035926619
 31
0.0
  0
LINE
  5
DDC
  8
2
 10
35.3073039799547814
 20
37.2671912246800972
 30
0.0
 11
35.3073039799547814
 21
31.5354344641364506
 31
0.0
  0
LINE
  5
DDD
  8
2
 10
43.6833039799547507
 20
45.8036777035926619
 30
0.0
 11
43.6833039799547507
 21
51.5354344641364222
 31
0.0
  0
LINE
  5
DF6
  8
1
 10
39.495303979954798
 20
54.5354344641364008
 30
0.0
 11
39.495303979954798
 21
28.5354344641364399
 31
0.0
  0
LINE
  5
E0F
  8
2
 10
34.495303979954798
 20
31.5354344641364506
 30
0.0
 11
34.495303979954798
 21
40.2976164804258801
 31
0.0
  0
LINE
  5
E12
  8
2
 10
44.4953039799548193
 20
42.7732524478467084
 30
0.0
 11
44.495303979954798
 21
51.5354344641364222
 31
0.0
  0
LINE
  5
E17
  8
1
 10
36.0119644783500306
 20
54.5354344641364008
 30
0.0
 11
42.9786434815594873
 21
28.5354344641364399
 31
0.0
  0
LINE
  5
E79
  8
3
 10
40.4373511923278386
 20
50.5354344641364222
 30
0.0
 11
40.4373511923278386
 21
38.5354344641364222
 31
0.0
  0
LINE
  5
E7A
  8
3
 10
41.3768163187725904
 20
50.5354344641364222
 30
0.0
 11
41.3768163187725904
 21
38.5354344641364222
 31
0.0
  0
LINE
  5
E7B
  8
3
 10
42.3111243506789521
 20
50.5354344641364222
 30
0.0
 11
42.3111243506789521
 21
38.535434464136479
 31
0.0
  0
LINE
  5
E7C
  8
3
 10
43.2377144146745067
 20
50.5354344641364222
 30
0.0
 11
43.2377144146745067
 21
38.5354344641364222
 31
0.0
  0
LINE
  5
E7D
  8
3
 10
44.154046791800198
 20
50.5354344641364222
 30
0.0
 11
44.154046791800198
 21
38.5354344641364222
 31
0.0
  0
LINE
  5
E7E
  8
3
 10
45.0576098787038504
 20
50.5354344641364222
 30
0.0
 11
45.0576098787038504
 21
38.5354344641364222
 31
0.0
  0
LINE
  5
E7F
  8
3
 10
45.9459270717702282
 20
50.5354344641364222
 30
0.0
 11
45.9459270717702282
 21
38.5354344641364222
 31
0.0
  0
LINE
  5
E80
  8
3
 10
46.8165635553192203
 20
50.5354344641364222
 30
0.0
 11
46.8165635553192629
 21
38.5354344641364222
 31
0.0
  0
LINE
  5
E81
  8
3
 10
47.6671329752667035
 20
50.5354344641364222
 30
0.0
 11
47.6671329752667035
 21
38.5354344641364222
 31
0.0
  0
LINE
  5
E82
  8
3
 10
48.4953039799547767
 20
50.5354344641364222
 30
0.0
 11
48.4953039799547767
 21
38.5354344641364222
 31
0.0
  0
LINE
  5
E83
  8
3
 10
49.2988066102252773
 20
50.5354344641364222
 30
0.0
 11
49.2988066102252773
 21
38.5354344641364222
 31
0.0
  0
LINE
  5
E84
  8
3
 10
50.0754385212193398
 20
50.5354344641364222
 30
0.0
 11
50.0754385212193398
 21
38.5354344641364222
 31
0.0
  0
LINE
  5
E85
  8
3
 10
50.8230710188518913
 20
50.5354344641364222
 30
0.0
 11
50.8230710188518913
 21
38.5354344641364222
 31
0.0
  0
LINE
  5
E86
  8
3
 10
51.5396548944142694
 20
50.5354344641364222
 30
0.0
 11
51.5396548944142694
 21
38.5354344641364222
 31
0.0
  0
LINE
  5
E87
  8
3
 10
52.2232260413126426
 20
50.5354344641364222
 30
0.0
 11
52.2232260413126426
 21
38.535434464136479
 31
0.0
  0
LINE
  5
E88
  8
3
 10
52.8719108385478904
 20
50.5354344641364222
 30
0.0
 11
52.8719108385478904
 21
38.5354344641364222
 31
0.0
  0
LINE
  5
E89
  8
3
 10
53.4839312861802512
 20
50.5354344641364222
 30
0.0
 11
53.483931286180308
 21
38.5354344641364222
 31
0.0
  0
LINE
  5
E8A
  8
3
 10
54.0576098787038717
 20
50.5354344641364222
 30
0.0
 11
54.0576098787038717
 21
38.535434464136479
 31
0.0
  0
LINE
  5
E8B
  8
3
 10
54.5913742029724602
 20
50.5354344641364222
 30
0.0
 11
54.5913742029724602
 21
38.5354344641364222
 31
0.0
  0
LINE
  5
E8C
  8
3
 10
55.083761248074687
 20
50.5354344641364222
 30
0.0
 11
55.083761248074687
 21
38.5354344641364222
 31
0.0
  0
LINE
  5
E8D
  8
3
 10
55.5334214153454226
 20
50.5354344641364222
 30
0.0
 11
55.5334214153454226
 21
38.5354344641364222
 31
0.0
  0
LINE
  5
E8E
  8
3
 10
55.9391222175216001
 20
50.5354344641364222
 30
0.0
 11
55.9391222175216001
 21
38.5354344641364222
 31
0.0
  0
LINE
  5
E8F
  8
3
 10
56.2997516569044194
 20
38.5354344641364222
 30
0.0
 11
56.2997516569044194
 21
50.5354344641364222
 31
0.0
  0
LINE
  5
E90
  8
3
 10
56.6143212732675565
 20
38.5354344641364222
 30
0.0
 11
56.6143212732675565
 21
50.5354344641364222
 31
0.0
  0
LINE
  5
E91
  8
3
 10
56.8819688531580425
 20
38.5354344641364222
 30
0.0
 11
56.8819688531580425
 21
50.5354344641364222
 31
0.0
  0
LINE
  5
E92
  8
3
 10
57.101960793163272
 20
38.5354344641364222
 30
0.0
 11
57.1019607931633217
 21
50.5354344641364222
 31
0.0
  0
LINE
  5
E93
  8
3
 10
57.2736941106673214
 20
38.5354344641364222
 30
0.0
 11
57.2736941106673214
 21
50.5354344641364222
 31
0.0
  0
LINE
  5
E94
  8
3
 10
57.3966980965837195
 20
38.5354344641364222
 30
0.0
 11
57.3966980965837195
 21
50.5354344641364222
 31
0.0
  0
LINE
  5
E95
  8
3
 10
57.4706356055371685
 20
38.5354344641364222
 30
0.0
 11
57.4706356055371188
 21
50.5354344641364222
 31
0.0
  0
LINE
  5
EB2
  8
3
 10
21.5199723543725305
 20
38.5354344641364293
 30
0.0
 11
21.5199723543725305
 21
50.5354344641364222
 31
0.0
  0
LINE
  5
EB3
  8
3
 10
21.5939098633259299
 20
38.5354344641364293
 30
0.0
 11
21.5939098633259299
 21
50.5354344641364222
 31
0.0
  0
LINE
  5
EB4
  8
3
 10
21.7169138492423883
 20
38.5354344641364293
 30
0.0
 11
21.7169138492423883
 21
50.5354344641364222
 31
0.0
  0
LINE
  5
EB5
  8
3
 10
21.8886471667463312
 20
38.5354344641364293
 30
0.0
 11
21.8886471667463312
 21
50.5354344641364222
 31
0.0
  0
LINE
  5
EB6
  8
3
 10
22.1086391067516104
 20
38.5354344641364293
 30
0.0
 11
22.1086391067516104
 21
50.5354344641364222
 31
0.0
  0
LINE
  5
EB7
  8
3
 10
22.3762866866420893
 20
38.5354344641364293
 30
0.0
 11
22.3762866866420893
 21
50.5354344641364222
 31
0.0
  0
LINE
  5
EB8
  8
3
 10
22.6908563030051802
 20
38.5354344641364293
 30
0.0
 11
22.6908563030052299
 21
50.5354344641364222
 31
0.0
  0
LINE
  5
EB9
  8
3
 10
23.0514857423879995
 20
50.5354344641364222
 30
0.0
 11
23.0514857423880493
 21
38.5354344641364293
 31
0.0
  0
LINE
  5
EBA
  8
3
 10
23.4571865445642302
 20
50.5354344641364222
 30
0.0
 11
23.4571865445642302
 21
38.5354344641364293
 31
0.0
  0
LINE
  5
EBB
  8
3
 10
23.9068467118349588
 20
50.5354344641364222
 30
0.0
 11
23.9068467118349588
 21
38.5354344641364293
 31
0.0
  0
LINE
  5
EBC
  8
3
 10
24.3992337569372211
 20
50.5354344641364222
 30
0.0
 11
24.3992337569372211
 21
38.5354344641364293
 31
0.0
  0
LINE
  5
EBD
  8
3
 10
24.9329980812058096
 20
50.5354344641364222
 30
0.0
 11
24.9329980812058096
 21
38.5354344641364932
 31
0.0
  0
LINE
  5
EBE
  8
3
 10
25.5066766737293413
 20
50.5354344641364222
 30
0.0
 11
25.5066766737293413
 21
38.5354344641364293
 31
0.0
  0
LINE
  5
EBF
  8
3
 10
26.1186971213617483
 20
50.5354344641364222
 30
0.0
 11
26.1186971213617483
 21
38.5354344641364293
 31
0.0
  0
LINE
  5
EC0
  8
3
 10
26.7673819185969499
 20
50.5354344641364222
 30
0.0
 11
26.7673819185970103
 21
38.5354344641364932
 31
0.0
  0
LINE
  5
EC1
  8
3
 10
27.4509530654953906
 20
50.5354344641364222
 30
0.0
 11
27.4509530654953906
 21
38.5354344641364293
 31
0.0
  0
LINE
  5
EC2
  8
3
 10
28.1675369410577616
 20
50.5354344641364222
 30
0.0
 11
28.1675369410577616
 21
38.5354344641364293
 31
0.0
  0
LINE
  5
EC3
  8
3
 10
28.9151694386902989
 20
50.5354344641364222
 30
0.0
 11
28.9151694386903486
 21
38.5354344641364293
 31
0.0
  0
LINE
  5
EC4
  8
3
 10
29.6918013496843116
 20
50.5354344641364222
 30
0.0
 11
29.6918013496843116
 21
38.5354344641364293
 31
0.0
  0
LINE
  5
EC5
  8
3
 10
30.4953039799548016
 20
50.5354344641364222
 30
0.0
 11
30.4953039799548016
 21
38.5354344641364222
 31
0.0
  0
LINE
  5
EC6
  8
3
 10
31.3234749846430205
 20
50.5354344641364222
 30
0.0
 11
31.3234749846430205
 21
38.5354344641364222
 31
0.0
  0
LINE
  5
EC7
  8
3
 10
32.1740444045904397
 20
50.5354344641364222
 30
0.0
 11
32.1740444045904397
 21
38.5354344641364222
 31
0.0
  0
LINE
  5
EC8
  8
3
 10
33.0446808881394318
 20
50.5354344641364222
 30
0.0
 11
33.0446808881394318
 21
38.5354344641364222
 31
0.0
  0
LINE
  5
EC9
  8
3
 10
33.9329980812057386
 20
50.5354344641364222
 30
0.0
 11
33.9329980812057386
 21
38.5354344641364222
 31
0.0
  0
LINE
  5
ECA
  8
3
 10
34.8365611681094691
 20
50.5354344641364222
 30
0.0
 11
34.8365611681094691
 21
38.5354344641364222
 31
0.0
  0
LINE
  5
ECB
  8
3
 10
35.7528935452351533
 20
50.5354344641364222
 30
0.0
 11
35.7528935452351533
 21
38.5354344641364222
 31
0.0
  0
LINE
  5
ECC
  8
3
 10
36.6794836092306298
 20
50.5354344641364222
 30
0.0
 11
36.6794836092306298
 21
38.535434464136479
 31
0.0
  0
LINE
  5
ECD
  8
3
 10
37.6137916411370483
 20
50.5354344641364222
 30
0.0
 11
37.6137916411370483
 21
38.5354344641364222
 31
0.0
  0
LINE
  5
ECE
  8
3
 10
38.5532567675818214
 20
50.5354344641364222
 30
0.0
 11
38.5532567675818214
 21
38.5354344641364222
 31
0.0
  0
TEXT
  5
FCE
  8
0
 62
     3
 10
0.0
 20
0.0
 30
0.0
 40
10.0
  1
BJ757-10001-SUS
  7
STANDARD1
  0
POLYLINE
  5
10DB
  8
0
 10
38.4740315334838954
 20
104.4300235776452723
 30
0.0
 66
     1
 70
     8
  0
VERTEX
  8
0
  5
1149
 10
38.4740
 20
104.430
 30
0.00000
  70
    32
  0
VERTEX
  8
0
  5
114A
 10
38.3239
 20
104.475
 30
0.00000
  70
    32
  0
VERTEX
  8
0
  5
114B
 10
38.1725
 20
104.516
 30
0.00000
  70
    32
  0
VERTEX
  8
0
  5
114C
 10
38.0199
 20
104.552
 30
0.00000
  70
    32
  0
VERTEX
  8
0
  5
114D
 10
37.8663
 20
104.584
 30
0.00000
  70
    32
  0
VERTEX
  8
0
  5
114E
 10
37.7117
 20
104.612
 30
0.00000
  70
    32
  0
VERTEX
  8
0
  5
114F
 10
37.5564
 20
104.636
 30
0.00000
  70
    32
  0
VERTEX
  8
0
  5
1150
 10
37.4004
 20
104.654
 30
0.00000
  70
    32
  0
VERTEX
  8
0
  5
1151
 10
37.2439
 20
104.669
 30
0.00000
  70
    32
  0
VERTEX
  8
0
  5
1152
 10
37.0870
 20
104.679
 30
0.00000
  70
    32
  0
VERTEX
  8
0
  5
1153
 10
36.9299
 20
104.684
 30
0.00000
  70
    32
  0
VERTEX
  8
0
  5
1154
 10
36.7727
 20
104.685
 30
0.00000
  70
    32
  0
VERTEX
  8
0
  5
1155
 10
36.6156
 20
104.682
 30
0.00000
  70
    32
  0
VERTEX
  8
0
  5
1156
 10
36.4586
 20
104.674
 30
0.00000
  70
    32
  0
VERTEX
  8
0
  5
1157
 10
36.3019
 20
104.661
 30
0.00000
  70
    32
  0
VERTEX
  8
0
  5
1158
 10
36.1457
 20
104.645
 30
0.00000
  70
    32
  0
VERTEX
  8
0
  5
1159
 10
35.9900
 20
104.623
 30
0.00000
  70
    32
  0
VERTEX
  8
0
  5
115A
 10
35.8351
 20
104.598
 30
0.00000
  70
    32
  0
VERTEX
  8
0
  5
115B
 10
35.6810
 20
104.567
 30
0.00000
  70
    32
  0
VERTEX
  8
0
  5
115C
 10
35.5280
 20
104.533
 30
0.00000
  70
    32
  0
VERTEX
  8
0
  5
115D
 10
35.3760
 20
104.494
 30
0.00000
  70
    32
  0
VERTEX
  8
0
  5
115E
 10
35.2253
 20
104.451
 30
0.00000
  70
    32
  0
VERTEX
  8
0
  5
115F
 10
35.0759
 20
104.404
 30
0.00000
  70
    32
  0
VERTEX
  8
0
  5
1160
 10
34.9281
 20
104.352
 30
0.00000
  70
    32
  0
VERTEX
  8
0
  5
1161
 10
34.7819
 20
104.296
 30
0.00000
  70
    32
  0
VERTEX
  8
0
  5
1162
 10
34.6375
 20
104.236
 30
0.00000
  70
    32
  0
VERTEX
  8
0
  5
1163
 10
34.4950
 20
104.172
 30
0.00000
  70
    32
  0
VERTEX
  8
0
  5
1164
 10
34.3545
 20
104.104
 30
0.00000
  70
    32
  0
VERTEX
  8
0
  5
1165
 10
34.2161
 20
104.032
 30
0.00000
  70
    32
  0
VERTEX
  8
0
  5
1166
 10
34.0800
 20
103.956
 30
0.00000
  70
    32
  0
VERTEX
  8
0
  5
1167
 10
33.9463
 20
103.876
 30
0.00000
  70
    32
  0
VERTEX
  8
0
  5
1168
 10
33.8151
 20
103.792
 30
0.00000
  70
    32
  0
VERTEX
  8
0
  5
1169
 10
33.6865
 20
103.705
 30
0.00000
  70
    32
  0
VERTEX
  8
0
  5
116A
 10
33.5606
 20
103.614
 30
0.00000
  70
    32
  0
VERTEX
  8
0
  5
116B
 10
33.4375
 20
103.520
 30
0.00000
  70
    32
  0
VERTEX
  8
0
  5
116C
 10
33.3174
 20
103.422
 30
0.00000
  70
    32
  0
VERTEX
  8
0
  5
116D
 10
33.2003
 20
103.320
 30
0.00000
  70
    32
  0
VERTEX
  8
0
  5
116E
 10
33.0863
 20
103.216
 30
0.00000
  70
    32
  0
VERTEX
  8
0
  5
116F
 10
32.9756
 20
103.108
 30
0.00000
  70
    32
  0
VERTEX
  8
0
  5
1170
 10
32.8682
 20
102.997
 30
0.00000
  70
    32
  0
VERTEX
  8
0
  5
1171
 10
32.7643
 20
102.883
 30
0.00000
  70
    32
  0
VERTEX
  8
0
  5
1172
 10
32.6639
 20
102.766
 30
0.00000
  70
    32
  0
VERTEX
  8
0
  5
1173
 10
32.5671
 20
102.647
 30
0.00000
  70
    32
  0
VERTEX
  8
0
  5
1174
 10
32.4740
 20
102.524
 30
0.00000
  70
    32
  0
VERTEX
  8
0
  5
1175
 10
32.3846
 20
102.399
 30
0.00000
  70
    32
  0
VERTEX
  8
0
  5
1176
 10
32.2991
 20
102.272
 30
0.00000
  70
    32
  0
VERTEX
  8
0
  5
1177
 10
32.2176
 20
102.142
 30
0.00000
  70
    32
  0
VERTEX
  8
0
  5
1178
 10
32.1400
 20
102.010
 30
0.00000
  70
    32
  0
VERTEX
  8
0
  5
1179
 10
32.0665
 20
101.876
 30
0.00000
  70
    32
  0
VERTEX
  8
0
  5
117A
 10
31.9972
 20
101.740
 30
0.00000
  70
    32
  0
VERTEX
  8
0
  5
117B
 10
31.9320
 20
101.601
 30
0.00000
  70
    32
  0
VERTEX
  8
0
  5
117C
 10
31.8710
 20
101.461
 30
0.00000
  70
    32
  0
VERTEX
  8
0
  5
117D
 10
31.8144
 20
101.320
 30
0.00000
  70
    32
  0
VERTEX
  8
0
  5
117E
 10
31.7621
 20
101.177
 30
0.00000
  70
    32
  0
VERTEX
  8
0
  5
117F
 10
31.7142
 20
101.032
 30
0.00000
  70
    32
  0
VERTEX
  8
0
  5
1180
 10
31.6708
 20
100.886
 30
0.00000
  70
    32
  0
VERTEX
  8
0
  5
1181
 10
31.6318
 20
100.739
 30
0.00000
  70
    32
  0
VERTEX
  8
0
  5
1182
 10
31.5973
 20
100.591
 30
0.00000
  70
    32
  0
VERTEX
  8
0
  5
1183
 10
31.5674
 20
100.442
 30
0.00000
  70
    32
  0
VERTEX
  8
0
  5
1184
 10
31.5420
 20
100.292
 30
0.00000
  70
    32
  0
VERTEX
  8
0
  5
1185
 10
31.5212
 20
100.141
 30
0.00000
  70
    32
  0
VERTEX
  8
0
  5
1186
 10
31.5050
 20
99.9904
 30
0.00000
  70
    32
  0
VERTEX
  8
0
  5
1187
 10
31.4934
 20
99.8390
 30
0.00000
  70
    32
  0
VERTEX
  8
0
  5
1188
 10
31.4865
 20
99.6873
 30
0.00000
  70
    32
  0
VERTEX
  8
0
  5
1189
 10
31.4841
 20
99.5354
 30
0.00000
  70
    32
  0
VERTEX
  8
0
  5
118A
 10
31.4865
 20
99.3836
 30
0.00000
  70
    32
  0
VERTEX
  8
0
  5
118B
 10
31.4934
 20
99.2319
 30
0.00000
  70
    32
  0
VERTEX
  8
0
  5
118C
 10
31.5050
 20
99.0805
 30
0.00000
  70
    32
  0
VERTEX
  8
0
  5
118D
 10
31.5212
 20
98.9294
 30
0.00000
  70
    32
  0
VERTEX
  8
0
  5
118E
 10
31.5420
 20
98.7789
 30
0.00000
  70
    32
  0
VERTEX
  8
0
  5
118F
 10
31.5674
 20
98.6291
 30
0.00000
  70
    32
  0
VERTEX
  8
0
  5
1190
 10
31.5973
 20
98.4800
 30
0.00000
  70
    32
  0
VERTEX
  8
0
  5
1191
 10
31.6318
 20
98.3319
 30
0.00000
  70
    32
  0
VERTEX
  8
0
  5
1192
 10
31.6708
 20
98.1848
 30
0.00000
  70
    32
  0
VERTEX
  8
0
  5
1193
 10
31.7142
 20
98.0389
 30
0.00000
  70
    32
  0
VERTEX
  8
0
  5
1194
 10
31.7621
 20
97.8942
 30
0.00000
  70
    32
  0
VERTEX
  8
0
  5
1195
 10
31.8144
 20
97.7510
 30
0.00000
  70
    32
  0
VERTEX
  8
0
  5
1196
 10
31.8710
 20
97.6094
 30
0.00000
  70
    32
  0
VERTEX
  8
0
  5
1197
 10
31.9320
 20
97.4694
 30
0.00000
  70
    32
  0
VERTEX
  8
0
  5
1198
 10
31.9972
 20
97.3312
 30
0.00000
  70
    32
  0
VERTEX
  8
0
  5
1199
 10
32.0665
 20
97.1950
 30
0.00000
  70
    32
  0
VERTEX
  8
0
  5
119A
 10
32.1400
 20
97.0607
 30
0.00000
  70
    32
  0
VERTEX
  8
0
  5
119B
 10
32.2176
 20
96.9287
 30
0.00000
  70
    32
  0
VERTEX
  8
0
  5
119C
 10
32.2991
 20
96.7989
 30
0.00000
  70
    32
  0
VERTEX
  8
0
  5
119D
 10
32.3846
 20
96.6714
 30
0.00000
  70
    32
  0
VERTEX
  8
0
  5
119E
 10
32.4740
 20
96.5465
 30
0.00000
  70
    32
  0
VERTEX
  8
0
  5
119F
 10
32.5671
 20
96.4242
 30
0.00000
  70
    32
  0
VERTEX
  8
0
  5
11A0
 10
32.6639
 20
96.3045
 30
0.00000
  70
    32
  0
VERTEX
  8
0
  5
11A1
 10
32.7643
 20
96.1877
 30
0.00000
  70
    32
  0
VERTEX
  8
0
  5
11A2
 10
32.8682
 20
96.0738
 30
0.00000
  70
    32
  0
VERTEX
  8
0
  5
11A3
 10
32.9756
 20
95.9629
 30
0.00000
  70
    32
  0
VERTEX
  8
0
  5
11A4
 10
33.0863
 20
95.8551
 30
0.00000
  70
    32
  0
VERTEX
  8
0
  5
11A5
 10
33.2003
 20
95.7505
 30
0.00000
  70
    32
  0
VERTEX
  8
0
  5
11A6
 10
33.3174
 20
95.6492
 30
0.00000
  70
    32
  0
VERTEX
  8
0
  5
11A7
 10
33.4375
 20
95.5512
 30
0.00000
  70
    32
  0
VERTEX
  8
0
  5
11A8
 10
33.5606
 20
95.4567
 30
0.00000
  70
    32
  0
VERTEX
  8
0
  5
11A9
 10
33.6865
 20
95.3658
 30
0.00000
  70
    32
  0
VERTEX
  8
0
  5
11AA
 10
33.8151
 20
95.2785
 30
0.00000
  70
    32
  0
VERTEX
  8
0
  5
11AB
 10
33.9463
 20
95.1949
 30
0.00000
  70
    32
  0
VERTEX
  8
0
  5
11AC
 10
34.0800
 20
95.1151
 30
0.00000
  70
    32
  0
VERTEX
  8
0
  5
11AD
 10
34.2161
 20
95.0391
 30
0.00000
  70
    32
  0
VERTEX
  8
0
  5
11AE
 10
34.3545
 20
94.9670
 30
0.00000
  70
    32
  0
VERTEX
  8
0
  5
11AF
 10
34.4950
 20
94.8989
 30
0.00000
  70
    32
  0
VERTEX
  8
0
  5
11B0
 10
34.6375
 20
94.8349
 30
0.00000
  70
    32
  0
VERTEX
  8
0
  5
11B1
 10
34.7819
 20
94.7749
 30
0.00000
  70
    32
  0
VERTEX
  8
0
  5
11B2
 10
34.9281
 20
94.7190
 30
0.00000
  70
    32
  0
VERTEX
  8
0
  5
11B3
 10
35.0759
 20
94.6674
 30
0.00000
  70
    32
  0
VERTEX
  8
0
  5
11B4
 10
35.2253
 20
94.6199
 30
0.00000
  70
    32
  0
VERTEX
  8
0
  5
11B5
 10
35.3760
 20
94.5768
 30
0.00000
  70
    32
  0
VERTEX
  8
0
  5
11B6
 10
35.5280
 20
94.5379
 30
0.00000
  70
    32
  0
VERTEX
  8
0
  5
11B7
 10
35.6810
 20
94.5034
 30
0.00000
  70
    32
  0
VERTEX
  8
0
  5
11B8
 10
35.8351
 20
94.4733
 30
0.00000
  70
    32
  0
VERTEX
  8
0
  5
11B9
 10
35.9900
 20
94.4476
 30
0.00000
  70
    32
  0
VERTEX
  8
0
  5
11BA
 10
36.1457
 20
94.4263
 30
0.00000
  70
    32
  0
VERTEX
  8
0
  5
11BB
 10
36.3019
 20
94.4094
 30
0.00000
  70
    32
  0
VERTEX
  8
0
  5
11BC
 10
36.4586
 20
94.3970
 30
0.00000
  70
    32
  0
VERTEX
  8
0
  5
11BD
 10
36.6156
 20
94.3891
 30
0.00000
  70
    32
  0
VERTEX
  8
0
  5
11BE
 10
36.7727
 20
94.3856
 30
0.00000
  70
    32
  0
VERTEX
  8
0
  5
11BF
 10
36.9299
 20
94.3866
 30
0.00000
  70
    32
  0
VERTEX
  8
0
  5
11C0
 10
37.0870
 20
94.3921
 30
0.00000
  70
    32
  0
VERTEX
  8
0
  5
11C1
 10
37.2439
 20
94.4021
 30
0.00000
  70
    32
  0
VERTEX
  8
0
  5
11C2
 10
37.4004
 20
94.4165
 30
0.00000
  70
    32
  0
VERTEX
  8
0
  5
11C3
 10
37.5564
 20
94.4354
 30
0.00000
  70
    32
  0
VERTEX
  8
0
  5
11C4
 10
37.7117
 20
94.4587
 30
0.00000
  70
    32
  0
VERTEX
  8
0
  5
11C5
 10
37.8663
 20
94.4864
 30
0.00000
  70
    32
  0
VERTEX
  8
0
  5
11C6
 10
38.0199
 20
94.5185
 30
0.00000
  70
    32
  0
VERTEX
  8
0
  5
11C7
 10
38.1725
 20
94.5550
 30
0.00000
  70
    32
  0
VERTEX
  8
0
  5
11C8
 10
38.3239
 20
94.5958
 30
0.00000
  70
    32
  0
VERTEX
  8
0
  5
11C9
 10
38.4740
 20
94.6408
 30
0.00000
  70
    32
  0
SEQEND
  8
0
  5
11CA
  0
CIRCLE
  5
10DC
  8
0
 10
39.495303979954798
 20
99.535434464136415
 30
0.0
 40
17.0
  0
CIRCLE
  5
10DD
  8
0
 10
39.495303979954798
 20
99.5354344641364293
 30
0.0
 40
18.0
  0
POLYLINE
  5
10DE
  8
2
 10
40.516576426425587
 20
94.640845350627643
 30
0.0
 66
     1
 70
     8
  0
VERTEX
  8
2
  5
11CB
 10
40.5166
 20
94.6408
 30
0.00000
  70
    32
  0
VERTEX
  8
2
  5
11CC
 10
40.6667
 20
94.5958
 30
0.00000
  70
    32
  0
VERTEX
  8
2
  5
11CD
 10
40.8181
 20
94.5550
 30
0.00000
  70
    32
  0
VERTEX
  8
2
  5
11CE
 10
40.9707
 20
94.5185
 30
0.00000
  70
    32
  0
VERTEX
  8
2
  5
11CF
 10
41.1243
 20
94.4864
 30
0.00000
  70
    32
  0
VERTEX
  8
2
  5
11D0
 10
41.2789
 20
94.4587
 30
0.00000
  70
    32
  0
VERTEX
  8
2
  5
11D1
 10
41.4342
 20
94.4354
 30
0.00000
  70
    32
  0
VERTEX
  8
2
  5
11D2
 10
41.5902
 20
94.4165
 30
0.00000
  70
    32
  0
VERTEX
  8
2
  5
11D3
 10
41.7467
 20
94.4021
 30
0.00000
  70
    32
  0
VERTEX
  8
2
  5
11D4
 10
41.9036
 20
94.3921
 30
0.00000
  70
    32
  0
VERTEX
  8
2
  5
11D5
 10
42.0607
 20
94.3866
 30
0.00000
  70
    32
  0
VERTEX
  8
2
  5
11D6
 10
42.2179
 20
94.3856
 30
0.00000
  70
    32
  0
VERTEX
  8
2
  5
11D7
 10
42.3750
 20
94.3891
 30
0.00000
  70
    32
  0
VERTEX
  8
2
  5
11D8
 10
42.5320
 20
94.3970
 30
0.00000
  70
    32
  0
VERTEX
  8
2
  5
11D9
 10
42.6887
 20
94.4094
 30
0.00000
  70
    32
  0
VERTEX
  8
2
  5
11DA
 10
42.8449
 20
94.4263
 30
0.00000
  70
    32
  0
VERTEX
  8
2
  5
11DB
 10
43.0006
 20
94.4476
 30
0.00000
  70
    32
  0
VERTEX
  8
2
  5
11DC
 10
43.1555
 20
94.4733
 30
0.00000
  70
    32
  0
VERTEX
  8
2
  5
11DD
 10
43.3096
 20
94.5034
 30
0.00000
  70
    32
  0
VERTEX
  8
2
  5
11DE
 10
43.4627
 20
94.5379
 30
0.00000
  70
    32
  0
VERTEX
  8
2
  5
11DF
 10
43.6146
 20
94.5768
 30
0.00000
  70
    32
  0
VERTEX
  8
2
  5
11E0
 10
43.7653
 20
94.6199
 30
0.00000
  70
    32
  0
VERTEX
  8
2
  5
11E1
 10
43.9147
 20
94.6674
 30
0.00000
  70
    32
  0
VERTEX
  8
2
  5
11E2
 10
44.0625
 20
94.7190
 30
0.00000
  70
    32
  0
VERTEX
  8
2
  5
11E3
 10
44.2087
 20
94.7749
 30
0.00000
  70
    32
  0
VERTEX
  8
2
  5
11E4
 10
44.3531
 20
94.8349
 30
0.00000
  70
    32
  0
VERTEX
  8
2
  5
11E5
 10
44.4956
 20
94.8989
 30
0.00000
  70
    32
  0
VERTEX
  8
2
  5
11E6
 10
44.6361
 20
94.9670
 30
0.00000
  70
    32
  0
VERTEX
  8
2
  5
11E7
 10
44.7745
 20
95.0391
 30
0.00000
  70
    32
  0
VERTEX
  8
2
  5
11E8
 10
44.9106
 20
95.1151
 30
0.00000
  70
    32
  0
VERTEX
  8
2
  5
11E9
 10
45.0443
 20
95.1949
 30
0.00000
  70
    32
  0
VERTEX
  8
2
  5
11EA
 10
45.1755
 20
95.2785
 30
0.00000
  70
    32
  0
VERTEX
  8
2
  5
11EB
 10
45.3041
 20
95.3658
 30
0.00000
  70
    32
  0
VERTEX
  8
2
  5
11EC
 10
45.4300
 20
95.4567
 30
0.00000
  70
    32
  0
VERTEX
  8
2
  5
11ED
 10
45.5531
 20
95.5512
 30
0.00000
  70
    32
  0
VERTEX
  8
2
  5
11EE
 10
45.6732
 20
95.6492
 30
0.00000
  70
    32
  0
VERTEX
  8
2
  5
11EF
 10
45.7903
 20
95.7505
 30
0.00000
  70
    32
  0
VERTEX
  8
2
  5
11F0
 10
45.9043
 20
95.8551
 30
0.00000
  70
    32
  0
VERTEX
  8
2
  5
11F1
 10
46.0150
 20
95.9629
 30
0.00000
  70
    32
  0
VERTEX
  8
2
  5
11F2
 10
46.1224
 20
96.0738
 30
0.00000
  70
    32
  0
VERTEX
  8
2
  5
11F3
 10
46.2263
 20
96.1877
 30
0.00000
  70
    32
  0
VERTEX
  8
2
  5
11F4
 10
46.3267
 20
96.3045
 30
0.00000
  70
    32
  0
VERTEX
  8
2
  5
11F5
 10
46.4235
 20
96.4242
 30
0.00000
  70
    32
  0
VERTEX
  8
2
  5
11F6
 10
46.5166
 20
96.5465
 30
0.00000
  70
    32
  0
VERTEX
  8
2
  5
11F7
 10
46.6060
 20
96.6714
 30
0.00000
  70
    32
  0
VERTEX
  8
2
  5
11F8
 10
46.6915
 20
96.7989
 30
0.00000
  70
    32
  0
VERTEX
  8
2
  5
11F9
 10
46.7730
 20
96.9287
 30
0.00000
  70
    32
  0
VERTEX
  8
2
  5
11FA
 10
46.8506
 20
97.0607
 30
0.00000
  70
    32
  0
VERTEX
  8
2
  5
11FB
 10
46.9241
 20
97.1950
 30
0.00000
  70
    32
  0
VERTEX
  8
2
  5
11FC
 10
46.9934
 20
97.3312
 30
0.00000
  70
    32
  0
VERTEX
  8
2
  5
11FD
 10
47.0586
 20
97.4694
 30
0.00000
  70
    32
  0
VERTEX
  8
2
  5
11FE
 10
47.1196
 20
97.6094
 30
0.00000
  70
    32
  0
VERTEX
  8
2
  5
11FF
 10
47.1762
 20
97.7510
 30
0.00000
  70
    32
  0
VERTEX
  8
2
  5
1200
 10
47.2285
 20
97.8942
 30
0.00000
  70
    32
  0
VERTEX
  8
2
  5
1201
 10
47.2764
 20
98.0389
 30
0.00000
  70
    32
  0
VERTEX
  8
2
  5
1202
 10
47.3198
 20
98.1848
 30
0.00000
  70
    32
  0
VERTEX
  8
2
  5
1203
 10
47.3588
 20
98.3319
 30
0.00000
  70
    32
  0
VERTEX
  8
2
  5
1204
 10
47.3933
 20
98.4800
 30
0.00000
  70
    32
  0
VERTEX
  8
2
  5
1205
 10
47.4233
 20
98.6291
 30
0.00000
  70
    32
  0
VERTEX
  8
2
  5
1206
 10
47.4486
 20
98.7789
 30
0.00000
  70
    32
  0
VERTEX
  8
2
  5
1207
 10
47.4694
 20
98.9294
 30
0.00000
  70
    32
  0
VERTEX
  8
2
  5
1208
 10
47.4856
 20
99.0805
 30
0.00000
  70
    32
  0
VERTEX
  8
2
  5
1209
 10
47.4972
 20
99.2319
 30
0.00000
  70
    32
  0
VERTEX
  8
2
  5
120A
 10
47.5042
 20
99.3836
 30
0.00000
  70
    32
  0
VERTEX
  8
2
  5
120B
 10
47.5065
 20
99.5354
 30
0.00000
  70
    32
  0
VERTEX
  8
2
  5
120C
 10
47.5042
 20
99.6873
 30
0.00000
  70
    32
  0
VERTEX
  8
2
  5
120D
 10
47.4972
 20
99.8390
 30
0.00000
  70
    32
  0
VERTEX
  8
2
  5
120E
 10
47.4856
 20
99.9904
 30
0.00000
  70
    32
  0
VERTEX
  8
2
  5
120F
 10
47.4694
 20
100.141
 30
0.00000
  70
    32
  0
VERTEX
  8
2
  5
1210
 10
47.4486
 20
100.292
 30
0.00000
  70
    32
  0
VERTEX
  8
2
  5
1211
 10
47.4233
 20
100.442
 30
0.00000
  70
    32
  0
VERTEX
  8
2
  5
1212
 10
47.3933
 20
100.591
 30
0.00000
  70
    32
  0
VERTEX
  8
2
  5
1213
 10
47.3588
 20
100.739
 30
0.00000
  70
    32
  0
VERTEX
  8
2
  5
1214
 10
47.3198
 20
100.886
 30
0.00000
  70
    32
  0
VERTEX
  8
2
  5
1215
 10
47.2764
 20
101.032
 30
0.00000
  70
    32
  0
VERTEX
  8
2
  5
1216
 10
47.2285
 20
101.177
 30
0.00000
  70
    32
  0
VERTEX
  8
2
  5
1217
 10
47.1762
 20
101.320
 30
0.00000
  70
    32
  0
VERTEX
  8
2
  5
1218
 10
47.1196
 20
101.461
 30
0.00000
  70
    32
  0
VERTEX
  8
2
  5
1219
 10
47.0586
 20
101.601
 30
0.00000
  70
    32
  0
VERTEX
  8
2
  5
121A
 10
46.9934
 20
101.740
 30
0.00000
  70
    32
  0
VERTEX
  8
2
  5
121B
 10
46.9241
 20
101.876
 30
0.00000
  70
    32
  0
VERTEX
  8
2
  5
121C
 10
46.8506
 20
102.010
 30
0.00000
  70
    32
  0
VERTEX
  8
2
  5
121D
 10
46.7730
 20
102.142
 30
0.00000
  70
    32
  0
VERTEX
  8
2
  5
121E
 10
46.6915
 20
102.272
 30
0.00000
  70
    32
  0
VERTEX
  8
2
  5
121F
 10
46.6060
 20
102.399
 30
0.00000
  70
    32
  0
VERTEX
  8
2
  5
1220
 10
46.5166
 20
102.524
 30
0.00000
  70
    32
  0
VERTEX
  8
2
  5
1221
 10
46.4235
 20
102.647
 30
0.00000
  70
    32
  0
VERTEX
  8
2
  5
1222
 10
46.3267
 20
102.766
 30
0.00000
  70
    32
  0
VERTEX
  8
2
  5
1223
 10
46.2263
 20
102.883
 30
0.00000
  70
    32
  0
VERTEX
  8
2
  5
1224
 10
46.1224
 20
102.997
 30
0.00000
  70
    32
  0
VERTEX
  8
2
  5
1225
 10
46.0150
 20
103.108
 30
0.00000
  70
    32
  0
VERTEX
  8
2
  5
1226
 10
45.9043
 20
103.216
 30
0.00000
  70
    32
  0
VERTEX
  8
2
  5
1227
 10
45.7903
 20
103.320
 30
0.00000
  70
    32
  0
VERTEX
  8
2
  5
1228
 10
45.6732
 20
103.422
 30
0.00000
  70
    32
  0
VERTEX
  8
2
  5
1229
 10
45.5531
 20
103.520
 30
0.00000
  70
    32
  0
VERTEX
  8
2
  5
122A
 10
45.4300
 20
103.614
 30
0.00000
  70
    32
  0
VERTEX
  8
2
  5
122B
 10
45.3041
 20
103.705
 30
0.00000
  70
    32
  0
VERTEX
  8
2
  5
122C
 10
45.1755
 20
103.792
 30
0.00000
  70
    32
  0
VERTEX
  8
2
  5
122D
 10
45.0443
 20
103.876
 30
0.00000
  70
    32
  0
VERTEX
  8
2
  5
122E
 10
44.9106
 20
103.956
 30
0.00000
  70
    32
  0
VERTEX
  8
2
  5
122F
 10
44.7745
 20
104.032
 30
0.00000
  70
    32
  0
VERTEX
  8
2
  5
1230
 10
44.6361
 20
104.104
 30
0.00000
  70
    32
  0
VERTEX
  8
2
  5
1231
 10
44.4956
 20
104.172
 30
0.00000
  70
    32
  0
VERTEX
  8
2
  5
1232
 10
44.3531
 20
104.236
 30
0.00000
  70
    32
  0
VERTEX
  8
2
  5
1233
 10
44.2087
 20
104.296
 30
0.00000
  70
    32
  0
VERTEX
  8
2
  5
1234
 10
44.0625
 20
104.352
 30
0.00000
  70
    32
  0
VERTEX
  8
2
  5
1235
 10
43.9147
 20
104.404
 30
0.00000
  70
    32
  0
VERTEX
  8
2
  5
1236
 10
43.7653
 20
104.451
 30
0.00000
  70
    32
  0
VERTEX
  8
2
  5
1237
 10
43.6146
 20
104.494
 30
0.00000
  70
    32
  0
VERTEX
  8
2
  5
1238
 10
43.4627
 20
104.533
 30
0.00000
  70
    32
  0
VERTEX
  8
2
  5
1239
 10
43.3096
 20
104.567
 30
0.00000
  70
    32
  0
VERTEX
  8
2
  5
123A
 10
43.1555
 20
104.598
 30
0.00000
  70
    32
  0
VERTEX
  8
2
  5
123B
 10
43.0006
 20
104.623
 30
0.00000
  70
    32
  0
VERTEX
  8
2
  5
123C
 10
42.8449
 20
104.645
 30
0.00000
  70
    32
  0
VERTEX
  8
2
  5
123D
 10
42.6887
 20
104.661
 30
0.00000
  70
    32
  0
VERTEX
  8
2
  5
123E
 10
42.5320
 20
104.674
 30
0.00000
  70
    32
  0
VERTEX
  8
2
  5
123F
 10
42.3750
 20
104.682
 30
0.00000
  70
    32
  0
VERTEX
  8
2
  5
1240
 10
42.2179
 20
104.685
 30
0.00000
  70
    32
  0
VERTEX
  8
2
  5
1241
 10
42.0607
 20
104.684
 30
0.00000
  70
    32
  0
VERTEX
  8
2
  5
1242
 10
41.9036
 20
104.679
 30
0.00000
  70
    32
  0
VERTEX
  8
2
  5
1243
 10
41.7467
 20
104.669
 30
0.00000
  70
    32
  0
VERTEX
  8
2
  5
1244
 10
41.5902
 20
104.654
 30
0.00000
  70
    32
  0
VERTEX
  8
2
  5
1245
 10
41.4342
 20
104.636
 30
0.00000
  70
    32
  0
VERTEX
  8
2
  5
1246
 10
41.2789
 20
104.612
 30
0.00000
  70
    32
  0
VERTEX
  8
2
  5
1247
 10
41.1243
 20
104.584
 30
0.00000
  70
    32
  0
VERTEX
  8
2
  5
1248
 10
40.9707
 20
104.552
 30
0.00000
  70
    32
  0
VERTEX
  8
2
  5
1249
 10
40.8181
 20
104.516
 30
0.00000
  70
    32
  0
VERTEX
  8
2
  5
124A
 10
40.6667
 20
104.475
 30
0.00000
  70
    32
  0
VERTEX
  8
2
  5
124B
 10
40.5166
 20
104.430
 30
0.00000
  70
    32
  0
SEQEND
  8
2
  5
124C
  0
LINE
  5
10DF
  8
2
 10
36.8158120556435122
 20
94.3854344641364094
 30
0.0
 11
42.174795904266162
 21
94.3854344641364804
 31
0.0
  0
LINE
  5
10E0
  8
2
 10
42.174795904266027
 20
104.6854344641364065
 30
0.0
 11
36.8158120556433914
 21
104.6854344641364065
 31
0.0
  0
LINE
  5
10E1
  8
1
 10
39.495303979954798
 20
120.5354344641364008
 30
0.0
 11
39.495303979954798
 21
78.535434464136415
 31
0.0
  0
LINE
  5
10E2
  8
1
 10
60.4953039799547909
 20
99.5354344641364293
 30
0.0
 11
18.4953039799547803
 21
99.5354344641364293
 31
0.0
  0
CIRCLE
  5
10E3
  8
0
 10
39.495303979954798
 20
99.5354344641364293
 30
0.0
 40
4.1879999999999979
  0
CIRCLE
  5
10E4
  8
3
 10
39.495303979954798
 20
99.5354344641364293
 30
0.0
 40
5.0
  0
ENDSEC
  0
EOF
