  0
SECTION
  2
HEADER
  9
$ACADVER
  1
AC1009
  9
$INSBASE
 10
0.0
 20
0.0
 30
0.0
  9
$EXTMIN
 10
0.0
 20
-2.960436562073669
 30
0.0
  9
$EXTMAX
 10
83.1105047748976773
 20
112.0
 30
0.0
  9
$LIMMIN
 10
0.0
 20
0.0
  9
$LIMMAX
 10
187.5
 20
135.0
  9
$ORTHOMODE
 70
     1
  9
$REGENMODE
 70
     1
  9
$FILLMODE
 70
     1
  9
$QTEXTMODE
 70
     0
  9
$MIRRTEXT
 70
     0
  9
$DRAGMODE
 70
     2
  9
$LTSCALE
 40
5.0
  9
$OSMODE
 70
    37
  9
$ATTMODE
 70
     1
  9
$TEXTSIZE
 40
2.500000000000048
  9
$TRACEWID
 40
0.05
  9
$TEXTSTYLE
  7
STANDARD
  9
$CLAYER
  8
0
  9
$CELTYPE
  6
BYLAYER
  9
$CECOLOR
 62
   256
  9
$DIMSCALE
 40
0.5
  9
$DIMASZ
 40
3.0
  9
$DIMEXO
 40
2.0
  9
$DIMDLI
 40
10.0
  9
$DIMRND
 40
0.0
  9
$DIMDLE
 40
0.0
  9
$DIMEXE
 40
2.0
  9
$DIMTP
 40
0.0
  9
$DIMTM
 40
0.0
  9
$DIMTXT
 40
3.2000000000000002
  9
$DIMCEN
 40
0.0
  9
$DIMTSZ
 40
0.0
  9
$DIMTOL
 70
     0
  9
$DIMLIM
 70
     0
  9
$DIMTIH
 70
     0
  9
$DIMTOH
 70
     0
  9
$DIMSE1
 70
     0
  9
$DIMSE2
 70
     0
  9
$DIMTAD
 70
     1
  9
$DIMZIN
 70
     0
  9
$DIMBLK
  1

  9
$DIMASO
 70
     1
  9
$DIMSHO
 70
     0
  9
$DIMPOST
  1

  9
$DIMAPOST
  1

  9
$DIMALT
 70
     0
  9
$DIMALTD
 70
     2
  9
$DIMALTF
 40
25.3999999999999986
  9
$DIMLFAC
 40
1.0
  9
$DIMTOFL
 70
     1
  9
$DIMTVP
 40
1.6000000000000001
  9
$DIMTIX
 70
     1
  9
$DIMSOXD
 70
     0
  9
$DIMSAH
 70
     0
  9
$DIMBLK1
  1

  9
$DIMBLK2
  1

  9
$DIMSTYLE
  2
STANDARD
  9
$DIMCLRD
 70
     0
  9
$DIMCLRE
 70
     0
  9
$DIMCLRT
 70
     0
  9
$DIMTFAC
 40
1.0
  9
$DIMGAP
 40
0.09
  9
$LUNITS
 70
     2
  9
$LUPREC
 70
     4
  9
$SKETCHINC
 40
0.1
  9
$FILLETRAD
 40
0.0
  9
$AUNITS
 70
     0
  9
$AUPREC
 70
     4
  9
$MENU
  1
E:\r13\win\SUPPORT\ACAD
  9
$ELEVATION
 40
0.0
  9
$PELEVATION
 40
0.0
  9
$THICKNESS
 40
0.0
  9
$LIMCHECK
 70
     0
  9
$BLIPMODE
 70
     0
  9
$CHAMFERA
 40
0.0
  9
$CHAMFERB
 40
0.0
  9
$SKPOLY
 70
     0
  9
$TDCREATE
 40
2449839.773148147854954
  9
$TDUPDATE
 40
2460580.5712500000372529
  9
$TDINDWG
 40
0.0485354051
  9
$TDUSRTIMER
 40
2456598.4178429399617016
  9
$USRTIMER
 70
     1
  9
$ANGBASE
 50
0.0
  9
$ANGDIR
 70
     0
  9
$PDMODE
 70
    35
  9
$PDSIZE
 40
0.0
  9
$PLINEWID
 40
0.0
  9
$COORDS
 70
     1
  9
$SPLFRAME
 70
     0
  9
$SPLINETYPE
 70
     6
  9
$SPLINESEGS
 70
     8
  9
$ATTDIA
 70
     1
  9
$ATTREQ
 70
     1
  9
$HANDLING
 70
     1
  9
$HANDSEED
  5
7C0
  9
$SURFTAB1
 70
     6
  9
$SURFTAB2
 70
     6
  9
$SURFTYPE
 70
     6
  9
$SURFU
 70
     6
  9
$SURFV
 70
     6
  9
$UCSNAME
  2

  9
$UCSORG
 10
0.0
 20
0.0
 30
0.0
  9
$UCSXDIR
 10
1.0
 20
0.0
 30
0.0
  9
$UCSYDIR
 10
0.0
 20
1.0
 30
0.0
  9
$PUCSNAME
  2

  9
$PUCSORG
 10
0.0
 20
0.0
 30
0.0
  9
$PUCSXDIR
 10
1.0
 20
0.0
 30
0.0
  9
$PUCSYDIR
 10
0.0
 20
1.0
 30
0.0
  9
$USERI1
 70
     0
  9
$USERI2
 70
     1
  9
$USERI3
 70
     1
  9
$USERI4
 70
     0
  9
$USERI5
 70
     0
  9
$USERR1
 40
0.0
  9
$USERR2
 40
0.0
  9
$USERR3
 40
0.0
  9
$USERR4
 40
0.0
  9
$USERR5
 40
0.0
  9
$WORLDVIEW
 70
     1
  9
$SHADEDGE
 70
     3
  9
$SHADEDIF
 70
    70
  9
$TILEMODE
 70
     1
  9
$MAXACTVP
 70
    16
  9
$PLIMCHECK
 70
     0
  9
$PEXTMIN
 10
1.0000000000000000E+20
 20
1.0000000000000000E+20
 30
1.0000000000000000E+20
  9
$PEXTMAX
 10
-1.0000000000000000E+20
 20
-1.0000000000000000E+20
 30
-1.0000000000000000E+20
  9
$PLIMMIN
 10
0.0
 20
0.0
  9
$PLIMMAX
 10
12.0
 20
9.0
  9
$UNITMODE
 70
     0
  9
$VISRETAIN
 70
     0
  9
$PLINEGEN
 70
     0
  9
$PSLTSCALE
 70
     0
  0
ENDSEC
  0
SECTION
  2
TABLES
  0
TABLE
  2
VPORT
 70
     1
  0
VPORT
  2
*ACTIVE
 70
     0
 10
0.0
 20
0.0
 11
1.0
 21
1.0
 12
140.9113300492610108
 22
60.0
 13
0.0
 23
0.0
 14
5.0
 24
5.0
 15
5.0
 25
5.0
 16
0.0
 26
0.0
 36
1.0
 17
0.0
 27
0.0
 37
0.0
 40
120.0
 41
2.3485221674876842
 42
50.0
 43
0.0
 44
0.0
 50
0.0
 51
0.0
 71
     0
 72
   500
 73
     1
 74
     0
 75
     0
 76
     0
 77
     0
 78
     2
  0
ENDTAB
  0
TABLE
  2
LTYPE
 70
     4
  0
LTYPE
  2
CONTINUOUS
 70
     0
  3
Solid Line
 72
    65
 73
     0
 40
0.0
  0
LTYPE
  2
CENTER
 70
     0
  3
____ _ ____ _ ____ _ ____ _ ____ _ ____ _ ____
 72
    65
 73
     4
 40
2.0
 49
1.25
 49
-0.25
 49
0.25
 49
-0.25
  0
LTYPE
  2
HIDDEN
 70
     0
  3
_ _ _ _ _ _ _ _ _ _ _ _ _ _ _ _ _ _ _ _ _ _ _
 72
    65
 73
     2
 40
0.375
 49
0.25
 49
-0.125
  0
LTYPE
  2
PHANTOM2
 70
     0
  3
___ _ _ ___ _ _ ___ _ _ ___ _ _
 72
    65
 73
     6
 40
1.25
 49
0.625
 49
-0.125
 49
0.125
 49
-0.125
 49
0.125
 49
-0.125
  0
ENDTAB
  0
TABLE
  2
LAYER
 70
     5
  0
LAYER
  2
0
 70
     0
 62
     7
  6
CONTINUOUS
  0
LAYER
  2
1
 70
     0
 62
     1
  6
CENTER
  0
LAYER
  2
3
 70
     0
 62
     3
  6
CONTINUOUS
  0
LAYER
  2
2
 70
     0
 62
     2
  6
HIDDEN
  0
LAYER
  2
DEFPOINTS
 70
     0
 62
     7
  6
CONTINUOUS
  0
ENDTAB
  0
TABLE
  2
STYLE
 70
     2
  0
STYLE
  2
STANDARD
 70
     0
 40
0.0
 41
1.0
 50
0.0
 71
     0
 42
2.500000000000048
  3
TXT
  4
BIGFONT
  0
STYLE
  2
STANDARD1
 70
     0
 40
0.0
 41
1.0
 50
0.0
 71
     0
 42
3.0
  3
txt
  4

  0
ENDTAB
  0
TABLE
  2
VIEW
 70
     1
  0
VIEW
  2
ALL
 70
     0
 40
135.0
 10
106.6284453781511985
 20
67.5
 41
0.0
 11
0.0
 21
0.0
 31
1.0
 12
0.0
 22
0.0
 32
0.0
 42
50.0
 43
0.0
 44
0.0
 50
0.0
 71
     0
  0
ENDTAB
  0
TABLE
  2
UCS
 70
     0
  0
ENDTAB
  0
TABLE
  2
APPID
 70
     6
  0
APPID
  2
ACAD
 70
     0
  0
APPID
  2
ACAD_MLEADERVER
 70
     0
  0
APPID
  2
ACAD_NAV_VCDISPLAY
 70
     0
  0
APPID
  2
ACAD_EXEMPT_FROM_CAD_STANDARDS
 70
     0
  0
APPID
  2
ACAD_TC
 70
     0
  0
APPID
  2
ACAD_DSTYLE_DIMRADIAL_EXTENSION
 70
     0
  0
ENDTAB
  0
TABLE
  2
DIMSTYLE
 70
     1
  0
DIMSTYLE
  2
STANDARD
 70
     0
  3

  4

  5

  6

  7

 40
1.0
 41
0.18
 42
0.0625
 43
0.38
 44
0.18
 45
0.0
 46
0.0
 47
0.0
 48
0.0
140
0.18
141
0.09
142
0.0
143
25.3999999999999986
144
1.0
145
0.0
146
1.0
147
0.09
 71
     0
 72
     0
 73
     1
 74
     1
 75
     0
 76
     0
 77
     0
 78
     0
170
     0
171
     2
172
     0
173
     0
174
     0
175
     0
176
     0
177
     0
178
     0
  0
ENDTAB
  0
ENDSEC
  0
SECTION
  2
BLOCKS
  0
BLOCK
  8
0
  2
$MODEL_SPACE
 70
     0
 10
0.0
 20
0.0
 30
0.0
  3
$MODEL_SPACE
  1

  0
ENDBLK
  5
E9
  8
0
  0
BLOCK
 67
     1
  8
0
  2
$PAPER_SPACE
 70
     0
 10
0.0
 20
0.0
 30
0.0
  3
$PAPER_SPACE
  1

  0
ENDBLK
  5
E7
 67
     1
  8
0
  0
ENDSEC
  0
SECTION
  2
ENTITIES
  0
TEXT
  5
48E
  8
0
 62
     3
 10
0.0
 20
0.0
 30
0.0
 40
10.0
  1
BJ757-04001
  7
STANDARD1
  0
POLYLINE
  5
5E1
  8
0
 10
49.7912451598894492
 20
101.6075019181109553
 30
0.0
 66
     1
 70
     8
  0
VERTEX
  8
0
  5
6BC
 10
49.7912
 20
101.608
 30
0.00000
  70
    32
  0
VERTEX
  8
0
  5
6BD
 10
49.7314
 20
101.654
 30
0.00000
  70
    32
  0
VERTEX
  8
0
  5
6BE
 10
49.6698
 20
101.699
 30
0.00000
  70
    32
  0
VERTEX
  8
0
  5
6BF
 10
49.6066
 20
101.742
 30
0.00000
  70
    32
  0
VERTEX
  8
0
  5
6C0
 10
49.5419
 20
101.782
 30
0.00000
  70
    32
  0
VERTEX
  8
0
  5
6C1
 10
49.4757
 20
101.821
 30
0.00000
  70
    32
  0
VERTEX
  8
0
  5
6C2
 10
49.4082
 20
101.857
 30
0.00000
  70
    32
  0
VERTEX
  8
0
  5
6C3
 10
49.3394
 20
101.890
 30
0.00000
  70
    32
  0
VERTEX
  8
0
  5
6C4
 10
49.2694
 20
101.922
 30
0.00000
  70
    32
  0
VERTEX
  8
0
  5
6C5
 10
49.1984
 20
101.950
 30
0.00000
  70
    32
  0
VERTEX
  8
0
  5
6C6
 10
49.1263
 20
101.977
 30
0.00000
  70
    32
  0
VERTEX
  8
0
  5
6C7
 10
49.0532
 20
102.001
 30
0.00000
  70
    32
  0
VERTEX
  8
0
  5
6C8
 10
48.9794
 20
102.022
 30
0.00000
  70
    32
  0
VERTEX
  8
0
  5
6C9
 10
48.9048
 20
102.041
 30
0.00000
  70
    32
  0
VERTEX
  8
0
  5
6CA
 10
48.8295
 20
102.057
 30
0.00000
  70
    32
  0
VERTEX
  8
0
  5
6CB
 10
48.7537
 20
102.071
 30
0.00000
  70
    32
  0
VERTEX
  8
0
  5
6CC
 10
48.6775
 20
102.082
 30
0.00000
  70
    32
  0
VERTEX
  8
0
  5
6CD
 10
48.6009
 20
102.090
 30
0.00000
  70
    32
  0
VERTEX
  8
0
  5
6CE
 10
48.5240
 20
102.096
 30
0.00000
  70
    32
  0
VERTEX
  8
0
  5
6CF
 10
48.4470
 20
102.099
 30
0.00000
  70
    32
  0
VERTEX
  8
0
  5
6D0
 10
48.3699
 20
102.100
 30
0.00000
  70
    32
  0
VERTEX
  8
0
  5
6D1
 10
48.2928
 20
102.098
 30
0.00000
  70
    32
  0
VERTEX
  8
0
  5
6D2
 10
48.2159
 20
102.093
 30
0.00000
  70
    32
  0
VERTEX
  8
0
  5
6D3
 10
48.1392
 20
102.086
 30
0.00000
  70
    32
  0
VERTEX
  8
0
  5
6D4
 10
48.0628
 20
102.076
 30
0.00000
  70
    32
  0
VERTEX
  8
0
  5
6D5
 10
47.9868
 20
102.063
 30
0.00000
  70
    32
  0
VERTEX
  8
0
  5
6D6
 10
47.9113
 20
102.048
 30
0.00000
  70
    32
  0
VERTEX
  8
0
  5
6D7
 10
47.8364
 20
102.030
 30
0.00000
  70
    32
  0
VERTEX
  8
0
  5
6D8
 10
47.7622
 20
102.010
 30
0.00000
  70
    32
  0
VERTEX
  8
0
  5
6D9
 10
47.6889
 20
101.987
 30
0.00000
  70
    32
  0
VERTEX
  8
0
  5
6DA
 10
47.6164
 20
101.962
 30
0.00000
  70
    32
  0
VERTEX
  8
0
  5
6DB
 10
47.5448
 20
101.934
 30
0.00000
  70
    32
  0
VERTEX
  8
0
  5
6DC
 10
47.4744
 20
101.904
 30
0.00000
  70
    32
  0
VERTEX
  8
0
  5
6DD
 10
47.4051
 20
101.871
 30
0.00000
  70
    32
  0
VERTEX
  8
0
  5
6DE
 10
47.3370
 20
101.836
 30
0.00000
  70
    32
  0
VERTEX
  8
0
  5
6DF
 10
47.2703
 20
101.799
 30
0.00000
  70
    32
  0
VERTEX
  8
0
  5
6E0
 10
47.2049
 20
101.759
 30
0.00000
  70
    32
  0
VERTEX
  8
0
  5
6E1
 10
47.1411
 20
101.717
 30
0.00000
  70
    32
  0
VERTEX
  8
0
  5
6E2
 10
47.0789
 20
101.673
 30
0.00000
  70
    32
  0
VERTEX
  8
0
  5
6E3
 10
47.0183
 20
101.627
 30
0.00000
  70
    32
  0
VERTEX
  8
0
  5
6E4
 10
46.9594
 20
101.579
 30
0.00000
  70
    32
  0
VERTEX
  8
0
  5
6E5
 10
46.9023
 20
101.529
 30
0.00000
  70
    32
  0
VERTEX
  8
0
  5
6E6
 10
46.8471
 20
101.477
 30
0.00000
  70
    32
  0
VERTEX
  8
0
  5
6E7
 10
46.7938
 20
101.423
 30
0.00000
  70
    32
  0
VERTEX
  8
0
  5
6E8
 10
46.7426
 20
101.368
 30
0.00000
  70
    32
  0
VERTEX
  8
0
  5
6E9
 10
46.6934
 20
101.310
 30
0.00000
  70
    32
  0
VERTEX
  8
0
  5
6EA
 10
46.6464
 20
101.251
 30
0.00000
  70
    32
  0
VERTEX
  8
0
  5
6EB
 10
46.6015
 20
101.191
 30
0.00000
  70
    32
  0
VERTEX
  8
0
  5
6EC
 10
46.5590
 20
101.129
 30
0.00000
  70
    32
  0
VERTEX
  8
0
  5
6ED
 10
46.5187
 20
101.065
 30
0.00000
  70
    32
  0
VERTEX
  8
0
  5
6EE
 10
46.4808
 20
101.000
 30
0.00000
  70
    32
  0
VERTEX
  8
0
  5
6EF
 10
46.4452
 20
100.934
 30
0.00000
  70
    32
  0
VERTEX
  8
0
  5
6F0
 10
46.4122
 20
100.867
 30
0.00000
  70
    32
  0
VERTEX
  8
0
  5
6F1
 10
46.3816
 20
100.799
 30
0.00000
  70
    32
  0
VERTEX
  8
0
  5
6F2
 10
46.3535
 20
100.729
 30
0.00000
  70
    32
  0
VERTEX
  8
0
  5
6F3
 10
46.3280
 20
100.659
 30
0.00000
  70
    32
  0
VERTEX
  8
0
  5
6F4
 10
46.3051
 20
100.588
 30
0.00000
  70
    32
  0
VERTEX
  8
0
  5
6F5
 10
46.2849
 20
100.516
 30
0.00000
  70
    32
  0
VERTEX
  8
0
  5
6F6
 10
46.2673
 20
100.444
 30
0.00000
  70
    32
  0
VERTEX
  8
0
  5
6F7
 10
46.2523
 20
100.370
 30
0.00000
  70
    32
  0
VERTEX
  8
0
  5
6F8
 10
46.2401
 20
100.297
 30
0.00000
  70
    32
  0
VERTEX
  8
0
  5
6F9
 10
46.2305
 20
100.223
 30
0.00000
  70
    32
  0
VERTEX
  8
0
  5
6FA
 10
46.2237
 20
100.149
 30
0.00000
  70
    32
  0
VERTEX
  8
0
  5
6FB
 10
46.2196
 20
100.074
 30
0.00000
  70
    32
  0
VERTEX
  8
0
  5
6FC
 10
46.2182
 20
100.000
 30
0.00000
  70
    32
  0
VERTEX
  8
0
  5
6FD
 10
46.2196
 20
99.9255
 30
0.00000
  70
    32
  0
VERTEX
  8
0
  5
6FE
 10
46.2237
 20
99.8512
 30
0.00000
  70
    32
  0
VERTEX
  8
0
  5
6FF
 10
46.2305
 20
99.7770
 30
0.00000
  70
    32
  0
VERTEX
  8
0
  5
700
 10
46.2401
 20
99.7031
 30
0.00000
  70
    32
  0
VERTEX
  8
0
  5
701
 10
46.2523
 20
99.6296
 30
0.00000
  70
    32
  0
VERTEX
  8
0
  5
702
 10
46.2673
 20
99.5565
 30
0.00000
  70
    32
  0
VERTEX
  8
0
  5
703
 10
46.2849
 20
99.4840
 30
0.00000
  70
    32
  0
VERTEX
  8
0
  5
704
 10
46.3051
 20
99.4121
 30
0.00000
  70
    32
  0
VERTEX
  8
0
  5
705
 10
46.3280
 20
99.3410
 30
0.00000
  70
    32
  0
VERTEX
  8
0
  5
706
 10
46.3535
 20
99.2707
 30
0.00000
  70
    32
  0
VERTEX
  8
0
  5
707
 10
46.3816
 20
99.2014
 30
0.00000
  70
    32
  0
VERTEX
  8
0
  5
708
 10
46.4122
 20
99.1330
 30
0.00000
  70
    32
  0
VERTEX
  8
0
  5
709
 10
46.4452
 20
99.0657
 30
0.00000
  70
    32
  0
VERTEX
  8
0
  5
70A
 10
46.4808
 20
98.9996
 30
0.00000
  70
    32
  0
VERTEX
  8
0
  5
70B
 10
46.5187
 20
98.9348
 30
0.00000
  70
    32
  0
VERTEX
  8
0
  5
70C
 10
46.5590
 20
98.8713
 30
0.00000
  70
    32
  0
VERTEX
  8
0
  5
70D
 10
46.6015
 20
98.8092
 30
0.00000
  70
    32
  0
VERTEX
  8
0
  5
70E
 10
46.6464
 20
98.7486
 30
0.00000
  70
    32
  0
VERTEX
  8
0
  5
70F
 10
46.6934
 20
98.6896
 30
0.00000
  70
    32
  0
VERTEX
  8
0
  5
710
 10
46.7426
 20
98.6322
 30
0.00000
  70
    32
  0
VERTEX
  8
0
  5
711
 10
46.7938
 20
98.5766
 30
0.00000
  70
    32
  0
VERTEX
  8
0
  5
712
 10
46.8471
 20
98.5227
 30
0.00000
  70
    32
  0
VERTEX
  8
0
  5
713
 10
46.9023
 20
98.4707
 30
0.00000
  70
    32
  0
VERTEX
  8
0
  5
714
 10
46.9594
 20
98.4207
 30
0.00000
  70
    32
  0
VERTEX
  8
0
  5
715
 10
47.0183
 20
98.3726
 30
0.00000
  70
    32
  0
VERTEX
  8
0
  5
716
 10
47.0789
 20
98.3266
 30
0.00000
  70
    32
  0
VERTEX
  8
0
  5
717
 10
47.1411
 20
98.2826
 30
0.00000
  70
    32
  0
VERTEX
  8
0
  5
718
 10
47.2049
 20
98.2408
 30
0.00000
  70
    32
  0
VERTEX
  8
0
  5
719
 10
47.2703
 20
98.2013
 30
0.00000
  70
    32
  0
VERTEX
  8
0
  5
71A
 10
47.3370
 20
98.1640
 30
0.00000
  70
    32
  0
VERTEX
  8
0
  5
71B
 10
47.4051
 20
98.1290
 30
0.00000
  70
    32
  0
VERTEX
  8
0
  5
71C
 10
47.4744
 20
98.0964
 30
0.00000
  70
    32
  0
VERTEX
  8
0
  5
71D
 10
47.5448
 20
98.0661
 30
0.00000
  70
    32
  0
VERTEX
  8
0
  5
71E
 10
47.6164
 20
98.0383
 30
0.00000
  70
    32
  0
VERTEX
  8
0
  5
71F
 10
47.6889
 20
98.0130
 30
0.00000
  70
    32
  0
VERTEX
  8
0
  5
720
 10
47.7622
 20
97.9901
 30
0.00000
  70
    32
  0
VERTEX
  8
0
  5
721
 10
47.8364
 20
97.9698
 30
0.00000
  70
    32
  0
VERTEX
  8
0
  5
722
 10
47.9113
 20
97.9520
 30
0.00000
  70
    32
  0
VERTEX
  8
0
  5
723
 10
47.9868
 20
97.9369
 30
0.00000
  70
    32
  0
VERTEX
  8
0
  5
724
 10
48.0628
 20
97.9243
 30
0.00000
  70
    32
  0
VERTEX
  8
0
  5
725
 10
48.1392
 20
97.9143
 30
0.00000
  70
    32
  0
VERTEX
  8
0
  5
726
 10
48.2159
 20
97.9069
 30
0.00000
  70
    32
  0
VERTEX
  8
0
  5
727
 10
48.2928
 20
97.9022
 30
0.00000
  70
    32
  0
VERTEX
  8
0
  5
728
 10
48.3699
 20
97.9001
 30
0.00000
  70
    32
  0
VERTEX
  8
0
  5
729
 10
48.4470
 20
97.9007
 30
0.00000
  70
    32
  0
VERTEX
  8
0
  5
72A
 10
48.5240
 20
97.9039
 30
0.00000
  70
    32
  0
VERTEX
  8
0
  5
72B
 10
48.6009
 20
97.9097
 30
0.00000
  70
    32
  0
VERTEX
  8
0
  5
72C
 10
48.6775
 20
97.9181
 30
0.00000
  70
    32
  0
VERTEX
  8
0
  5
72D
 10
48.7537
 20
97.9292
 30
0.00000
  70
    32
  0
VERTEX
  8
0
  5
72E
 10
48.8295
 20
97.9429
 30
0.00000
  70
    32
  0
VERTEX
  8
0
  5
72F
 10
48.9048
 20
97.9592
 30
0.00000
  70
    32
  0
VERTEX
  8
0
  5
730
 10
48.9794
 20
97.9780
 30
0.00000
  70
    32
  0
VERTEX
  8
0
  5
731
 10
49.0532
 20
97.9994
 30
0.00000
  70
    32
  0
VERTEX
  8
0
  5
732
 10
49.1263
 20
98.0233
 30
0.00000
  70
    32
  0
VERTEX
  8
0
  5
733
 10
49.1984
 20
98.0497
 30
0.00000
  70
    32
  0
VERTEX
  8
0
  5
734
 10
49.2694
 20
98.0785
 30
0.00000
  70
    32
  0
VERTEX
  8
0
  5
735
 10
49.3394
 20
98.1097
 30
0.00000
  70
    32
  0
VERTEX
  8
0
  5
736
 10
49.4082
 20
98.1434
 30
0.00000
  70
    32
  0
VERTEX
  8
0
  5
737
 10
49.4757
 20
98.1793
 30
0.00000
  70
    32
  0
VERTEX
  8
0
  5
738
 10
49.5419
 20
98.2176
 30
0.00000
  70
    32
  0
VERTEX
  8
0
  5
739
 10
49.6066
 20
98.2581
 30
0.00000
  70
    32
  0
VERTEX
  8
0
  5
73A
 10
49.6698
 20
98.3008
 30
0.00000
  70
    32
  0
VERTEX
  8
0
  5
73B
 10
49.7314
 20
98.3456
 30
0.00000
  70
    32
  0
VERTEX
  8
0
  5
73C
 10
49.7912
 20
98.3925
 30
0.00000
  70
    32
  0
SEQEND
  8
0
  5
73D
  0
CIRCLE
  5
5E2
  8
0
 10
49.9999999999999787
 20
100.0
 30
0.0
 40
7.5
  0
CIRCLE
  5
5E3
  8
0
 10
49.9999999999999787
 20
100.0
 30
0.0
 40
8.0
  0
POLYLINE
  5
5E4
  8
2
 10
50.6575271055035188
 20
98.1111754698945333
 30
0.0
 66
     1
 70
     8
  0
VERTEX
  8
2
  5
73E
 10
50.6575
 20
98.1112
 30
0.00000
  70
    32
  0
VERTEX
  8
2
  5
73F
 10
50.7198
 20
98.0831
 30
0.00000
  70
    32
  0
VERTEX
  8
2
  5
740
 10
50.7830
 20
98.0570
 30
0.00000
  70
    32
  0
VERTEX
  8
2
  5
741
 10
50.8470
 20
98.0328
 30
0.00000
  70
    32
  0
VERTEX
  8
2
  5
742
 10
50.9117
 20
98.0105
 30
0.00000
  70
    32
  0
VERTEX
  8
2
  5
743
 10
50.9772
 20
97.9903
 30
0.00000
  70
    32
  0
VERTEX
  8
2
  5
744
 10
51.0432
 20
97.9720
 30
0.00000
  70
    32
  0
VERTEX
  8
2
  5
745
 10
51.1099
 20
97.9558
 30
0.00000
  70
    32
  0
VERTEX
  8
2
  5
746
 10
51.1770
 20
97.9416
 30
0.00000
  70
    32
  0
VERTEX
  8
2
  5
747
 10
51.2446
 20
97.9295
 30
0.00000
  70
    32
  0
VERTEX
  8
2
  5
748
 10
51.3125
 20
97.9194
 30
0.00000
  70
    32
  0
VERTEX
  8
2
  5
749
 10
51.3807
 20
97.9115
 30
0.00000
  70
    32
  0
VERTEX
  8
2
  5
74A
 10
51.4492
 20
97.9056
 30
0.00000
  70
    32
  0
VERTEX
  8
2
  5
74B
 10
51.5178
 20
97.9018
 30
0.00000
  70
    32
  0
VERTEX
  8
2
  5
74C
 10
51.5865
 20
97.9001
 30
0.00000
  70
    32
  0
VERTEX
  8
2
  5
74D
 10
51.6552
 20
97.9005
 30
0.00000
  70
    32
  0
VERTEX
  8
2
  5
74E
 10
51.7239
 20
97.9030
 30
0.00000
  70
    32
  0
VERTEX
  8
2
  5
74F
 10
51.7924
 20
97.9076
 30
0.00000
  70
    32
  0
VERTEX
  8
2
  5
750
 10
51.8608
 20
97.9143
 30
0.00000
  70
    32
  0
VERTEX
  8
2
  5
751
 10
51.9289
 20
97.9231
 30
0.00000
  70
    32
  0
VERTEX
  8
2
  5
752
 10
51.9967
 20
97.9339
 30
0.00000
  70
    32
  0
VERTEX
  8
2
  5
753
 10
52.0641
 20
97.9468
 30
0.00000
  70
    32
  0
VERTEX
  8
2
  5
754
 10
52.1311
 20
97.9618
 30
0.00000
  70
    32
  0
VERTEX
  8
2
  5
755
 10
52.1975
 20
97.9788
 30
0.00000
  70
    32
  0
VERTEX
  8
2
  5
756
 10
52.2634
 20
97.9978
 30
0.00000
  70
    32
  0
VERTEX
  8
2
  5
757
 10
52.3286
 20
98.0188
 30
0.00000
  70
    32
  0
VERTEX
  8
2
  5
758
 10
52.3930
 20
98.0418
 30
0.00000
  70
    32
  0
VERTEX
  8
2
  5
759
 10
52.4567
 20
98.0667
 30
0.00000
  70
    32
  0
VERTEX
  8
2
  5
75A
 10
52.5195
 20
98.0936
 30
0.00000
  70
    32
  0
VERTEX
  8
2
  5
75B
 10
52.5815
 20
98.1224
 30
0.00000
  70
    32
  0
VERTEX
  8
2
  5
75C
 10
52.6424
 20
98.1531
 30
0.00000
  70
    32
  0
VERTEX
  8
2
  5
75D
 10
52.7023
 20
98.1856
 30
0.00000
  70
    32
  0
VERTEX
  8
2
  5
75E
 10
52.7611
 20
98.2199
 30
0.00000
  70
    32
  0
VERTEX
  8
2
  5
75F
 10
52.8188
 20
98.2560
 30
0.00000
  70
    32
  0
VERTEX
  8
2
  5
760
 10
52.8753
 20
98.2939
 30
0.00000
  70
    32
  0
VERTEX
  8
2
  5
761
 10
52.9305
 20
98.3334
 30
0.00000
  70
    32
  0
VERTEX
  8
2
  5
762
 10
52.9843
 20
98.3746
 30
0.00000
  70
    32
  0
VERTEX
  8
2
  5
763
 10
53.0368
 20
98.4175
 30
0.00000
  70
    32
  0
VERTEX
  8
2
  5
764
 10
53.0879
 20
98.4619
 30
0.00000
  70
    32
  0
VERTEX
  8
2
  5
765
 10
53.1375
 20
98.5079
 30
0.00000
  70
    32
  0
VERTEX
  8
2
  5
766
 10
53.1855
 20
98.5553
 30
0.00000
  70
    32
  0
VERTEX
  8
2
  5
767
 10
53.2320
 20
98.6042
 30
0.00000
  70
    32
  0
VERTEX
  8
2
  5
768
 10
53.2769
 20
98.6545
 30
0.00000
  70
    32
  0
VERTEX
  8
2
  5
769
 10
53.3201
 20
98.7061
 30
0.00000
  70
    32
  0
VERTEX
  8
2
  5
76A
 10
53.3616
 20
98.7590
 30
0.00000
  70
    32
  0
VERTEX
  8
2
  5
76B
 10
53.4013
 20
98.8132
 30
0.00000
  70
    32
  0
VERTEX
  8
2
  5
76C
 10
53.4392
 20
98.8685
 30
0.00000
  70
    32
  0
VERTEX
  8
2
  5
76D
 10
53.4753
 20
98.9250
 30
0.00000
  70
    32
  0
VERTEX
  8
2
  5
76E
 10
53.5096
 20
98.9826
 30
0.00000
  70
    32
  0
VERTEX
  8
2
  5
76F
 10
53.5419
 20
99.0411
 30
0.00000
  70
    32
  0
VERTEX
  8
2
  5
770
 10
53.5723
 20
99.1007
 30
0.00000
  70
    32
  0
VERTEX
  8
2
  5
771
 10
53.6008
 20
99.1611
 30
0.00000
  70
    32
  0
VERTEX
  8
2
  5
772
 10
53.6272
 20
99.2224
 30
0.00000
  70
    32
  0
VERTEX
  8
2
  5
773
 10
53.6517
 20
99.2844
 30
0.00000
  70
    32
  0
VERTEX
  8
2
  5
774
 10
53.6741
 20
99.3472
 30
0.00000
  70
    32
  0
VERTEX
  8
2
  5
775
 10
53.6944
 20
99.4106
 30
0.00000
  70
    32
  0
VERTEX
  8
2
  5
776
 10
53.7126
 20
99.4746
 30
0.00000
  70
    32
  0
VERTEX
  8
2
  5
777
 10
53.7288
 20
99.5391
 30
0.00000
  70
    32
  0
VERTEX
  8
2
  5
778
 10
53.7428
 20
99.6041
 30
0.00000
  70
    32
  0
VERTEX
  8
2
  5
779
 10
53.7547
 20
99.6695
 30
0.00000
  70
    32
  0
VERTEX
  8
2
  5
77A
 10
53.7644
 20
99.7352
 30
0.00000
  70
    32
  0
VERTEX
  8
2
  5
77B
 10
53.7720
 20
99.8011
 30
0.00000
  70
    32
  0
VERTEX
  8
2
  5
77C
 10
53.7774
 20
99.8673
 30
0.00000
  70
    32
  0
VERTEX
  8
2
  5
77D
 10
53.7807
 20
99.9336
 30
0.00000
  70
    32
  0
VERTEX
  8
2
  5
77E
 10
53.7818
 20
100.000
 30
0.00000
  70
    32
  0
VERTEX
  8
2
  5
77F
 10
53.7807
 20
100.066
 30
0.00000
  70
    32
  0
VERTEX
  8
2
  5
780
 10
53.7774
 20
100.133
 30
0.00000
  70
    32
  0
VERTEX
  8
2
  5
781
 10
53.7720
 20
100.199
 30
0.00000
  70
    32
  0
VERTEX
  8
2
  5
782
 10
53.7644
 20
100.265
 30
0.00000
  70
    32
  0
VERTEX
  8
2
  5
783
 10
53.7547
 20
100.331
 30
0.00000
  70
    32
  0
VERTEX
  8
2
  5
784
 10
53.7428
 20
100.396
 30
0.00000
  70
    32
  0
VERTEX
  8
2
  5
785
 10
53.7288
 20
100.461
 30
0.00000
  70
    32
  0
VERTEX
  8
2
  5
786
 10
53.7126
 20
100.525
 30
0.00000
  70
    32
  0
VERTEX
  8
2
  5
787
 10
53.6944
 20
100.589
 30
0.00000
  70
    32
  0
VERTEX
  8
2
  5
788
 10
53.6741
 20
100.653
 30
0.00000
  70
    32
  0
VERTEX
  8
2
  5
789
 10
53.6517
 20
100.716
 30
0.00000
  70
    32
  0
VERTEX
  8
2
  5
78A
 10
53.6272
 20
100.778
 30
0.00000
  70
    32
  0
VERTEX
  8
2
  5
78B
 10
53.6008
 20
100.839
 30
0.00000
  70
    32
  0
VERTEX
  8
2
  5
78C
 10
53.5723
 20
100.899
 30
0.00000
  70
    32
  0
VERTEX
  8
2
  5
78D
 10
53.5419
 20
100.959
 30
0.00000
  70
    32
  0
VERTEX
  8
2
  5
78E
 10
53.5096
 20
101.017
 30
0.00000
  70
    32
  0
VERTEX
  8
2
  5
78F
 10
53.4753
 20
101.075
 30
0.00000
  70
    32
  0
VERTEX
  8
2
  5
790
 10
53.4392
 20
101.131
 30
0.00000
  70
    32
  0
VERTEX
  8
2
  5
791
 10
53.4013
 20
101.187
 30
0.00000
  70
    32
  0
VERTEX
  8
2
  5
792
 10
53.3616
 20
101.241
 30
0.00000
  70
    32
  0
VERTEX
  8
2
  5
793
 10
53.3201
 20
101.294
 30
0.00000
  70
    32
  0
VERTEX
  8
2
  5
794
 10
53.2769
 20
101.346
 30
0.00000
  70
    32
  0
VERTEX
  8
2
  5
795
 10
53.2320
 20
101.396
 30
0.00000
  70
    32
  0
VERTEX
  8
2
  5
796
 10
53.1855
 20
101.445
 30
0.00000
  70
    32
  0
VERTEX
  8
2
  5
797
 10
53.1375
 20
101.492
 30
0.00000
  70
    32
  0
VERTEX
  8
2
  5
798
 10
53.0879
 20
101.538
 30
0.00000
  70
    32
  0
VERTEX
  8
2
  5
799
 10
53.0368
 20
101.583
 30
0.00000
  70
    32
  0
VERTEX
  8
2
  5
79A
 10
52.9843
 20
101.625
 30
0.00000
  70
    32
  0
VERTEX
  8
2
  5
79B
 10
52.9305
 20
101.667
 30
0.00000
  70
    32
  0
VERTEX
  8
2
  5
79C
 10
52.8753
 20
101.706
 30
0.00000
  70
    32
  0
VERTEX
  8
2
  5
79D
 10
52.8188
 20
101.744
 30
0.00000
  70
    32
  0
VERTEX
  8
2
  5
79E
 10
52.7611
 20
101.780
 30
0.00000
  70
    32
  0
VERTEX
  8
2
  5
79F
 10
52.7023
 20
101.814
 30
0.00000
  70
    32
  0
VERTEX
  8
2
  5
7A0
 10
52.6424
 20
101.847
 30
0.00000
  70
    32
  0
VERTEX
  8
2
  5
7A1
 10
52.5815
 20
101.878
 30
0.00000
  70
    32
  0
VERTEX
  8
2
  5
7A2
 10
52.5195
 20
101.906
 30
0.00000
  70
    32
  0
VERTEX
  8
2
  5
7A3
 10
52.4567
 20
101.933
 30
0.00000
  70
    32
  0
VERTEX
  8
2
  5
7A4
 10
52.3930
 20
101.958
 30
0.00000
  70
    32
  0
VERTEX
  8
2
  5
7A5
 10
52.3286
 20
101.981
 30
0.00000
  70
    32
  0
VERTEX
  8
2
  5
7A6
 10
52.2634
 20
102.002
 30
0.00000
  70
    32
  0
VERTEX
  8
2
  5
7A7
 10
52.1975
 20
102.021
 30
0.00000
  70
    32
  0
VERTEX
  8
2
  5
7A8
 10
52.1311
 20
102.038
 30
0.00000
  70
    32
  0
VERTEX
  8
2
  5
7A9
 10
52.0641
 20
102.053
 30
0.00000
  70
    32
  0
VERTEX
  8
2
  5
7AA
 10
51.9967
 20
102.066
 30
0.00000
  70
    32
  0
VERTEX
  8
2
  5
7AB
 10
51.9289
 20
102.077
 30
0.00000
  70
    32
  0
VERTEX
  8
2
  5
7AC
 10
51.8608
 20
102.086
 30
0.00000
  70
    32
  0
VERTEX
  8
2
  5
7AD
 10
51.7924
 20
102.092
 30
0.00000
  70
    32
  0
VERTEX
  8
2
  5
7AE
 10
51.7239
 20
102.097
 30
0.00000
  70
    32
  0
VERTEX
  8
2
  5
7AF
 10
51.6552
 20
102.099
 30
0.00000
  70
    32
  0
VERTEX
  8
2
  5
7B0
 10
51.5865
 20
102.100
 30
0.00000
  70
    32
  0
VERTEX
  8
2
  5
7B1
 10
51.5178
 20
102.098
 30
0.00000
  70
    32
  0
VERTEX
  8
2
  5
7B2
 10
51.4492
 20
102.094
 30
0.00000
  70
    32
  0
VERTEX
  8
2
  5
7B3
 10
51.3807
 20
102.089
 30
0.00000
  70
    32
  0
VERTEX
  8
2
  5
7B4
 10
51.3125
 20
102.081
 30
0.00000
  70
    32
  0
VERTEX
  8
2
  5
7B5
 10
51.2446
 20
102.071
 30
0.00000
  70
    32
  0
VERTEX
  8
2
  5
7B6
 10
51.1770
 20
102.058
 30
0.00000
  70
    32
  0
VERTEX
  8
2
  5
7B7
 10
51.1099
 20
102.044
 30
0.00000
  70
    32
  0
VERTEX
  8
2
  5
7B8
 10
51.0432
 20
102.028
 30
0.00000
  70
    32
  0
VERTEX
  8
2
  5
7B9
 10
50.9772
 20
102.010
 30
0.00000
  70
    32
  0
VERTEX
  8
2
  5
7BA
 10
50.9117
 20
101.989
 30
0.00000
  70
    32
  0
VERTEX
  8
2
  5
7BB
 10
50.8470
 20
101.967
 30
0.00000
  70
    32
  0
VERTEX
  8
2
  5
7BC
 10
50.7830
 20
101.943
 30
0.00000
  70
    32
  0
VERTEX
  8
2
  5
7BD
 10
50.7198
 20
101.917
 30
0.00000
  70
    32
  0
VERTEX
  8
2
  5
7BE
 10
50.6575
 20
101.889
 30
0.00000
  70
    32
  0
SEQEND
  8
2
  5
7BF
  0
LINE
  5
5E9
  8
2
 10
48.3923048454132427
 20
97.9000000000000341
 30
0.0
 11
51.6076951545867075
 21
97.9000000000000341
 31
0.0
  0
LINE
  5
5EA
  8
2
 10
51.6076951545867004
 20
102.0999999999999943
 30
0.0
 11
48.3923048454132427
 21
102.0999999999999943
 31
0.0
  0
LINE
  5
5EC
  8
0
 10
42.0
 20
54.5
 30
0.0
 11
42.5
 21
54.0
 31
0.0
  0
LINE
  5
5ED
  8
0
 10
57.5
 20
54.0
 30
0.0
 11
58.0
 21
54.5
 31
0.0
  0
LINE
  5
5EE
  8
0
 10
42.0
 20
61.4999999999999787
 30
0.0
 11
42.0
 21
54.5
 31
0.0
  0
LINE
  5
5EF
  8
0
 10
58.0
 20
54.5
 30
0.0
 11
58.0
 21
61.4999999999999787
 31
0.0
  0
LINE
  5
5F0
  8
0
 10
58.0
 20
61.4999999999999787
 30
0.0
 11
57.5
 21
61.9999999999999929
 31
0.0
  0
LINE
  5
5F1
  8
0
 10
42.5
 20
61.9999999999999929
 30
0.0
 11
42.0
 21
61.4999999999999787
 31
0.0
  0
ARC
  5
5F2
  8
0
 10
56.0
 20
53.5
 30
0.0
 40
0.5
 50
90.0
 51
180.0
  0
ARC
  5
5F3
  8
0
 10
44.0
 20
53.5
 30
0.0
 40
0.5
 50
0.0
 51
90.0
  0
LINE
  5
5F6
  8
0
 10
42.0
 20
54.5
 30
0.0
 11
58.0
 21
54.5
 31
0.0
  0
LINE
  5
5F7
  8
0
 10
58.0
 20
61.4999999999999787
 30
0.0
 11
42.0
 21
61.4999999999999787
 31
0.0
  0
LINE
  5
5FA
  8
0
 10
42.5
 20
61.9999999999999929
 30
0.0
 11
57.5
 21
61.9999999999999929
 31
0.0
  0
LINE
  5
5FB
  8
2
 10
50.0
 20
54.0
 30
0.0
 11
50.0
 21
53.5
 31
0.0
  0
LINE
  5
5FD
  8
0
 10
44.5
 20
53.5
 30
0.0
 11
50.0
 21
53.5
 31
0.0
  0
LINE
  5
5FE
  8
0
 10
55.5
 20
50.5
 30
0.0
 11
44.5
 21
50.5
 31
0.0
  0
LINE
  5
5FF
  8
0
 10
55.0
 20
50.0
 30
0.0
 11
55.5
 21
50.5
 31
0.0
  0
LINE
  5
600
  8
0
 10
55.0
 20
50.0
 30
0.0
 11
45.0
 21
50.0
 31
0.0
  0
LINE
  5
601
  8
0
 10
44.5
 20
50.5
 30
0.0
 11
45.0
 21
50.0
 31
0.0
  0
LINE
  5
604
  8
2
 10
50.0
 20
53.5
 30
0.0
 11
50.0
 21
54.0
 31
0.0
  0
LINE
  5
606
  8
0
 10
55.5
 20
53.5
 30
0.0
 11
44.5
 21
53.5
 31
0.0
  0
LINE
  5
607
  8
2
 10
46.2182248665520916
 20
61.9999999999999929
 30
0.0
 11
48.3789999999999907
 21
53.9358774182409491
 31
0.0
  0
LINE
  5
608
  8
2
 10
53.7817751334479084
 20
50.0
 30
0.0
 11
51.620999999999988
 21
58.0641225817590296
 31
0.0
  0
LINE
  5
609
  8
2
 10
48.0
 20
55.3502413220044005
 30
0.0
 11
48.0
 21
50.0
 31
0.0
  0
LINE
  5
60A
  8
2
 10
52.0
 20
56.6497586779955782
 30
0.0
 11
52.0
 21
61.9999999999999929
 31
0.0
  0
LINE
  5
60B
  8
1
 10
50.0
 20
46.0
 30
0.0
 11
50.0
 21
65.9999999999999858
 31
0.0
  0
CIRCLE
  5
60C
  8
3
 10
49.9999999999999787
 20
100.0
 30
0.0
 40
2.0
  0
CIRCLE
  5
60D
  8
0
 10
49.9999999999999787
 20
100.0
 30
0.0
 40
1.6209999999999991
  0
LINE
  5
60E
  8
3
 10
50.3768516056770892
 20
61.4999999999999787
 30
0.0
 11
50.3768516056770892
 21
54.4999999999999929
 31
0.0
  0
LINE
  5
60F
  8
3
 10
51.1272098555006096
 20
61.4999999999999787
 30
0.0
 11
51.1272098555006096
 21
54.5000000000000071
 31
0.0
  0
LINE
  5
610
  8
3
 10
51.8675629108471767
 20
61.4999999999999787
 30
0.0
 11
51.8675629108471767
 21
54.5
 31
0.0
  0
LINE
  5
611
  8
3
 10
52.5913393455851192
 20
61.4999999999999787
 30
0.0
 11
52.5913393455851192
 21
54.5
 31
0.0
  0
LINE
  5
612
  8
3
 10
53.2921148688407982
 20
61.4999999999999787
 30
0.0
 11
53.2921148688407982
 21
54.5
 31
0.0
  0
LINE
  5
613
  8
3
 10
53.963669347459188
 20
61.4999999999999787
 30
0.0
 11
53.963669347459188
 21
54.5
 31
0.0
  0
LINE
  5
614
  8
3
 10
54.6000420163461726
 20
61.4999999999999787
 30
0.0
 11
54.6000420163461726
 21
54.5
 31
0.0
  0
LINE
  5
615
  8
3
 10
55.1955843866414071
 20
61.4999999999999787
 30
0.0
 11
55.1955843866414071
 21
54.5
 31
0.0
  0
LINE
  5
616
  8
3
 10
55.7450103821054626
 20
61.4999999999999787
 30
0.0
 11
55.7450103821054626
 21
54.5
 31
0.0
  0
LINE
  5
617
  8
3
 10
56.2434432587065913
 20
61.4999999999999787
 30
0.0
 11
56.2434432587065913
 21
54.5
 31
0.0
  0
LINE
  5
618
  8
3
 10
56.6864588909461133
 20
61.4999999999999787
 30
0.0
 11
56.6864588909461133
 21
54.5
 31
0.0
  0
LINE
  5
619
  8
3
 10
57.0701250407095131
 20
61.4999999999999787
 30
0.0
 11
57.0701250407094989
 21
54.5
 31
0.0
  0
LINE
  5
61A
  8
3
 10
57.3910362600902602
 20
61.4999999999999787
 30
0.0
 11
57.3910362600902602
 21
54.5
 31
0.0
  0
LINE
  5
61B
  8
3
 10
57.6463441183866223
 20
61.4999999999999787
 30
0.0
 11
57.6463441183866223
 21
54.5
 31
0.0
  0
LINE
  5
61C
  8
3
 10
57.8337824849741082
 20
61.4999999999999787
 30
0.0
 11
57.8337824849741082
 21
54.5
 31
0.0
  0
LINE
  5
61D
  8
3
 10
57.9516876436414279
 20
61.4999999999999787
 30
0.0
 11
57.9516876436414279
 21
54.5
 31
0.0
  0
LINE
  5
61E
  8
3
 10
49.6231483943229108
 20
61.4999999999999787
 30
0.0
 11
49.6231483943229108
 21
54.4999999999999929
 31
0.0
  0
LINE
  5
61F
  8
3
 10
48.8727901444993904
 20
61.4999999999999787
 30
0.0
 11
48.8727901444993904
 21
54.5000000000000071
 31
0.0
  0
LINE
  5
620
  8
3
 10
48.1324370891528091
 20
61.4999999999999787
 30
0.0
 11
48.1324370891528091
 21
54.5
 31
0.0
  0
LINE
  5
621
  8
3
 10
47.4086606544148665
 20
61.4999999999999787
 30
0.0
 11
47.4086606544148665
 21
54.5
 31
0.0
  0
LINE
  5
622
  8
3
 10
46.7078851311591805
 20
61.4999999999999787
 30
0.0
 11
46.7078851311592018
 21
54.5
 31
0.0
  0
LINE
  5
623
  8
3
 10
46.0363306525407907
 20
61.4999999999999787
 30
0.0
 11
46.036330652540812
 21
54.5
 31
0.0
  0
LINE
  5
624
  8
3
 10
45.3999579836538132
 20
61.4999999999999787
 30
0.0
 11
45.3999579836538132
 21
54.5
 31
0.0
  0
LINE
  5
625
  8
3
 10
44.8044156133585787
 20
61.4999999999999787
 30
0.0
 11
44.8044156133585787
 21
54.5
 31
0.0
  0
LINE
  5
626
  8
3
 10
44.2549896178945303
 20
61.4999999999999787
 30
0.0
 11
44.2549896178945303
 21
54.5
 31
0.0
  0
LINE
  5
627
  8
3
 10
43.7565567412934016
 20
61.4999999999999787
 30
0.0
 11
43.7565567412934016
 21
54.5
 31
0.0
  0
LINE
  5
628
  8
3
 10
43.3135411090538724
 20
61.4999999999999787
 30
0.0
 11
43.3135411090538724
 21
54.5
 31
0.0
  0
LINE
  5
629
  8
3
 10
42.9298749592904869
 20
61.4999999999999787
 30
0.0
 11
42.9298749592904869
 21
54.5
 31
0.0
  0
LINE
  5
62A
  8
3
 10
42.6089637399097327
 20
61.4999999999999787
 30
0.0
 11
42.6089637399097327
 21
54.5
 31
0.0
  0
LINE
  5
62B
  8
3
 10
42.3536558816133777
 20
61.4999999999999787
 30
0.0
 11
42.3536558816133777
 21
54.5
 31
0.0
  0
LINE
  5
62C
  8
3
 10
42.1662175150258776
 20
61.4999999999999787
 30
0.0
 11
42.1662175150258776
 21
54.5
 31
0.0
  0
LINE
  5
62D
  8
3
 10
42.0483123563585721
 20
61.4999999999999787
 30
0.0
 11
42.0483123563585721
 21
54.5
 31
0.0
  0
LINE
  5
62E
  8
1
 10
52.5881904510251914
 20
46.3407417371092976
 30
0.0
 11
47.4118095489747873
 21
65.659258262890674
 31
0.0
  0
LINE
  5
62F
  8
2
 10
48.379000000000012
 20
53.9358774182409491
 30
0.0
 11
48.379000000000012
 21
50.0
 31
0.0
  0
LINE
  5
630
  8
2
 10
51.620999999999988
 20
58.0641225817590296
 30
0.0
 11
51.620999999999988
 21
61.9999999999999929
 31
0.0
  0
LINE
  5
639
  8
0
 10
57.5
 20
54.0
 30
0.0
 11
42.5
 21
54.0
 31
0.0
  0
LINE
  5
643
  8
1
 10
61.9999999999999787
 20
100.0
 30
0.0
 11
37.9999999999999787
 21
100.0
 31
0.0
  0
LINE
  5
644
  8
1
 10
49.9999999999999574
 20
112.0
 30
0.0
 11
49.9999999999999716
 21
88.0
 31
0.0
  0
LINE
  5
653
  8
0
 10
44.5
 20
53.5
 30
0.0
 11
44.5
 21
50.5
 31
0.0
  0
LINE
  5
654
  8
0
 10
55.5
 20
50.5
 30
0.0
 11
55.5
 21
53.5
 31
0.0
  0
ENDSEC
  0
EOF
