  0
SECTION
  2
HEADER
  9
$ACADVER
  1
AC1009
  9
$INSBASE
 10
0.0
 20
0.0
 30
0.0
  9
$EXTMIN
 10
0.0
 20
-2.960436562073669
 30
0.0
  9
$EXTMAX
 10
231.93931022907921
 20
119.96965511442851
 30
0.0
  9
$LIMMIN
 10
0.0
 20
0.0
  9
$LIMMAX
 10
375.0
 20
270.0
  9
$ORTHOMODE
 70
     1
  9
$REGENMODE
 70
     1
  9
$FILLMODE
 70
     1
  9
$QTEXTMODE
 70
     0
  9
$MIRRTEXT
 70
     0
  9
$DRAGMODE
 70
     2
  9
$LTSCALE
 40
10.0
  9
$OSMODE
 70
    37
  9
$ATTMODE
 70
     1
  9
$TEXTSIZE
 40
0.2
  9
$TRACEWID
 40
0.05
  9
$TEXTSTYLE
  7
STANDARD
  9
$CLAYER
  8
0
  9
$CELTYPE
  6
BYLAYER
  9
$CECOLOR
 62
   256
  9
$DIMSCALE
 40
1.0
  9
$DIMASZ
 40
3.0
  9
$DIMEXO
 40
2.0
  9
$DIMDLI
 40
0.38
  9
$DIMRND
 40
0.0
  9
$DIMDLE
 40
0.0
  9
$DIMEXE
 40
2.0
  9
$DIMTP
 40
0.0
  9
$DIMTM
 40
0.0
  9
$DIMTXT
 40
3.2000000000000002
  9
$DIMCEN
 40
0.0
  9
$DIMTSZ
 40
0.0
  9
$DIMTOL
 70
     0
  9
$DIMLIM
 70
     0
  9
$DIMTIH
 70
     0
  9
$DIMTOH
 70
     0
  9
$DIMSE1
 70
     0
  9
$DIMSE2
 70
     0
  9
$DIMTAD
 70
     1
  9
$DIMZIN
 70
     0
  9
$DIMBLK
  1

  9
$DIMASO
 70
     0
  9
$DIMSHO
 70
     0
  9
$DIMPOST
  1

  9
$DIMAPOST
  1

  9
$DIMALT
 70
     0
  9
$DIMALTD
 70
     2
  9
$DIMALTF
 40
25.399999999999999
  9
$DIMLFAC
 40
1.0
  9
$DIMTOFL
 70
     1
  9
$DIMTVP
 40
1.6000000000000001
  9
$DIMTIX
 70
     1
  9
$DIMSOXD
 70
     0
  9
$DIMSAH
 70
     0
  9
$DIMBLK1
  1

  9
$DIMBLK2
  1

  9
$DIMSTYLE
  2
STANDARD
  9
$DIMCLRD
 70
     0
  9
$DIMCLRE
 70
     0
  9
$DIMCLRT
 70
     0
  9
$DIMTFAC
 40
1.0
  9
$DIMGAP
 40
0.09
  9
$LUNITS
 70
     2
  9
$LUPREC
 70
     4
  9
$SKETCHINC
 40
0.1
  9
$FILLETRAD
 40
0.0
  9
$AUNITS
 70
     0
  9
$AUPREC
 70
     4
  9
$MENU
  1
E:\r13\win\SUPPORT\ACAD
  9
$ELEVATION
 40
0.0
  9
$PELEVATION
 40
0.0
  9
$THICKNESS
 40
0.0
  9
$LIMCHECK
 70
     0
  9
$BLIPMODE
 70
     0
  9
$CHAMFERA
 40
0.0
  9
$CHAMFERB
 40
0.0
  9
$SKPOLY
 70
     0
  9
$TDCREATE
 40
2449839.772418981
  9
$TDUPDATE
 40
2456969.4105315739
  9
$TDINDWG
 40
0.0709196412
  9
$TDUSRTIMER
 40
0.0709196412
  9
$USRTIMER
 70
     1
  9
$ANGBASE
 50
0.0
  9
$ANGDIR
 70
     0
  9
$PDMODE
 70
     0
  9
$PDSIZE
 40
0.0
  9
$PLINEWID
 40
0.0
  9
$COORDS
 70
     1
  9
$SPLFRAME
 70
     0
  9
$SPLINETYPE
 70
     6
  9
$SPLINESEGS
 70
     8
  9
$ATTDIA
 70
     0
  9
$ATTREQ
 70
     1
  9
$HANDLING
 70
     1
  9
$HANDSEED
  5
6BB
  9
$SURFTAB1
 70
     6
  9
$SURFTAB2
 70
     6
  9
$SURFTYPE
 70
     6
  9
$SURFU
 70
     6
  9
$SURFV
 70
     6
  9
$UCSNAME
  2

  9
$UCSORG
 10
0.0
 20
0.0
 30
0.0
  9
$UCSXDIR
 10
1.0
 20
0.0
 30
0.0
  9
$UCSYDIR
 10
0.0
 20
1.0
 30
0.0
  9
$PUCSNAME
  2

  9
$PUCSORG
 10
0.0
 20
0.0
 30
0.0
  9
$PUCSXDIR
 10
1.0
 20
0.0
 30
0.0
  9
$PUCSYDIR
 10
0.0
 20
1.0
 30
0.0
  9
$USERI1
 70
     0
  9
$USERI2
 70
     1
  9
$USERI3
 70
     0
  9
$USERI4
 70
     0
  9
$USERI5
 70
     0
  9
$USERR1
 40
0.0
  9
$USERR2
 40
0.0
  9
$USERR3
 40
0.0
  9
$USERR4
 40
0.0
  9
$USERR5
 40
0.0
  9
$WORLDVIEW
 70
     1
  9
$SHADEDGE
 70
     3
  9
$SHADEDIF
 70
    70
  9
$TILEMODE
 70
     1
  9
$MAXACTVP
 70
    16
  9
$PLIMCHECK
 70
     0
  9
$PEXTMIN
 10
1.0000000000000000E+020
 20
1.0000000000000000E+020
 30
1.0000000000000000E+020
  9
$PEXTMAX
 10
-1.0000000000000000E+020
 20
-1.0000000000000000E+020
 30
-1.0000000000000000E+020
  9
$PLIMMIN
 10
0.0
 20
0.0
  9
$PLIMMAX
 10
12.0
 20
9.0
  9
$UNITMODE
 70
     0
  9
$VISRETAIN
 70
     0
  9
$PLINEGEN
 70
     0
  9
$PSLTSCALE
 70
     0
  0
ENDSEC
  0
SECTION
  2
TABLES
  0
TABLE
  2
VPORT
 70
     1
  0
VPORT
  2
*ACTIVE
 70
     0
 10
0.0
 20
0.0
 11
1.0
 21
1.0
 12
235.63977746870651
 22
135.0
 13
0.0
 23
0.0
 14
10.0
 24
10.0
 15
10.0
 25
10.0
 16
0.0
 26
0.0
 36
1.0
 17
0.0
 27
0.0
 37
0.0
 40
270.0
 41
1.7454798331015291
 42
50.0
 43
0.0
 44
0.0
 50
0.0
 51
0.0
 71
     0
 72
   500
 73
     1
 74
     0
 75
     0
 76
     0
 77
     0
 78
     2
  0
ENDTAB
  0
TABLE
  2
LTYPE
 70
     3
  0
LTYPE
  2
CONTINUOUS
 70
     0
  3
Solid Line
 72
    65
 73
     0
 40
0.0
  0
LTYPE
  2
CENTER
 70
     0
  3
____ _ ____ _ ____ _ ____ _ ____ _ ____ _ ____
 72
    65
 73
     4
 40
2.0
 49
1.25
 49
-0.25
 49
0.25
 49
-0.25
  0
LTYPE
  2
PHANTOM2
 70
     0
  3
___ _ _ ___ _ _ ___ _ _ ___ _ _
 72
    65
 73
     6
 40
1.25
 49
0.625
 49
-0.125
 49
0.125
 49
-0.125
 49
0.125
 49
-0.125
  0
ENDTAB
  0
TABLE
  2
LAYER
 70
     3
  0
LAYER
  2
0
 70
     0
 62
     7
  6
CONTINUOUS
  0
LAYER
  2
1
 70
     0
 62
     1
  6
CENTER
  0
LAYER
  2
3
 70
     0
 62
     3
  6
CONTINUOUS
  0
ENDTAB
  0
TABLE
  2
STYLE
 70
     2
  0
STYLE
  2
STANDARD
 70
     0
 40
0.0
 41
1.0
 50
0.0
 71
     0
 42
0.2
  3
TXT
  4
BIGFONT
  0
STYLE
  2
STANDARD1
 70
     0
 40
0.0
 41
1.0
 50
0.0
 71
     0
 42
3.0
  3
txt
  4

  0
ENDTAB
  0
TABLE
  2
VIEW
 70
     1
  0
VIEW
  2
ALL
 70
     0
 40
270.0
 10
220.99159663865549
 20
135.0
 41
0.0
 11
0.0
 21
0.0
 31
1.0
 12
0.0
 22
0.0
 32
0.0
 42
0.0
 43
0.0
 44
0.0
 50
0.0
 71
     0
  0
ENDTAB
  0
TABLE
  2
UCS
 70
     0
  0
ENDTAB
  0
TABLE
  2
APPID
 70
     5
  0
APPID
  2
ACAD
 70
     0
  0
APPID
  2
ACAD_MLEADERVER
 70
     0
  0
APPID
  2
ACAD_EXEMPT_FROM_CAD_STANDARDS
 70
     0
  0
APPID
  2
ACAD_NAV_VCDISPLAY
 70
     0
  0
APPID
  2
ACAD_DSTYLE_DIMRADIAL_EXTENSION
 70
     0
  0
ENDTAB
  0
TABLE
  2
DIMSTYLE
 70
     1
  0
DIMSTYLE
  2
STANDARD
 70
     0
  3

  4

  5

  6

  7

 40
1.0
 41
0.18
 42
0.0625
 43
0.38
 44
0.18
 45
0.0
 46
0.0
 47
0.0
 48
0.0
140
0.18
141
0.09
142
0.0
143
25.399999999999999
144
1.0
145
0.0
146
1.0
147
0.09
 71
     0
 72
     0
 73
     1
 74
     1
 75
     0
 76
     0
 77
     0
 78
     0
170
     0
171
     2
172
     0
173
     0
174
     0
175
     0
176
     0
177
     0
178
     0
  0
ENDTAB
  0
ENDSEC
  0
SECTION
  2
BLOCKS
  0
BLOCK
  8
0
  2
$MODEL_SPACE
 70
     0
 10
0.0
 20
0.0
 30
0.0
  3
$MODEL_SPACE
  1

  0
ENDBLK
  5
10D
  8
0
  0
BLOCK
 67
     1
  8
0
  2
$PAPER_SPACE
 70
     0
 10
0.0
 20
0.0
 30
0.0
  3
$PAPER_SPACE
  1

  0
ENDBLK
  5
10B
 67
     1
  8
0
  0
ENDSEC
  0
SECTION
  2
ENTITIES
  0
TEXT
  5
1C6
  8
0
 62
     3
 10
0.0
 20
0.0
 30
0.0
 40
10.0
  1
BJ748-12100
  7
STANDARD1
  0
LINE
  5
447
  8
1
 10
106.9393102290793
 20
49.499999999945601
 30
0.0
 11
231.93931022907921
 21
49.499999999945601
 31
0.0
  0
LINE
  5
448
  8
0
 10
127.53931022907921
 20
43.499999999944968
 30
0.0
 11
221.24648990605129
 21
43.499999999945032
 31
0.0
  0
ARC
  5
449
  8
0
 10
127.53931022907921
 20
42.89999999994501
 30
0.0
 40
0.6
 50
90.0
 51
180.0
  0
ARC
  5
44A
  8
0
 10
127.53931022907921
 20
56.099999999946192
 30
0.0
 40
0.6
 50
180.0
 51
270.0
  0
LINE
  5
44B
  8
0
 10
127.53931022907921
 20
55.499999999946169
 30
0.0
 11
221.24648990605129
 21
55.499999999946169
 31
0.0
  0
LINE
  5
44C
  8
0
 10
126.9393102290792
 20
40.0
 30
0.0
 11
126.9393102290793
 21
58.999999999889702
 31
0.0
  0
LINE
  5
44E
  8
0
 10
113.0764911396836
 20
49.499999999944862
 30
0.0
 11
126.9393102290792
 21
49.499999999944862
 31
0.0
  0
LINE
  5
455
  8
0
 10
111.9393102290793
 20
40.499999999945487
 30
0.0
 11
111.9393102290793
 21
58.499999999945707
 31
0.0
  0
ARC
  5
456
  8
0
 10
122.42826594435709
 20
54.249999999916781
 30
0.0
 40
10.48895571527785
 50
153.07284734233309
 51
206.9271526576571
  0
LINE
  5
457
  8
0
 10
131.9393102290793
 20
43.499999999944968
 30
0.0
 11
131.9393102290793
 21
55.499999999946169
 31
0.0
  0
LINE
  5
458
  8
3
 10
131.9393102290793
 20
44.499999999944968
 30
0.0
 11
221.823840175241
 21
44.499999999944968
 31
0.0
  0
LINE
  5
459
  8
3
 10
131.9393102290793
 20
54.499999999946162
 30
0.0
 11
221.823840175241
 21
54.499999999946162
 31
0.0
  0
LINE
  5
471
  8
0
 10
221.24648990605121
 20
43.499999999944968
 30
0.0
 11
221.24648990605121
 21
55.499999999946169
 31
0.0
  0
LINE
  5
472
  8
3
 10
131.9393102290793
 20
44.499999999944968
 30
0.0
 11
130.2072594215104
 21
43.499999999944968
 31
0.0
  0
LINE
  5
473
  8
3
 10
131.9393102290793
 20
54.499999999946233
 30
0.0
 11
130.2072594215104
 21
55.499999999946169
 31
0.0
  0
LINE
  5
474
  8
0
 10
221.93931022907921
 20
44.699999999945639
 30
0.0
 11
221.24648990605129
 21
43.499999999945032
 31
0.0
  0
LINE
  5
475
  8
0
 10
221.9393102290793
 20
54.299999999945562
 30
0.0
 11
221.24648990605129
 21
55.499999999946169
 31
0.0
  0
ARC
  5
494
  8
0
 10
217.93931022907921
 20
49.499999999945601
 30
0.0
 40
9.0
 50
330.00000000000051
 51
29.99999999999952
  0
LINE
  5
495
  8
0
 10
225.7335388631391
 20
44.999999999945587
 30
0.0
 11
222.45892547134989
 21
44.999999999945587
 31
0.0
  0
LINE
  5
496
  8
0
 10
225.7335388631391
 20
53.999999999945601
 30
0.0
 11
222.45892547134989
 21
53.999999999945601
 31
0.0
  0
LINE
  5
497
  8
0
 10
225.7335388631391
 20
44.999999999945587
 30
0.0
 11
225.7335388631391
 21
53.999999999945601
 31
0.0
  0
ARC
  5
498
  8
0
 10
222.45892547134989
 20
44.399999999945571
 30
0.0
 40
0.6
 50
90.0
 51
150.00000000000051
  0
ARC
  5
499
  8
0
 10
222.45892547134989
 20
54.599999999945616
 30
0.0
 40
0.6
 50
210.00000000000199
 51
270.0
  0
LINE
  5
4C4
  8
0
 10
222.4211701364172
 20
44.998810933950722
 30
0.0
 11
222.4211701364172
 21
54.00118906594048
 31
0.0
  0
LINE
  5
4C6
  8
0
 10
221.93931022907921
 20
44.699999999945561
 30
0.0
 11
221.93931022907921
 21
54.299999999945641
 31
0.0
  0
LINE
  5
569
  8
1
 10
106.9393102290793
 20
108.9999999998897
 30
0.0
 11
231.93931022907921
 21
108.9999999998897
 31
0.0
  0
LINE
  5
56A
  8
0
 10
127.53931022907921
 20
102.999999999889
 30
0.0
 11
221.24648990605129
 21
102.9999999998891
 31
0.0
  0
ARC
  5
56B
  8
0
 10
127.53931022907921
 20
102.3999999998891
 30
0.0
 40
0.6
 50
90.0
 51
180.0
  0
ARC
  5
56C
  8
0
 10
127.53931022907921
 20
115.5999999998903
 30
0.0
 40
0.6
 50
180.0
 51
270.0
  0
LINE
  5
56D
  8
0
 10
127.53931022907921
 20
114.99999999989021
 30
0.0
 11
221.24648990605129
 21
114.99999999989021
 31
0.0
  0
LINE
  5
56E
  8
0
 10
126.9393102290792
 20
98.030344885350885
 30
0.0
 11
126.9393102290793
 21
119.96965511442851
 31
0.0
  0
LINE
  5
56F
  8
0
 10
113.07649113968419
 20
98.030344885350885
 30
0.0
 11
126.9393102290792
 21
98.030344885350885
 31
0.0
  0
LINE
  5
570
  8
0
 10
113.0764911396836
 20
103.51517244267799
 30
0.0
 11
126.9393102290792
 21
103.51517244267799
 31
0.0
  0
LINE
  5
571
  8
0
 10
113.07649113968419
 20
114.4848275571008
 30
0.0
 11
126.9393102290792
 21
114.4848275571008
 31
0.0
  0
LINE
  5
572
  8
0
 10
113.07649113968419
 20
119.96965511442851
 30
0.0
 11
126.9393102290792
 21
119.96965511442851
 31
0.0
  0
LINE
  5
573
  8
0
 10
113.07649113968419
 20
119.96965511442851
 30
0.0
 11
111.9393102290793
 21
117.99999999988979
 31
0.0
  0
ARC
  5
574
  8
0
 10
115.81468910444239
 20
117.2272413357646
 30
0.0
 40
3.8753788753631482
 50
180.00002819931359
 51
225.04407323628431
  0
ARC
  5
575
  8
0
 10
115.81468910444239
 20
100.7727586640147
 30
0.0
 40
3.8753788753631482
 50
134.95592676371399
 51
179.99997180068641
  0
LINE
  5
576
  8
0
 10
113.07649113968419
 20
98.030344885350885
 30
0.0
 11
111.9393102290793
 21
99.999999999889582
 31
0.0
  0
LINE
  5
577
  8
0
 10
111.9393102290793
 20
99.999999999889582
 30
0.0
 11
111.9393102290793
 21
117.99999999988979
 31
0.0
  0
ARC
  5
578
  8
0
 10
125.7350609345868
 20
108.9999999998895
 30
0.0
 40
13.79575016390058
 50
156.5734133405681
 51
203.42658665943
  0
LINE
  5
579
  8
0
 10
131.9393102290793
 20
102.999999999889
 30
0.0
 11
131.9393102290793
 21
114.99999999989021
 31
0.0
  0
LINE
  5
57A
  8
3
 10
131.9393102290793
 20
103.999999999889
 30
0.0
 11
221.823840175241
 21
103.999999999889
 31
0.0
  0
LINE
  5
57B
  8
3
 10
131.9393102290793
 20
113.99999999989021
 30
0.0
 11
221.823840175241
 21
113.99999999989021
 31
0.0
  0
LINE
  5
57C
  8
0
 10
221.24648990605121
 20
102.999999999889
 30
0.0
 11
221.24648990605121
 21
114.99999999989021
 31
0.0
  0
LINE
  5
57D
  8
3
 10
131.9393102290793
 20
103.999999999889
 30
0.0
 11
130.2072594215104
 21
102.999999999889
 31
0.0
  0
LINE
  5
57E
  8
3
 10
131.9393102290793
 20
113.99999999989031
 30
0.0
 11
130.2072594215104
 21
114.99999999989021
 31
0.0
  0
LINE
  5
57F
  8
0
 10
221.93931022907921
 20
104.1999999998897
 30
0.0
 11
221.24648990605129
 21
102.9999999998891
 31
0.0
  0
LINE
  5
580
  8
0
 10
221.9393102290793
 20
113.79999999988959
 30
0.0
 11
221.24648990605129
 21
114.99999999989021
 31
0.0
  0
ARC
  5
581
  8
0
 10
217.93931022907921
 20
108.9999999998897
 30
0.0
 40
9.0
 50
330.00000000000051
 51
29.99999999999952
  0
LINE
  5
582
  8
0
 10
225.7335388631391
 20
104.4999999998897
 30
0.0
 11
222.45892547134989
 21
104.4999999998897
 31
0.0
  0
LINE
  5
583
  8
0
 10
225.7335388631391
 20
113.4999999998897
 30
0.0
 11
222.45892547134989
 21
113.4999999998897
 31
0.0
  0
LINE
  5
584
  8
0
 10
225.7335388631391
 20
104.4999999998897
 30
0.0
 11
225.7335388631391
 21
113.4999999998897
 31
0.0
  0
ARC
  5
585
  8
0
 10
222.45892547134989
 20
103.8999999998897
 30
0.0
 40
0.6
 50
90.0
 51
150.00000000000051
  0
ARC
  5
586
  8
0
 10
222.45892547134989
 20
114.0999999998897
 30
0.0
 40
0.6
 50
210.00000000000199
 51
270.0
  0
LINE
  5
587
  8
0
 10
222.4211701364172
 20
104.4988109338948
 30
0.0
 11
222.4211701364172
 21
113.5011890658846
 31
0.0
  0
LINE
  5
588
  8
0
 10
221.93931022907921
 20
104.1999999998896
 30
0.0
 11
221.93931022907921
 21
113.79999999988971
 31
0.0
  0
LINE
  5
589
  8
0
 10
56.45448267180921
 20
58.999999999889702
 30
0.0
 11
45.484827557270073
 21
58.999999999889667
 31
0.0
  0
LINE
  5
58A
  8
0
 10
45.484827557270023
 20
58.999999999889631
 30
0.0
 11
40.000000000000448
 21
49.499999999944833
 31
0.0
  0
LINE
  5
58B
  8
0
 10
40.000000000000448
 20
49.499999999944812
 30
0.0
 11
45.484827557270023
 21
40.0
 31
0.0
  0
LINE
  5
58C
  8
0
 10
45.484827557270073
 20
39.999999999999972
 30
0.0
 11
56.45448267180921
 21
40.0
 31
0.0
  0
LINE
  5
58D
  8
0
 10
56.454482671809281
 20
40.0
 30
0.0
 11
61.939310229078842
 21
49.499999999944812
 31
0.0
  0
LINE
  5
58E
  8
0
 10
61.939310229078892
 20
49.499999999944862
 30
0.0
 11
56.454482671809281
 21
58.999999999889631
 31
0.0
  0
CIRCLE
  5
58F
  8
0
 10
50.969655114539648
 20
49.499999999944833
 30
0.0
 40
9.0
  0
LINE
  5
590
  8
1
 10
36.469655114595582
 20
49.499999999945601
 30
0.0
 11
65.469655114483714
 21
49.499999999945601
 31
0.0
  0
LINE
  5
591
  8
1
 10
50.969655114539648
 20
35.000000000001513
 30
0.0
 11
50.969655114539648
 21
63.999999999889702
 31
0.0
  0
LINE
  5
592
  8
0
 10
126.9393102290793
 20
58.999999999889702
 30
0.0
 11
112.2279853636456
 21
58.999999999889702
 31
0.0
  0
LINE
  5
593
  8
0
 10
112.2279853636456
 20
40.0
 30
0.0
 11
126.9393102290792
 21
40.0
 31
0.0
  0
LINE
  5
59F
  8
0
 10
112.2279853636456
 20
58.999999999889702
 30
0.0
 11
111.9393102290793
 21
58.499999999944841
 31
0.0
  0
LINE
  5
5A0
  8
0
 10
111.9393102290793
 20
40.499999999944833
 30
0.0
 11
112.2279853636456
 21
40.0
 31
0.0
  0
ARC
  5
5A3
  8
0
 10
122.4282659443588
 20
44.749999999975159
 30
0.0
 40
10.48895571527785
 50
153.0728473423641
 51
206.927152657688
  0
ENDSEC
  0
EOF
