  0
SECTION
  2
HEADER
  9
$ACADVER
  1
AC1009
  9
$INSBASE
 10
0.0
 20
0.0
 30
0.0
  9
$EXTMIN
 10
0.0
 20
-2.960436562073669
 30
0.0
  9
$EXTMAX
 10
261.0
 20
226.0
 30
0.0
  9
$LIMMIN
 10
0.0
 20
0.0
  9
$LIMMAX
 10
270.0
 20
175.0
  9
$ORTHOMODE
 70
     0
  9
$REGENMODE
 70
     1
  9
$FILLMODE
 70
     1
  9
$QTEXTMODE
 70
     0
  9
$MIRRTEXT
 70
     0
  9
$DRAGMODE
 70
     2
  9
$LTSCALE
 40
10.0
  9
$OSMODE
 70
  3071
  9
$ATTMODE
 70
     1
  9
$TEXTSIZE
 40
4.0
  9
$TRACEWID
 40
0.05
  9
$TEXTSTYLE
  7
STANDARD
  9
$CLAYER
  8
0
  9
$CELTYPE
  6
BYLAYER
  9
$CECOLOR
 62
   256
  9
$DIMSCALE
 40
1.0
  9
$DIMASZ
 40
3.0
  9
$DIMEXO
 40
1.0
  9
$DIMDLI
 40
10.0
  9
$DIMRND
 40
0.0
  9
$DIMDLE
 40
0.0
  9
$DIMEXE
 40
1.5
  9
$DIMTP
 40
0.01
  9
$DIMTM
 40
0.01
  9
$DIMTXT
 40
3.2000000000000002
  9
$DIMCEN
 40
0.09
  9
$DIMTSZ
 40
0.0
  9
$DIMTOL
 70
     1
  9
$DIMLIM
 70
     0
  9
$DIMTIH
 70
     0
  9
$DIMTOH
 70
     0
  9
$DIMSE1
 70
     0
  9
$DIMSE2
 70
     0
  9
$DIMTAD
 70
     1
  9
$DIMZIN
 70
     0
  9
$DIMBLK
  1

  9
$DIMASO
 70
     0
  9
$DIMSHO
 70
     0
  9
$DIMPOST
  1

  9
$DIMAPOST
  1

  9
$DIMALT
 70
     0
  9
$DIMALTD
 70
     2
  9
$DIMALTF
 40
25.399999999999999
  9
$DIMLFAC
 40
1.0
  9
$DIMTOFL
 70
     0
  9
$DIMTVP
 40
0.0
  9
$DIMTIX
 70
     0
  9
$DIMSOXD
 70
     0
  9
$DIMSAH
 70
     0
  9
$DIMBLK1
  1

  9
$DIMBLK2
  1

  9
$DIMSTYLE
  2
STANDARD
  9
$DIMCLRD
 70
     0
  9
$DIMCLRE
 70
     0
  9
$DIMCLRT
 70
     0
  9
$DIMTFAC
 40
1.0
  9
$DIMGAP
 40
0.09
  9
$LUNITS
 70
     2
  9
$LUPREC
 70
     4
  9
$SKETCHINC
 40
0.1
  9
$FILLETRAD
 40
0.4
  9
$AUNITS
 70
     0
  9
$AUPREC
 70
     0
  9
$MENU
  1
E:\r13\win\SUPPORT\ACAD
  9
$ELEVATION
 40
0.0
  9
$PELEVATION
 40
0.0
  9
$THICKNESS
 40
0.0
  9
$LIMCHECK
 70
     0
  9
$BLIPMODE
 70
     0
  9
$CHAMFERA
 40
0.0
  9
$CHAMFERB
 40
0.0
  9
$SKPOLY
 70
     0
  9
$TDCREATE
 40
2449839.7723726858
  9
$TDUPDATE
 40
2456597.7160022338
  9
$TDINDWG
 40
0.0002560301
  9
$TDUSRTIMER
 40
0.0002560301
  9
$USRTIMER
 70
     1
  9
$ANGBASE
 50
0.0
  9
$ANGDIR
 70
     0
  9
$PDMODE
 70
     0
  9
$PDSIZE
 40
0.0
  9
$PLINEWID
 40
0.0
  9
$COORDS
 70
     1
  9
$SPLFRAME
 70
     0
  9
$SPLINETYPE
 70
     6
  9
$SPLINESEGS
 70
     8
  9
$ATTDIA
 70
     0
  9
$ATTREQ
 70
     1
  9
$HANDLING
 70
     1
  9
$HANDSEED
  5
308
  9
$SURFTAB1
 70
     6
  9
$SURFTAB2
 70
     6
  9
$SURFTYPE
 70
     6
  9
$SURFU
 70
     6
  9
$SURFV
 70
     6
  9
$UCSNAME
  2

  9
$UCSORG
 10
0.0
 20
0.0
 30
0.0
  9
$UCSXDIR
 10
1.0
 20
0.0
 30
0.0
  9
$UCSYDIR
 10
0.0
 20
1.0
 30
0.0
  9
$PUCSNAME
  2

  9
$PUCSORG
 10
0.0
 20
0.0
 30
0.0
  9
$PUCSXDIR
 10
1.0
 20
0.0
 30
0.0
  9
$PUCSYDIR
 10
0.0
 20
1.0
 30
0.0
  9
$USERI1
 70
     4
  9
$USERI2
 70
     1
  9
$USERI3
 70
     0
  9
$USERI4
 70
     0
  9
$USERI5
 70
     0
  9
$USERR1
 40
0.0
  9
$USERR2
 40
0.0
  9
$USERR3
 40
0.0
  9
$USERR4
 40
0.0
  9
$USERR5
 40
0.0
  9
$WORLDVIEW
 70
     1
  9
$SHADEDGE
 70
     3
  9
$SHADEDIF
 70
    70
  9
$TILEMODE
 70
     1
  9
$MAXACTVP
 70
    16
  9
$PLIMCHECK
 70
     0
  9
$PEXTMIN
 10
1.0000000000000000E+020
 20
1.0000000000000000E+020
 30
1.0000000000000000E+020
  9
$PEXTMAX
 10
-1.0000000000000000E+020
 20
-1.0000000000000000E+020
 30
-1.0000000000000000E+020
  9
$PLIMMIN
 10
0.0
 20
0.0
  9
$PLIMMAX
 10
12.0
 20
9.0
  9
$UNITMODE
 70
     0
  9
$VISRETAIN
 70
     0
  9
$PLINEGEN
 70
     0
  9
$PSLTSCALE
 70
     0
  0
ENDSEC
  0
SECTION
  2
TABLES
  0
TABLE
  2
VPORT
 70
     1
  0
VPORT
  2
*ACTIVE
 70
     0
 10
0.0
 20
0.0
 11
1.0
 21
1.0
 12
141.34065490287631
 22
111.5171514033772
 13
0.0
 23
0.0
 14
5.0
 24
5.0
 15
10.0
 25
10.0
 16
0.0
 26
0.0
 36
1.0
 17
0.0
 27
0.0
 37
0.0
 40
231.0331199236231
 41
1.831871345029239
 42
50.0
 43
0.0
 44
0.0
 50
0.0
 51
0.0
 71
     0
 72
   100
 73
     1
 74
     0
 75
     0
 76
     0
 77
     0
 78
     0
  0
ENDTAB
  0
TABLE
  2
LTYPE
 70
     3
  0
LTYPE
  2
CONTINUOUS
 70
     0
  3
Solid Line
 72
    65
 73
     0
 40
0.0
  0
LTYPE
  2
CENTER
 70
     0
  3
____ _ ____ _ ____ _ ____ _ ____ _ ____ _ ____
 72
    65
 73
     4
 40
2.0
 49
1.25
 49
-0.25
 49
0.25
 49
-0.25
  0
LTYPE
  2
PHANTOM2
 70
     0
  3
___ _ _ ___ _ _ ___ _ _ ___ _ _
 72
    65
 73
     6
 40
1.25
 49
0.625
 49
-0.125
 49
0.125
 49
-0.125
 49
0.125
 49
-0.125
  0
ENDTAB
  0
TABLE
  2
LAYER
 70
     3
  0
LAYER
  2
0
 70
     0
 62
     7
  6
CONTINUOUS
  0
LAYER
  2
1
 70
     0
 62
     1
  6
CENTER
  0
LAYER
  2
3
 70
     0
 62
     3
  6
CONTINUOUS
  0
ENDTAB
  0
TABLE
  2
STYLE
 70
     2
  0
STYLE
  2
STANDARD
 70
     0
 40
0.0
 41
1.0
 50
0.0
 71
     0
 42
4.0
  3
TXT
  4
BIGFONT
  0
STYLE
  2
STANDARD1
 70
     0
 40
0.0
 41
1.0
 50
0.0
 71
     0
 42
3.0
  3
txt
  4

  0
ENDTAB
  0
TABLE
  2
VIEW
 70
     1
  0
VIEW
  2
ALL
 70
     0
 40
198.0
 10
159.898459
 20
99.0
 41
0.0
 11
0.0
 21
0.0
 31
1.0
 12
0.0
 22
0.0
 32
0.0
 42
0.0
 43
0.0
 44
0.0
 50
0.0
 71
     0
  0
ENDTAB
  0
TABLE
  2
UCS
 70
     0
  0
ENDTAB
  0
TABLE
  2
APPID
 70
     3
  0
APPID
  2
ACAD
 70
     0
  0
APPID
  2
ACAD_MLEADERVER
 70
     0
  0
APPID
  2
ACAD_NAV_VCDISPLAY
 70
     0
  0
ENDTAB
  0
TABLE
  2
DIMSTYLE
 70
     1
  0
DIMSTYLE
  2
STANDARD
 70
     0
  3

  4

  5

  6

  7

 40
1.0
 41
0.18
 42
0.0625
 43
0.38
 44
0.18
 45
0.0
 46
0.0
 47
0.0
 48
0.0
140
0.18
141
0.09
142
0.0
143
25.399999999999999
144
1.0
145
0.0
146
1.0
147
0.09
 71
     0
 72
     0
 73
     1
 74
     1
 75
     0
 76
     0
 77
     0
 78
     0
170
     0
171
     2
172
     0
173
     0
174
     0
175
     0
176
     0
177
     0
178
     0
  0
ENDTAB
  0
ENDSEC
  0
SECTION
  2
BLOCKS
  0
BLOCK
  8
0
  2
$MODEL_SPACE
 70
     0
 10
0.0
 20
0.0
 30
0.0
  3
$MODEL_SPACE
  1

  0
ENDBLK
  5
1BE
  8
0
  0
BLOCK
 67
     1
  8
0
  2
$PAPER_SPACE
 70
     0
 10
0.0
 20
0.0
 30
0.0
  3
$PAPER_SPACE
  1

  0
ENDBLK
  5
1BC
 67
     1
  8
0
  0
ENDSEC
  0
SECTION
  2
ENTITIES
  0
LINE
  5
3D
  8
0
 10
244.0
 20
184.75
 30
0.0
 11
236.0
 21
184.75
 31
0.0
  0
LINE
  5
3E
  8
0
 10
237.0
 20
180.75
 30
0.0
 11
237.966216
 21
180.75
 31
0.0
  0
LINE
  5
3F
  8
0
 10
243.0
 20
180.75
 30
0.0
 11
244.0
 21
184.75
 31
0.0
  0
LINE
  5
40
  8
0
 10
237.0
 20
180.75
 30
0.0
 11
236.0
 21
184.75
 31
0.0
  0
ARC
  5
41
  8
0
 10
240.0
 20
175.5
 30
0.0
 40
1.75
 50
180.0
 51
0.0
  0
LINE
  5
42
  8
0
 10
241.75
 20
175.5
 30
0.0
 11
242.25
 21
184.75
 31
0.0
  0
LINE
  5
43
  8
0
 10
237.75
 20
184.75
 30
0.0
 11
238.25
 21
175.5
 31
0.0
  0
LINE
  5
44
  8
0
 10
242.033784
 20
180.75
 30
0.0
 11
243.0
 21
180.75
 31
0.0
  0
LINE
  5
45
  8
3
 10
237.93299999999999
 20
187.15000000000001
 30
0.0
 11
237.93299999999999
 21
189.13407699999999
 31
0.0
  0
LINE
  5
46
  8
0
 10
237.5
 20
184.75
 30
0.0
 11
237.5
 21
189.196519
 31
0.0
  0
LINE
  5
47
  8
0
 10
237.5
 20
187.15000000000001
 30
0.0
 11
242.5
 21
187.15000000000001
 31
0.0
  0
LINE
  5
48
  8
3
 10
237.93299999999999
 20
187.15000000000001
 30
0.0
 11
237.5
 21
186.40002200000001
 31
0.0
  0
LINE
  5
49
  8
0
 10
242.5
 20
184.75
 30
0.0
 11
242.5
 21
189.196519
 31
0.0
  0
LINE
  5
4A
  8
3
 10
242.06700000000001
 20
187.15000000000001
 30
0.0
 11
242.06700000000001
 21
189.13407699999999
 31
0.0
  0
LINE
  5
4B
  8
3
 10
242.06700000000001
 20
187.15000000000001
 30
0.0
 11
242.5
 21
186.40002200000001
 31
0.0
  0
LINE
  5
4C
  8
1
 10
240.0
 20
170.007994
 30
0.0
 11
240.0
 21
226.0
 31
0.0
  0
LINE
  5
4D
  8
1
 10
219.0
 20
205.0
 30
0.0
 11
261.0
 21
205.0
 31
0.0
  0
CIRCLE
  5
4E
  8
0
 10
240.0
 20
205.0
 30
0.0
 40
10.25
  0
CIRCLE
  5
4F
  8
0
 10
240.0
 20
205.0
 30
0.0
 40
16.0
  0
LINE
  5
50
  8
0
 10
252.25
 20
73.5
 30
0.0
 11
241.911699
 21
73.5
 31
0.0
  0
LINE
  5
51
  8
0
 10
252.25
 20
74.0
 30
0.0
 11
243.01419799999999
 21
74.0
 31
0.0
  0
LINE
  5
52
  8
0
 10
228.30000000000001
 20
120.59999999999999
 30
0.0
 11
250.73477199999999
 21
120.59999999999999
 31
0.0
  0
LINE
  5
53
  8
0
 10
252.25
 20
118.5
 30
0.0
 11
251.79238699999999
 21
118.5
 31
0.0
  0
LINE
  5
54
  8
0
 10
252.25
 20
118.0
 30
0.0
 11
249.14835400000001
 21
118.0
 31
0.0
  0
LINE
  5
55
  8
0
 10
228.30000000000001
 20
119.05
 30
0.0
 11
227.75
 21
118.5
 31
0.0
  0
ARC
  5
56
  8
0
 10
227.90000000000001
 20
120.59999999999999
 30
0.0
 40
0.4
 50
0.0
 51
90.0
  0
LINE
  5
57
  8
0
 10
228.30000000000001
 20
119.05
 30
0.0
 11
228.30000000000001
 21
120.59999999999999
 31
0.0
  0
CIRCLE
  5
58
  8
0
 10
227.15000000000001
 20
119.84999999999999
 30
0.0
 40
1.149999999999999
  0
ARC
  5
59
  8
0
 10
252.84999999999999
 20
77.010000000000005
 30
0.0
 40
1.149999999999999
 50
270.0
 51
111.41683399999999
  0
ARC
  5
5A
  8
0
 10
252.84999999999999
 20
84.150000000000006
 30
0.0
 40
1.149999999999999
 50
270.0
 51
111.41683399999999
  0
ARC
  5
5B
  8
0
 10
252.84999999999999
 20
91.290000000000006
 30
0.0
 40
1.149999999999999
 50
270.0
 51
111.41683399999999
  0
ARC
  5
5C
  8
0
 10
252.84999999999999
 20
98.430000000000007
 30
0.0
 40
1.149999999999999
 50
270.0
 51
111.41683399999999
  0
ARC
  5
5D
  8
0
 10
252.84999999999999
 20
105.56999999999999
 30
0.0
 40
1.149999999999999
 50
270.0
 51
111.41683399999999
  0
ARC
  5
5E
  8
0
 10
252.84999999999999
 20
112.70999999999999
 30
0.0
 40
1.149999999999999
 50
270.0
 51
111.41683399999999
  0
LINE
  5
5F
  8
0
 10
256.0
 20
70.5
 30
0.0
 11
256.0
 21
62.5
 31
0.0
  0
LINE
  5
60
  8
0
 10
230.85164599999999
 20
74.0
 30
0.0
 11
227.75
 21
74.0
 31
0.0
  0
LINE
  5
61
  8
0
 10
245.65823
 20
74.5
 30
0.0
 11
251.75
 21
74.5
 31
0.0
  0
LINE
  5
62
  8
0
 10
236.98580200000001
 20
118.0
 30
0.0
 11
227.75
 21
118.0
 31
0.0
  0
LINE
  5
63
  8
0
 10
246.504321
 20
117.5
 30
0.0
 11
251.75
 21
117.5
 31
0.0
  0
LINE
  5
64
  8
0
 10
252.43007700000001
 20
120.920591
 30
0.0
 11
227.15000000000001
 21
116.14
 31
0.0
  0
LINE
  5
65
  8
0
 10
227.15000000000001
 20
113.84
 30
0.0
 11
244.57128800000001
 21
112.294454
 31
0.0
  0
LINE
  5
66
  8
0
 10
227.15000000000001
 20
106.7
 30
0.0
 11
244.57128800000001
 21
105.154454
 31
0.0
  0
LINE
  5
67
  8
0
 10
227.15000000000001
 20
99.560000000000016
 30
0.0
 11
244.57128800000001
 21
98.014454000000001
 31
0.0
  0
LINE
  5
68
  8
0
 10
227.15000000000001
 20
92.420000000000002
 30
0.0
 11
244.57128800000001
 21
90.874454
 31
0.0
  0
LINE
  5
69
  8
0
 10
227.15000000000001
 20
85.280000000000001
 30
0.0
 11
244.57128800000001
 21
83.734453999999985
 31
0.0
  0
LINE
  5
6A
  8
0
 10
227.15000000000001
 20
78.140000000000001
 30
0.0
 11
244.57128800000001
 21
76.594453999999999
 31
0.0
  0
ARC
  5
6B
  8
0
 10
227.15000000000001
 20
107.84999999999999
 30
0.0
 40
1.149999999999999
 50
90.0
 51
270.0
  0
ARC
  5
6C
  8
0
 10
227.15000000000001
 20
119.84999999999999
 30
0.0
 40
1.149999999999999
 50
90.0
 51
270.0
  0
ARC
  5
6D
  8
0
 10
227.15000000000001
 20
114.98999999999999
 30
0.0
 40
1.149999999999999
 50
90.0
 51
270.0
  0
ARC
  5
6E
  8
0
 10
227.15000000000001
 20
72.150000000000006
 30
0.0
 40
1.149999999999999
 50
90.0
 51
270.0
  0
ARC
  5
6F
  8
0
 10
227.15000000000001
 20
79.290000000000006
 30
0.0
 40
1.149999999999999
 50
90.0
 51
270.0
  0
ARC
  5
70
  8
0
 10
227.15000000000001
 20
86.430000000000007
 30
0.0
 40
1.149999999999999
 50
90.0
 51
270.0
  0
ARC
  5
71
  8
0
 10
227.15000000000001
 20
93.569999999999993
 30
0.0
 40
1.149999999999999
 50
90.0
 51
270.0
  0
ARC
  5
72
  8
0
 10
227.15000000000001
 20
100.70999999999999
 30
0.0
 40
1.149999999999999
 50
90.0
 51
270.0
  0
CIRCLE
  5
73
  8
0
 10
252.84999999999999
 20
72.150000000000006
 30
0.0
 40
1.149999999999999
  0
ARC
  5
74
  8
0
 10
252.84999999999999
 20
119.84999999999999
 30
0.0
 40
1.149999999999999
 50
270.0
 51
111.41683399999999
  0
LINE
  5
75
  8
0
 10
227.15000000000001
 20
113.84
 30
0.0
 11
252.84999999999999
 21
118.7
 31
0.0
  0
LINE
  5
76
  8
0
 10
252.84999999999999
 20
113.86
 30
0.0
 11
235.42871099999999
 21
115.405546
 31
0.0
  0
LINE
  5
77
  8
0
 10
252.43007700000001
 20
113.780591
 30
0.0
 11
227.15000000000001
 21
109.0
 31
0.0
  0
LINE
  5
78
  8
0
 10
227.15000000000001
 20
106.7
 30
0.0
 11
252.84999999999999
 21
111.56
 31
0.0
  0
LINE
  5
79
  8
0
 10
252.43007700000001
 20
106.640591
 30
0.0
 11
227.15000000000001
 21
101.86
 31
0.0
  0
LINE
  5
7A
  8
0
 10
227.15000000000001
 20
99.560000000000016
 30
0.0
 11
252.84999999999999
 21
104.42
 31
0.0
  0
LINE
  5
7B
  8
0
 10
252.43007700000001
 20
99.500591
 30
0.0
 11
227.15000000000001
 21
94.719999999999985
 31
0.0
  0
LINE
  5
7C
  8
0
 10
227.15000000000001
 20
92.420000000000002
 30
0.0
 11
252.84999999999999
 21
97.280000000000015
 31
0.0
  0
LINE
  5
7D
  8
0
 10
252.43007700000001
 20
92.360590999999999
 30
0.0
 11
227.15000000000001
 21
87.579999999999998
 31
0.0
  0
LINE
  5
7E
  8
0
 10
227.15000000000001
 20
85.280000000000001
 30
0.0
 11
252.84999999999999
 21
90.140000000000015
 31
0.0
  0
LINE
  5
7F
  8
0
 10
252.43007700000001
 20
85.220590999999985
 30
0.0
 11
227.15000000000001
 21
80.439999999999998
 31
0.0
  0
LINE
  5
80
  8
0
 10
227.15000000000001
 20
78.140000000000001
 30
0.0
 11
252.84999999999999
 21
83.0
 31
0.0
  0
LINE
  5
81
  8
0
 10
252.43007700000001
 20
78.080590999999998
 30
0.0
 11
241.575018
 21
76.027843999999988
 31
0.0
  0
LINE
  5
82
  8
0
 10
227.15000000000001
 20
71.0
 30
0.0
 11
238.04807299999999
 21
73.060881000000009
 31
0.0
  0
LINE
  5
83
  8
0
 10
252.84999999999999
 20
106.72
 30
0.0
 11
235.42871099999999
 21
108.265546
 31
0.0
  0
LINE
  5
84
  8
0
 10
252.84999999999999
 20
99.579999999999998
 30
0.0
 11
235.42871099999999
 21
101.125546
 31
0.0
  0
LINE
  5
85
  8
0
 10
252.84999999999999
 20
92.439999999999984
 30
0.0
 11
235.42871099999999
 21
93.985545999999999
 31
0.0
  0
LINE
  5
86
  8
0
 10
252.84999999999999
 20
85.299999999999983
 30
0.0
 11
235.42871099999999
 21
86.845545999999999
 31
0.0
  0
LINE
  5
87
  8
0
 10
252.84999999999999
 20
78.159999999999997
 30
0.0
 11
235.42871099999999
 21
79.705545999999984
 31
0.0
  0
LINE
  5
88
  8
0
 10
224.0
 20
70.5
 30
0.0
 11
237.813469
 21
70.5
 31
0.0
  0
LINE
  5
89
  8
0
 10
224.0
 20
121.5
 30
0.0
 11
256.0
 21
121.5
 31
0.0
  0
LINE
  5
8A
  8
0
 10
252.17722499999999
 20
118.57277499999999
 30
0.0
 11
252.25
 21
118.5
 31
0.0
  0
LINE
  5
8B
  8
0
 10
252.25
 20
118.5
 30
0.0
 11
252.25
 21
118.0
 31
0.0
  0
LINE
  5
8C
  8
0
 10
252.25
 20
118.0
 30
0.0
 11
251.75
 21
117.5
 31
0.0
  0
ARC
  5
8D
  8
0
 10
252.09999999999999
 20
120.59999999999999
 30
0.0
 40
0.4
 50
90.0
 51
151.34860499999999
  0
LINE
  5
8E
  8
0
 10
224.5
 20
125.0
 30
0.0
 11
255.5
 21
125.0
 31
0.0
  0
LINE
  5
8F
  8
0
 10
256.0
 20
121.5
 30
0.0
 11
256.0
 21
124.5
 31
0.0
  0
LINE
  5
90
  8
0
 10
255.5
 20
121.0
 30
0.0
 11
256.0
 21
121.5
 31
0.0
  0
LINE
  5
91
  8
0
 10
256.0
 20
124.5
 30
0.0
 11
255.5
 21
125.0
 31
0.0
  0
LINE
  5
92
  8
0
 10
228.25
 20
117.5
 30
0.0
 11
234.341769
 21
117.5
 31
0.0
  0
LINE
  5
93
  8
0
 10
256.0
 20
124.5
 30
0.0
 11
224.0
 21
124.5
 31
0.0
  0
LINE
  5
94
  8
0
 10
255.5
 20
121.0
 30
0.0
 11
224.5
 21
121.0
 31
0.0
  0
LINE
  5
95
  8
0
 10
224.0
 20
124.5
 30
0.0
 11
224.5
 21
125.0
 31
0.0
  0
LINE
  5
96
  8
0
 10
224.5
 20
121.0
 30
0.0
 11
224.0
 21
121.5
 31
0.0
  0
LINE
  5
97
  8
0
 10
224.0
 20
121.5
 30
0.0
 11
224.0
 21
124.5
 31
0.0
  0
LINE
  5
98
  8
0
 10
227.75
 20
118.0
 30
0.0
 11
228.25
 21
117.5
 31
0.0
  0
LINE
  5
99
  8
0
 10
227.75
 20
118.5
 30
0.0
 11
227.75
 21
118.0
 31
0.0
  0
LINE
  5
9A
  8
0
 10
228.30000000000001
 20
119.05
 30
0.0
 11
242.53827000000001
 21
119.05
 31
0.0
  0
LINE
  5
9B
  8
0
 10
227.75
 20
118.5
 30
0.0
 11
240.0
 21
118.5
 31
0.0
  0
LINE
  5
9C
  8
0
 10
237.46172799999999
 20
72.950000000000003
 30
0.0
 11
238.037915
 21
72.950000000000003
 31
0.0
  0
LINE
  5
9D
  8
0
 10
227.82277500000001
 20
73.427225000000007
 30
0.0
 11
227.75
 21
73.5
 31
0.0
  0
LINE
  5
9E
  8
0
 10
227.75
 20
73.5
 30
0.0
 11
227.75
 21
74.0
 31
0.0
  0
LINE
  5
9F
  8
0
 10
227.75
 20
74.0
 30
0.0
 11
228.25
 21
74.5
 31
0.0
  0
ARC
  5
A0
  8
0
 10
227.90000000000001
 20
71.400000000000006
 30
0.0
 40
0.4
 50
270.0
 51
331.34867500000001
  0
LINE
  5
A1
  8
0
 10
224.0
 20
70.5
 30
0.0
 11
224.0
 21
62.5
 31
0.0
  0
LINE
  5
A2
  8
0
 10
224.5
 20
71.0
 30
0.0
 11
224.0
 21
70.5
 31
0.0
  0
LINE
  5
A3
  8
0
 10
224.0
 20
62.5
 30
0.0
 11
224.5
 21
62.0
 31
0.0
  0
LINE
  5
A4
  8
0
 10
255.5
 20
71.0
 30
0.0
 11
242.140726
 21
71.0
 31
0.0
  0
LINE
  5
A5
  8
0
 10
256.0
 20
62.5
 30
0.0
 11
242.186531
 21
62.5
 31
0.0
  0
LINE
  5
A6
  8
0
 10
228.25
 20
74.5
 30
0.0
 11
233.495678
 21
74.5
 31
0.0
  0
LINE
  5
A7
  8
1
 10
240.0
 20
50.984926999999999
 30
0.0
 11
240.0
 21
130.0
 31
0.0
  0
LINE
  5
A8
  8
0
 10
256.0
 20
62.5
 30
0.0
 11
255.5
 21
62.0
 31
0.0
  0
LINE
  5
A9
  8
0
 10
255.5
 20
71.0
 30
0.0
 11
256.0
 21
70.5
 31
0.0
  0
LINE
  5
AA
  8
0
 10
224.5
 20
62.0
 30
0.0
 11
237.859274
 21
62.0
 31
0.0
  0
ARC
  5
AB
  8
0
 10
252.09999999999999
 20
71.400000000000006
 30
0.0
 40
0.4
 50
180.0
 51
270.0
  0
LINE
  5
AC
  8
0
 10
251.69999999999999
 20
72.950000000000003
 30
0.0
 11
251.69999999999999
 21
71.400000000000006
 31
0.0
  0
LINE
  5
AD
  8
0
 10
252.25
 20
74.0
 30
0.0
 11
251.75
 21
74.5
 31
0.0
  0
LINE
  5
AE
  8
0
 10
252.25
 20
73.5
 30
0.0
 11
252.25
 21
74.0
 31
0.0
  0
LINE
  5
AF
  8
0
 10
251.69999999999999
 20
72.950000000000003
 30
0.0
 11
252.25
 21
73.5
 31
0.0
  0
ARC
  5
B0
  8
0
 10
240.0
 20
66.5
 30
0.0
 40
4.0
 50
304.22886599999998
 51
55.771133999999989
  0
CIRCLE
  5
B1
  8
0
 10
240.0
 20
66.5
 30
0.0
 40
3.0
  0
ARC
  5
B2
  8
0
 10
240.0
 20
75.265073000000001
 30
0.0
 40
1.75
 50
0.0
 51
180.0
  0
LINE
  5
B3
  8
0
 10
238.25
 20
75.265073000000001
 30
0.0
 11
237.61357000000001
 21
68.317953000000003
 31
0.0
  0
LINE
  5
B4
  8
0
 10
241.75
 20
75.265073000000001
 30
0.0
 11
242.38642999999999
 21
68.317953000000003
 31
0.0
  0
LINE
  5
B5
  8
0
 10
241.75
 20
57.734926999999999
 30
0.0
 11
242.38642999999999
 21
64.682046999999997
 31
0.0
  0
LINE
  5
B6
  8
0
 10
238.25
 20
57.734926999999999
 30
0.0
 11
237.61357000000001
 21
64.682046999999997
 31
0.0
  0
ARC
  5
B7
  8
0
 10
240.0
 20
57.734926999999999
 30
0.0
 40
1.75
 50
180.0
 51
0.0
  0
LINE
  5
B8
  8
1
 10
249.0
 20
66.5
 30
0.0
 11
231.0
 21
66.5
 31
0.0
  0
LINE
  5
B9
  8
0
 10
242.140726
 20
62.0
 30
0.0
 11
255.5
 21
62.0
 31
0.0
  0
LINE
  5
BA
  8
0
 10
237.813469
 20
62.5
 30
0.0
 11
224.0
 21
62.5
 31
0.0
  0
ARC
  5
BB
  8
0
 10
240.0
 20
66.5
 30
0.0
 40
4.0
 50
124.228866
 51
235.77113399999999
  0
LINE
  5
BC
  8
0
 10
237.859274
 20
71.0
 30
0.0
 11
224.5
 21
71.0
 31
0.0
  0
LINE
  5
BD
  8
0
 10
242.186531
 20
70.5
 30
0.0
 11
256.0
 21
70.5
 31
0.0
  0
LINE
  5
BE
  8
0
 10
241.88544899999999
 20
73.786547999999996
 30
0.0
 11
252.84999999999999
 21
75.859999999999999
 31
0.0
  0
LINE
  5
BF
  8
0
 10
241.962085
 20
72.950000000000003
 30
0.0
 11
251.69999999999999
 21
72.950000000000003
 31
0.0
  0
LINE
  5
C0
  8
0
 10
238.255213
 20
75.400052000000002
 30
0.0
 11
227.15000000000001
 21
73.299999999999997
 31
0.0
  0
LINE
  5
C1
  8
0
 10
132.25
 20
73.5
 30
0.0
 11
120.370165
 21
73.5
 31
0.0
  0
LINE
  5
C2
  8
0
 10
132.25
 20
74.0
 30
0.0
 11
123.01419799999999
 21
74.0
 31
0.0
  0
LINE
  5
C3
  8
0
 10
108.3
 20
120.59999999999999
 30
0.0
 11
130.73477199999999
 21
120.59999999999999
 31
0.0
  0
LINE
  5
C4
  8
0
 10
132.25
 20
118.5
 30
0.0
 11
131.79238699999999
 21
118.5
 31
0.0
  0
LINE
  5
C5
  8
0
 10
132.25
 20
118.0
 30
0.0
 11
129.14835400000001
 21
118.0
 31
0.0
  0
LINE
  5
C6
  8
0
 10
108.3
 20
119.05
 30
0.0
 11
107.75
 21
118.5
 31
0.0
  0
ARC
  5
C7
  8
0
 10
107.90000000000001
 20
120.59999999999999
 30
0.0
 40
0.4
 50
0.0
 51
90.0
  0
LINE
  5
C8
  8
0
 10
108.3
 20
119.05
 30
0.0
 11
108.3
 21
120.59999999999999
 31
0.0
  0
CIRCLE
  5
C9
  8
0
 10
107.15000000000001
 20
119.84999999999999
 30
0.0
 40
1.149999999999999
  0
ARC
  5
CA
  8
0
 10
132.84999999999999
 20
77.010000000000005
 30
0.0
 40
1.149999999999999
 50
270.0
 51
111.41683399999999
  0
ARC
  5
CB
  8
0
 10
132.84999999999999
 20
84.150000000000006
 30
0.0
 40
1.149999999999999
 50
270.0
 51
111.41683399999999
  0
ARC
  5
CC
  8
0
 10
132.84999999999999
 20
91.290000000000006
 30
0.0
 40
1.149999999999999
 50
270.0
 51
111.41683399999999
  0
ARC
  5
CD
  8
0
 10
132.84999999999999
 20
98.430000000000007
 30
0.0
 40
1.149999999999999
 50
270.0
 51
111.41683399999999
  0
ARC
  5
CE
  8
0
 10
132.84999999999999
 20
105.56999999999999
 30
0.0
 40
1.149999999999999
 50
270.0
 51
111.41683399999999
  0
ARC
  5
CF
  8
0
 10
132.84999999999999
 20
112.70999999999999
 30
0.0
 40
1.149999999999999
 50
270.0
 51
111.41683399999999
  0
LINE
  5
D0
  8
0
 10
136.0
 20
70.5
 30
0.0
 11
136.0
 21
62.5
 31
0.0
  0
LINE
  5
D1
  8
0
 10
144.25
 20
63.5
 30
0.0
 11
140.25
 21
62.5
 31
0.0
  0
LINE
  5
D2
  8
0
 10
144.25
 20
63.5
 30
0.0
 11
150.81788399999999
 21
61.109485999999997
 31
0.0
  0
LINE
  5
D3
  8
0
 10
140.25
 20
62.5
 30
0.0
 11
146.589337
 21
56.160662999999992
 31
0.0
  0
LINE
  5
D4
  8
0
 10
151.056725
 20
60.142164999999999
 30
0.0
 11
147.45765499999999
 21
56.181421999999998
 31
0.0
  0
ARC
  5
D5
  8
0
 10
150.612672
 20
60.545669999999987
 30
0.0
 40
0.6
 50
317.73903100000001
 51
70.0
  0
ARC
  5
D6
  8
0
 10
147.01360099999999
 20
56.584927
 30
0.0
 40
0.6
 50
225.0
 51
317.73903100000001
  0
ARC
  5
D7
  8
0
 10
147.01360099999999
 20
76.415072999999992
 30
0.0
 40
0.6
 50
42.260969000000003
 51
135.0
  0
ARC
  5
D8
  8
0
 10
150.612672
 20
72.454329999999999
 30
0.0
 40
0.6
 50
290.0
 51
42.260969000000003
  0
LINE
  5
D9
  8
0
 10
151.056725
 20
72.857834999999994
 30
0.0
 11
147.45765499999999
 21
76.818578000000002
 31
0.0
  0
LINE
  5
DA
  8
0
 10
140.25
 20
70.5
 30
0.0
 11
146.589337
 21
76.839337
 31
0.0
  0
LINE
  5
DB
  8
0
 10
144.25
 20
69.5
 30
0.0
 11
150.81788399999999
 21
71.890513999999996
 31
0.0
  0
LINE
  5
DC
  8
0
 10
144.25
 20
69.5
 30
0.0
 11
140.25
 21
70.5
 31
0.0
  0
LINE
  5
DD
  8
0
 10
144.25
 20
63.5
 30
0.0
 11
144.25
 21
69.5
 31
0.0
  0
LINE
  5
DE
  8
0
 10
140.25
 20
70.5
 30
0.0
 11
140.25
 21
62.5
 31
0.0
  0
LINE
  5
DF
  8
3
 10
137.84999999999999
 20
68.566999999999993
 30
0.0
 11
138.59997799999999
 21
69.0
 31
0.0
  0
LINE
  5
E0
  8
3
 10
137.84999999999999
 20
64.433000000000007
 30
0.0
 11
138.59997799999999
 21
64.0
 31
0.0
  0
LINE
  5
E1
  8
0
 10
137.84999999999999
 20
64.0
 30
0.0
 11
137.84999999999999
 21
69.0
 31
0.0
  0
LINE
  5
E2
  8
0
 10
140.25
 20
64.0
 30
0.0
 11
136.0
 21
64.0
 31
0.0
  0
LINE
  5
E3
  8
3
 10
137.84999999999999
 20
64.433000000000007
 30
0.0
 11
136.0
 21
64.433000000000007
 31
0.0
  0
LINE
  5
E4
  8
3
 10
137.84999999999999
 20
68.566999999999993
 30
0.0
 11
136.0
 21
68.566999999999993
 31
0.0
  0
LINE
  5
E5
  8
0
 10
140.25
 20
69.0
 30
0.0
 11
136.0
 21
69.0
 31
0.0
  0
LINE
  5
E6
  8
0
 10
110.851646
 20
74.0
 30
0.0
 11
107.75
 21
74.0
 31
0.0
  0
LINE
  5
E7
  8
0
 10
125.65823
 20
74.5
 30
0.0
 11
131.75
 21
74.5
 31
0.0
  0
LINE
  5
E8
  8
0
 10
116.98580200000001
 20
118.0
 30
0.0
 11
107.75
 21
118.0
 31
0.0
  0
LINE
  5
E9
  8
0
 10
126.504321
 20
117.5
 30
0.0
 11
131.75
 21
117.5
 31
0.0
  0
LINE
  5
EA
  8
0
 10
132.43007700000001
 20
120.920591
 30
0.0
 11
107.15000000000001
 21
116.14
 31
0.0
  0
LINE
  5
EB
  8
0
 10
107.15000000000001
 20
113.84
 30
0.0
 11
124.571288
 21
112.294454
 31
0.0
  0
LINE
  5
EC
  8
0
 10
107.15000000000001
 20
106.7
 30
0.0
 11
124.571288
 21
105.154454
 31
0.0
  0
LINE
  5
ED
  8
0
 10
107.15000000000001
 20
99.560000000000016
 30
0.0
 11
124.571288
 21
98.014454000000001
 31
0.0
  0
LINE
  5
EE
  8
0
 10
107.15000000000001
 20
92.420000000000002
 30
0.0
 11
124.571288
 21
90.874454
 31
0.0
  0
LINE
  5
EF
  8
0
 10
107.15000000000001
 20
85.280000000000001
 30
0.0
 11
124.571288
 21
83.734453999999985
 31
0.0
  0
LINE
  5
F0
  8
0
 10
107.15000000000001
 20
78.140000000000001
 30
0.0
 11
124.571288
 21
76.594453999999999
 31
0.0
  0
ARC
  5
F1
  8
0
 10
107.15000000000001
 20
107.84999999999999
 30
0.0
 40
1.149999999999999
 50
90.0
 51
270.0
  0
ARC
  5
F2
  8
0
 10
107.15000000000001
 20
119.84999999999999
 30
0.0
 40
1.149999999999999
 50
90.0
 51
270.0
  0
ARC
  5
F3
  8
0
 10
107.15000000000001
 20
114.98999999999999
 30
0.0
 40
1.149999999999999
 50
90.0
 51
270.0
  0
ARC
  5
F4
  8
0
 10
107.15000000000001
 20
72.150000000000006
 30
0.0
 40
1.149999999999999
 50
90.0
 51
270.0
  0
ARC
  5
F5
  8
0
 10
107.15000000000001
 20
79.290000000000006
 30
0.0
 40
1.149999999999999
 50
90.0
 51
270.0
  0
ARC
  5
F6
  8
0
 10
107.15000000000001
 20
86.430000000000007
 30
0.0
 40
1.149999999999999
 50
90.0
 51
270.0
  0
ARC
  5
F7
  8
0
 10
107.15000000000001
 20
93.569999999999993
 30
0.0
 40
1.149999999999999
 50
90.0
 51
270.0
  0
ARC
  5
F8
  8
0
 10
107.15000000000001
 20
100.70999999999999
 30
0.0
 40
1.149999999999999
 50
90.0
 51
270.0
  0
CIRCLE
  5
F9
  8
0
 10
132.84999999999999
 20
72.150000000000006
 30
0.0
 40
1.149999999999999
  0
ARC
  5
FA
  8
0
 10
132.84999999999999
 20
119.84999999999999
 30
0.0
 40
1.149999999999999
 50
270.0
 51
111.41683399999999
  0
LINE
  5
FB
  8
0
 10
107.15000000000001
 20
113.84
 30
0.0
 11
132.84999999999999
 21
118.7
 31
0.0
  0
LINE
  5
FC
  8
0
 10
132.84999999999999
 20
113.86
 30
0.0
 11
115.42871100000001
 21
115.405546
 31
0.0
  0
LINE
  5
FD
  8
0
 10
132.43007700000001
 20
113.780591
 30
0.0
 11
107.15000000000001
 21
109.0
 31
0.0
  0
LINE
  5
FE
  8
0
 10
107.15000000000001
 20
106.7
 30
0.0
 11
132.84999999999999
 21
111.56
 31
0.0
  0
LINE
  5
FF
  8
0
 10
132.43007700000001
 20
106.640591
 30
0.0
 11
107.15000000000001
 21
101.86
 31
0.0
  0
LINE
  5
100
  8
0
 10
107.15000000000001
 20
99.560000000000016
 30
0.0
 11
132.84999999999999
 21
104.42
 31
0.0
  0
LINE
  5
101
  8
0
 10
132.43007700000001
 20
99.500591
 30
0.0
 11
107.15000000000001
 21
94.719999999999985
 31
0.0
  0
LINE
  5
102
  8
0
 10
107.15000000000001
 20
92.420000000000002
 30
0.0
 11
132.84999999999999
 21
97.280000000000015
 31
0.0
  0
LINE
  5
103
  8
0
 10
132.43007700000001
 20
92.360590999999999
 30
0.0
 11
107.15000000000001
 21
87.579999999999998
 31
0.0
  0
LINE
  5
104
  8
0
 10
107.15000000000001
 20
85.280000000000001
 30
0.0
 11
132.84999999999999
 21
90.140000000000015
 31
0.0
  0
LINE
  5
105
  8
0
 10
132.43007700000001
 20
85.220590999999985
 30
0.0
 11
107.15000000000001
 21
80.439999999999998
 31
0.0
  0
LINE
  5
106
  8
0
 10
107.15000000000001
 20
78.140000000000001
 30
0.0
 11
132.84999999999999
 21
83.0
 31
0.0
  0
LINE
  5
107
  8
0
 10
132.43007700000001
 20
78.080590999999998
 30
0.0
 11
107.15000000000001
 21
73.299999999999997
 31
0.0
  0
LINE
  5
108
  8
0
 10
107.15000000000001
 20
71.0
 30
0.0
 11
132.84999999999999
 21
75.859999999999999
 31
0.0
  0
LINE
  5
109
  8
0
 10
132.84999999999999
 20
106.72
 30
0.0
 11
115.42871100000001
 21
108.265546
 31
0.0
  0
LINE
  5
10A
  8
0
 10
132.84999999999999
 20
99.579999999999998
 30
0.0
 11
115.42871100000001
 21
101.125546
 31
0.0
  0
LINE
  5
10B
  8
0
 10
132.84999999999999
 20
92.439999999999984
 30
0.0
 11
115.42871100000001
 21
93.985545999999999
 31
0.0
  0
LINE
  5
10C
  8
0
 10
132.84999999999999
 20
85.299999999999983
 30
0.0
 11
115.42871100000001
 21
86.845545999999999
 31
0.0
  0
LINE
  5
10D
  8
0
 10
132.84999999999999
 20
78.159999999999997
 30
0.0
 11
115.42871100000001
 21
79.705545999999984
 31
0.0
  0
LINE
  5
10E
  8
0
 10
104.0
 20
70.5
 30
0.0
 11
136.0
 21
70.5
 31
0.0
  0
LINE
  5
10F
  8
0
 10
104.0
 20
121.5
 30
0.0
 11
136.0
 21
121.5
 31
0.0
  0
LINE
  5
110
  8
0
 10
132.17722499999999
 20
118.57277499999999
 30
0.0
 11
132.25
 21
118.5
 31
0.0
  0
LINE
  5
111
  8
0
 10
132.25
 20
118.5
 30
0.0
 11
132.25
 21
118.0
 31
0.0
  0
LINE
  5
112
  8
0
 10
132.25
 20
118.0
 30
0.0
 11
131.75
 21
117.5
 31
0.0
  0
ARC
  5
113
  8
0
 10
132.09999999999999
 20
120.59999999999999
 30
0.0
 40
0.4
 50
90.0
 51
151.34860499999999
  0
LINE
  5
114
  8
0
 10
104.5
 20
125.0
 30
0.0
 11
135.5
 21
125.0
 31
0.0
  0
LINE
  5
115
  8
0
 10
136.0
 20
121.5
 30
0.0
 11
136.0
 21
124.5
 31
0.0
  0
LINE
  5
116
  8
0
 10
135.5
 20
121.0
 30
0.0
 11
136.0
 21
121.5
 31
0.0
  0
LINE
  5
117
  8
0
 10
136.0
 20
124.5
 30
0.0
 11
135.5
 21
125.0
 31
0.0
  0
LINE
  5
118
  8
0
 10
108.25
 20
117.5
 30
0.0
 11
114.341769
 21
117.5
 31
0.0
  0
LINE
  5
119
  8
0
 10
136.0
 20
124.5
 30
0.0
 11
104.0
 21
124.5
 31
0.0
  0
LINE
  5
11A
  8
0
 10
135.5
 20
121.0
 30
0.0
 11
104.5
 21
121.0
 31
0.0
  0
LINE
  5
11B
  8
0
 10
104.0
 20
124.5
 30
0.0
 11
104.5
 21
125.0
 31
0.0
  0
LINE
  5
11C
  8
0
 10
104.5
 20
121.0
 30
0.0
 11
104.0
 21
121.5
 31
0.0
  0
LINE
  5
11D
  8
0
 10
104.0
 20
121.5
 30
0.0
 11
104.0
 21
124.5
 31
0.0
  0
LINE
  5
11E
  8
0
 10
107.75
 20
118.0
 30
0.0
 11
108.25
 21
117.5
 31
0.0
  0
LINE
  5
11F
  8
0
 10
107.75
 20
118.5
 30
0.0
 11
107.75
 21
118.0
 31
0.0
  0
LINE
  5
120
  8
0
 10
108.3
 20
119.05
 30
0.0
 11
122.53827
 21
119.05
 31
0.0
  0
LINE
  5
121
  8
0
 10
107.75
 20
118.5
 30
0.0
 11
120.0
 21
118.5
 31
0.0
  0
LINE
  5
122
  8
0
 10
117.46172799999999
 20
72.950000000000003
 30
0.0
 11
131.69999999999999
 21
72.950000000000003
 31
0.0
  0
LINE
  5
123
  8
0
 10
107.82277499999999
 20
73.427225000000007
 30
0.0
 11
107.75
 21
73.5
 31
0.0
  0
LINE
  5
124
  8
0
 10
107.75
 20
73.5
 30
0.0
 11
107.75
 21
74.0
 31
0.0
  0
LINE
  5
125
  8
0
 10
107.75
 20
74.0
 30
0.0
 11
108.25
 21
74.5
 31
0.0
  0
ARC
  5
126
  8
0
 10
107.90000000000001
 20
71.400000000000006
 30
0.0
 40
0.4
 50
270.0
 51
331.34867500000001
  0
LINE
  5
127
  8
0
 10
104.0
 20
70.5
 30
0.0
 11
104.0
 21
62.5
 31
0.0
  0
LINE
  5
128
  8
0
 10
104.5
 20
71.0
 30
0.0
 11
104.0
 21
70.5
 31
0.0
  0
LINE
  5
129
  8
0
 10
104.0
 20
62.5
 30
0.0
 11
104.5
 21
62.0
 31
0.0
  0
LINE
  5
12A
  8
0
 10
135.5
 20
71.0
 30
0.0
 11
104.5
 21
71.0
 31
0.0
  0
LINE
  5
12B
  8
0
 10
136.0
 20
62.5
 30
0.0
 11
104.0
 21
62.5
 31
0.0
  0
LINE
  5
12C
  8
0
 10
108.25
 20
74.5
 30
0.0
 11
113.495678
 21
74.5
 31
0.0
  0
LINE
  5
12D
  8
1
 10
125.39693200000001
 20
66.5
 30
0.0
 11
147.971373
 21
66.5
 31
0.0
  0
LINE
  5
12E
  8
1
 10
120.0
 20
57.0
 30
0.0
 11
120.0
 21
130.0
 31
0.0
  0
LINE
  5
12F
  8
0
 10
136.0
 20
62.5
 30
0.0
 11
135.5
 21
62.0
 31
0.0
  0
LINE
  5
130
  8
0
 10
135.5
 20
71.0
 30
0.0
 11
136.0
 21
70.5
 31
0.0
  0
LINE
  5
131
  8
0
 10
104.5
 20
62.0
 30
0.0
 11
135.5
 21
62.0
 31
0.0
  0
ARC
  5
132
  8
0
 10
132.09999999999999
 20
71.400000000000006
 30
0.0
 40
0.4
 50
180.0
 51
270.0
  0
LINE
  5
133
  8
0
 10
131.69999999999999
 20
72.950000000000003
 30
0.0
 11
131.69999999999999
 21
71.400000000000006
 31
0.0
  0
LINE
  5
134
  8
0
 10
132.25
 20
74.0
 30
0.0
 11
131.75
 21
74.5
 31
0.0
  0
LINE
  5
135
  8
0
 10
132.25
 20
73.5
 30
0.0
 11
132.25
 21
74.0
 31
0.0
  0
LINE
  5
136
  8
0
 10
131.69999999999999
 20
72.950000000000003
 30
0.0
 11
132.25
 21
73.5
 31
0.0
  0
TEXT
  5
277
  8
0
 62
     3
 10
0.0
 20
0.0
 30
0.0
 40
10.0
  1
BJ747-20001
  7
STANDARD1
  0
ENDSEC
  0
EOF
