  0
SECTION
  2
HEADER
  9
$ACADVER
  1
AC1009
  9
$INSBASE
 10
0.0
 20
0.0
 30
0.0
  9
$EXTMIN
 10
0.0
 20
-2.960436562073669
 30
0.0
  9
$EXTMAX
 10
428.36994957675353
 20
75.141416991587789
 30
0.0
  9
$LIMMIN
 10
0.0
 20
0.0
  9
$LIMMAX
 10
770.0
 20
540.0
  9
$ORTHOMODE
 70
     1
  9
$REGENMODE
 70
     1
  9
$FILLMODE
 70
     1
  9
$QTEXTMODE
 70
     0
  9
$MIRRTEXT
 70
     0
  9
$DRAGMODE
 70
     2
  9
$LTSCALE
 40
10.0
  9
$OSMODE
 70
  3071
  9
$ATTMODE
 70
     1
  9
$TEXTSIZE
 40
0.2
  9
$TRACEWID
 40
0.05
  9
$TEXTSTYLE
  7
STANDARD
  9
$CLAYER
  8
0
  9
$CELTYPE
  6
BYLAYER
  9
$CECOLOR
 62
   256
  9
$DIMSCALE
 40
1.0
  9
$DIMASZ
 40
3.0
  9
$DIMEXO
 40
2.0
  9
$DIMDLI
 40
0.3799999999999999
  9
$DIMRND
 40
0.0
  9
$DIMDLE
 40
0.0
  9
$DIMEXE
 40
2.0
  9
$DIMTP
 40
0.0
  9
$DIMTM
 40
0.0
  9
$DIMTXT
 40
3.0
  9
$DIMCEN
 40
0.09
  9
$DIMTSZ
 40
0.0
  9
$DIMTOL
 70
     0
  9
$DIMLIM
 70
     0
  9
$DIMTIH
 70
     0
  9
$DIMTOH
 70
     0
  9
$DIMSE1
 70
     0
  9
$DIMSE2
 70
     0
  9
$DIMTAD
 70
     1
  9
$DIMZIN
 70
     0
  9
$DIMBLK
  1

  9
$DIMASO
 70
     0
  9
$DIMSHO
 70
     0
  9
$DIMPOST
  1

  9
$DIMAPOST
  1

  9
$DIMALT
 70
     0
  9
$DIMALTD
 70
     2
  9
$DIMALTF
 40
25.399999999999999
  9
$DIMLFAC
 40
1.0
  9
$DIMTOFL
 70
     0
  9
$DIMTVP
 40
0.0
  9
$DIMTIX
 70
     0
  9
$DIMSOXD
 70
     0
  9
$DIMSAH
 70
     0
  9
$DIMBLK1
  1

  9
$DIMBLK2
  1

  9
$DIMSTYLE
  2
STANDARD
  9
$DIMCLRD
 70
     0
  9
$DIMCLRE
 70
     0
  9
$DIMCLRT
 70
     0
  9
$DIMTFAC
 40
1.0
  9
$DIMGAP
 40
0.09
  9
$LUNITS
 70
     2
  9
$LUPREC
 70
     4
  9
$SKETCHINC
 40
0.1
  9
$FILLETRAD
 40
0.0
  9
$AUNITS
 70
     0
  9
$AUPREC
 70
     0
  9
$MENU
  1
E:\r13\win\SUPPORT\ACAD
  9
$ELEVATION
 40
0.0
  9
$PELEVATION
 40
0.0
  9
$THICKNESS
 40
0.0
  9
$LIMCHECK
 70
     0
  9
$BLIPMODE
 70
     0
  9
$CHAMFERA
 40
0.0
  9
$CHAMFERB
 40
0.0
  9
$SKPOLY
 70
     0
  9
$TDCREATE
 40
2447995.5443865741
  9
$TDUPDATE
 40
2456597.714764317
  9
$TDINDWG
 40
0.1942505093
  9
$TDUSRTIMER
 40
0.1942505093
  9
$USRTIMER
 70
     1
  9
$ANGBASE
 50
0.0
  9
$ANGDIR
 70
     0
  9
$PDMODE
 70
     0
  9
$PDSIZE
 40
0.0
  9
$PLINEWID
 40
0.0
  9
$COORDS
 70
     1
  9
$SPLFRAME
 70
     0
  9
$SPLINETYPE
 70
     6
  9
$SPLINESEGS
 70
     8
  9
$ATTDIA
 70
     0
  9
$ATTREQ
 70
     1
  9
$HANDLING
 70
     1
  9
$HANDSEED
  5
1088
  9
$SURFTAB1
 70
     6
  9
$SURFTAB2
 70
     6
  9
$SURFTYPE
 70
     6
  9
$SURFU
 70
     6
  9
$SURFV
 70
     6
  9
$UCSNAME
  2

  9
$UCSORG
 10
0.0
 20
0.0
 30
0.0
  9
$UCSXDIR
 10
1.0
 20
0.0
 30
0.0
  9
$UCSYDIR
 10
0.0
 20
1.0
 30
0.0
  9
$PUCSNAME
  2

  9
$PUCSORG
 10
0.0
 20
0.0
 30
0.0
  9
$PUCSXDIR
 10
1.0
 20
0.0
 30
0.0
  9
$PUCSYDIR
 10
0.0
 20
1.0
 30
0.0
  9
$USERI1
 70
     3
  9
$USERI2
 70
     1
  9
$USERI3
 70
     0
  9
$USERI4
 70
     0
  9
$USERI5
 70
     0
  9
$USERR1
 40
2.0
  9
$USERR2
 40
3.0
  9
$USERR3
 40
3.0
  9
$USERR4
 40
3.0
  9
$USERR5
 40
10.0
  9
$WORLDVIEW
 70
     1
  9
$SHADEDGE
 70
     3
  9
$SHADEDIF
 70
    70
  9
$TILEMODE
 70
     1
  9
$MAXACTVP
 70
    16
  9
$PLIMCHECK
 70
     0
  9
$PEXTMIN
 10
1.0000000000000000E+020
 20
1.0000000000000000E+020
 30
1.0000000000000000E+020
  9
$PEXTMAX
 10
-1.0000000000000000E+020
 20
-1.0000000000000000E+020
 30
-1.0000000000000000E+020
  9
$PLIMMIN
 10
0.0
 20
0.0
  9
$PLIMMAX
 10
12.0
 20
9.0
  9
$UNITMODE
 70
     0
  9
$VISRETAIN
 70
     0
  9
$PLINEGEN
 70
     1
  9
$PSLTSCALE
 70
     0
  0
ENDSEC
  0
SECTION
  2
TABLES
  0
TABLE
  2
VPORT
 70
     1
  0
VPORT
  2
*ACTIVE
 70
     0
 10
0.0
 20
0.0
 11
1.0
 21
1.0
 12
400.03371830366132
 22
268.50860658393782
 13
0.0
 23
0.0
 14
10.0
 24
10.0
 15
10.0
 25
10.0
 16
0.0
 26
0.0
 36
1.0
 17
0.0
 27
0.0
 37
0.0
 40
547.85258761088789
 41
1.831871345029239
 42
50.0
 43
0.0
 44
0.0
 50
0.0
 51
0.0
 71
     0
 72
   100
 73
     1
 74
     0
 75
     0
 76
     0
 77
     0
 78
     0
  0
ENDTAB
  0
TABLE
  2
LTYPE
 70
     3
  0
LTYPE
  2
CONTINUOUS
 70
     0
  3
Solid Line
 72
    65
 73
     0
 40
0.0
  0
LTYPE
  2
CENTER
 70
     0
  3
____ _ ____ _ ____ _ ____ _ ____ _ ____ _ ____
 72
    65
 73
     4
 40
2.0
 49
1.25
 49
-0.25
 49
0.25
 49
-0.25
  0
LTYPE
  2
PHANTOM2
 70
     0
  3
___ _ _ ___ _ _ ___ _ _ ___ _ _
 72
    65
 73
     6
 40
1.25
 49
0.625
 49
-0.125
 49
0.125
 49
-0.125
 49
0.125
 49
-0.125
  0
ENDTAB
  0
TABLE
  2
LAYER
 70
     3
  0
LAYER
  2
0
 70
     0
 62
     7
  6
CONTINUOUS
  0
LAYER
  2
3
 70
     0
 62
     3
  6
CONTINUOUS
  0
LAYER
  2
1
 70
     0
 62
     1
  6
CENTER
  0
ENDTAB
  0
TABLE
  2
STYLE
 70
     2
  0
STYLE
  2
STANDARD
 70
     0
 40
0.0
 41
1.0
 50
0.0
 71
     0
 42
0.2
  3
SIMPLEX
  4
BIGFONT
  0
STYLE
  2
STANDARD1
 70
     0
 40
0.0
 41
1.0
 50
0.0
 71
     0
 42
3.0
  3
txt
  4

  0
ENDTAB
  0
TABLE
  2
VIEW
 70
     0
  0
ENDTAB
  0
TABLE
  2
UCS
 70
     0
  0
ENDTAB
  0
TABLE
  2
APPID
 70
     3
  0
APPID
  2
ACAD
 70
     0
  0
APPID
  2
ACAD_MLEADERVER
 70
     0
  0
APPID
  2
ACAD_NAV_VCDISPLAY
 70
     0
  0
ENDTAB
  0
TABLE
  2
DIMSTYLE
 70
     1
  0
DIMSTYLE
  2
STANDARD
 70
     0
  3

  4

  5

  6

  7

 40
1.0
 41
0.18
 42
0.0625
 43
0.38
 44
0.18
 45
0.0
 46
0.0
 47
0.0
 48
0.0
140
0.18
141
0.09
142
0.0
143
25.399999999999999
144
1.0
145
0.0
146
1.0
147
0.09
 71
     0
 72
     0
 73
     1
 74
     1
 75
     0
 76
     0
 77
     0
 78
     0
170
     0
171
     2
172
     0
173
     0
174
     0
175
     0
176
     0
177
     0
178
     0
  0
ENDTAB
  0
ENDSEC
  0
SECTION
  2
BLOCKS
  0
BLOCK
  8
0
  2
$MODEL_SPACE
 70
     0
 10
0.0
 20
0.0
 30
0.0
  3
$MODEL_SPACE
  1

  0
ENDBLK
  5
9C6
  8
0
  0
BLOCK
 67
     1
  8
0
  2
$PAPER_SPACE
 70
     0
 10
0.0
 20
0.0
 30
0.0
  3
$PAPER_SPACE
  1

  0
ENDBLK
  5
9C4
 67
     1
  8
0
  0
ENDSEC
  0
SECTION
  2
ENTITIES
  0
CIRCLE
  5
EF0
  8
0
 10
43.005948332638241
 20
58.141416991587789
 30
0.0
 40
12.0
  0
LINE
  5
EF2
  8
1
 10
26.005948332638241
 20
58.141416991587789
 30
0.0
 11
60.005948332638241
 21
58.141416991587789
 31
0.0
  0
LINE
  5
EF3
  8
1
 10
43.005948332638241
 20
41.141416991587782
 30
0.0
 11
43.005948332638241
 21
75.141416991587789
 31
0.0
  0
LINE
  5
F04
  8
0
 10
110.2104495767536
 20
70.141416991587789
 30
0.0
 11
108.3699495767536
 21
68.300916991587798
 31
0.0
  0
LINE
  5
F05
  8
0
 10
108.3699495767536
 20
47.981916991587788
 30
0.0
 11
110.2104495767536
 21
46.141416991587782
 31
0.0
  0
LINE
  5
F06
  8
0
 10
143.36994957675361
 20
70.141416991587789
 30
0.0
 11
110.2104495767536
 21
70.141416991587789
 31
0.0
  0
LINE
  5
F07
  8
0
 10
110.2104495767536
 20
46.141416991587782
 30
0.0
 11
143.36994957675361
 21
46.141416991587782
 31
0.0
  0
LINE
  5
F0E
  8
0
 10
421.52944957675351
 20
70.141416991587789
 30
0.0
 11
223.36994957675361
 21
70.141416991587789
 31
0.0
  0
LINE
  5
F0F
  8
0
 10
223.36994957675361
 20
46.141416991587782
 30
0.0
 11
421.52944957675351
 21
46.141416991587782
 31
0.0
  0
LINE
  5
F10
  8
0
 10
423.36994957675358
 20
68.300916991587798
 30
0.0
 11
421.52944957675351
 21
70.141416991587789
 31
0.0
  0
LINE
  5
F11
  8
0
 10
421.52944957675351
 20
46.141416991587782
 30
0.0
 11
423.36994957675358
 21
47.981916991587788
 31
0.0
  0
LINE
  5
F12
  8
0
 10
108.3699495767536
 20
68.300916991587798
 30
0.0
 11
108.3699495767536
 21
47.981916991587788
 31
0.0
  0
LINE
  5
F13
  8
0
 10
110.2104495767536
 20
70.141416991587789
 30
0.0
 11
110.2104495767536
 21
46.141416991587782
 31
0.0
  0
LINE
  5
F14
  8
0
 10
143.36994957675361
 20
70.141416991587789
 30
0.0
 11
143.36994957675361
 21
46.141416991587782
 31
0.0
  0
LINE
  5
F17
  8
0
 10
223.36994957675361
 20
70.141416991587789
 30
0.0
 11
223.36994957675361
 21
46.141416991587782
 31
0.0
  0
LINE
  5
F18
  8
0
 10
421.52944957675351
 20
70.141416991587789
 30
0.0
 11
421.52944957675351
 21
46.141416991587782
 31
0.0
  0
LINE
  5
F19
  8
0
 10
423.36994957675358
 20
68.300916991587798
 30
0.0
 11
423.36994957675358
 21
47.981916991587788
 31
0.0
  0
LINE
  5
F1A
  8
3
 10
108.3699495767536
 20
68.300916991587798
 30
0.0
 11
143.36994957675361
 21
68.300916991587798
 31
0.0
  0
LINE
  5
F1C
  8
3
 10
423.36994957675358
 20
68.300916991587798
 30
0.0
 11
223.36994957675361
 21
68.300916991587798
 31
0.0
  0
LINE
  5
F1E
  8
3
 10
108.3699495767536
 20
47.981916991587788
 30
0.0
 11
143.36994957675361
 21
47.981916991587788
 31
0.0
  0
LINE
  5
F20
  8
3
 10
423.36994957675358
 20
47.981916991587788
 30
0.0
 11
223.36994957675361
 21
47.981916991587788
 31
0.0
  0
LINE
  5
F22
  8
1
 10
103.3699495767535
 20
58.141416991587789
 30
0.0
 11
428.36994957675353
 21
58.141416991587789
 31
0.0
  0
CIRCLE
  5
F33
  8
3
 10
43.005948332638241
 20
58.141416991587789
 30
0.0
 40
10.15950000000001
  0
LINE
  5
F56
  8
0
 10
143.36994957675361
 20
69.141416991587789
 30
0.0
 11
223.36994957675361
 21
69.141416991587789
 31
0.0
  0
LINE
  5
F57
  8
0
 10
143.36994957675361
 20
47.141416991587789
 30
0.0
 11
223.36994957675361
 21
47.141416991587789
 31
0.0
  0
TEXT
  5
FFA
  8
0
 62
     3
 10
0.0
 20
0.0
 30
0.0
 40
10.0
  1
BJ745-24315
  7
STANDARD1
  0
ENDSEC
  0
EOF
