  0
SECTION
  2
HEADER
  9
$ACADVER
  1
AC1009
  9
$INSBASE
 10
0.0
 20
0.0
 30
0.0
  9
$EXTMIN
 10
0.0
 20
-1.4802182810368341
 30
-6.563586119273439
  9
$EXTMAX
 10
58.243519781718973
 20
53.509242501473381
 30
0.0
  9
$LIMMIN
 10
0.0
 20
0.0
  9
$LIMMAX
 10
192.5
 20
135.0
  9
$ORTHOMODE
 70
     1
  9
$REGENMODE
 70
     1
  9
$FILLMODE
 70
     1
  9
$QTEXTMODE
 70
     0
  9
$MIRRTEXT
 70
     0
  9
$DRAGMODE
 70
     2
  9
$LTSCALE
 40
5.0
  9
$OSMODE
 70
  3071
  9
$ATTMODE
 70
     1
  9
$TEXTSIZE
 40
1.6000000000000489
  9
$TRACEWID
 40
0.05
  9
$TEXTSTYLE
  7
STANDARD
  9
$CLAYER
  8
0
  9
$CELTYPE
  6
BYLAYER
  9
$CECOLOR
 62
   256
  9
$DIMSCALE
 40
0.5
  9
$DIMASZ
 40
3.0
  9
$DIMEXO
 40
2.0
  9
$DIMDLI
 40
0.38
  9
$DIMRND
 40
0.0
  9
$DIMDLE
 40
0.0
  9
$DIMEXE
 40
2.0
  9
$DIMTP
 40
0.0
  9
$DIMTM
 40
0.0
  9
$DIMTXT
 40
3.0
  9
$DIMCEN
 40
0.0
  9
$DIMTSZ
 40
0.0
  9
$DIMTOL
 70
     0
  9
$DIMLIM
 70
     0
  9
$DIMTIH
 70
     0
  9
$DIMTOH
 70
     0
  9
$DIMSE1
 70
     0
  9
$DIMSE2
 70
     0
  9
$DIMTAD
 70
     1
  9
$DIMZIN
 70
     0
  9
$DIMBLK
  1

  9
$DIMASO
 70
     0
  9
$DIMSHO
 70
     0
  9
$DIMPOST
  1

  9
$DIMAPOST
  1

  9
$DIMALT
 70
     0
  9
$DIMALTD
 70
     2
  9
$DIMALTF
 40
25.399999999999999
  9
$DIMLFAC
 40
1.0
  9
$DIMTOFL
 70
     1
  9
$DIMTVP
 40
1.6000000000000001
  9
$DIMTIX
 70
     1
  9
$DIMSOXD
 70
     0
  9
$DIMSAH
 70
     0
  9
$DIMBLK1
  1

  9
$DIMBLK2
  1

  9
$DIMSTYLE
  2
STANDARD
  9
$DIMCLRD
 70
     0
  9
$DIMCLRE
 70
     0
  9
$DIMCLRT
 70
     0
  9
$DIMTFAC
 40
1.0
  9
$DIMGAP
 40
0.09
  9
$LUNITS
 70
     2
  9
$LUPREC
 70
     4
  9
$SKETCHINC
 40
0.1
  9
$FILLETRAD
 40
0.3
  9
$AUNITS
 70
     0
  9
$AUPREC
 70
     4
  9
$MENU
  1
E:\r13\win\SUPPORT\ACAD
  9
$ELEVATION
 40
0.0
  9
$PELEVATION
 40
0.0
  9
$THICKNESS
 40
0.0
  9
$LIMCHECK
 70
     0
  9
$BLIPMODE
 70
     0
  9
$CHAMFERA
 40
0.2
  9
$CHAMFERB
 40
0.2
  9
$SKPOLY
 70
     0
  9
$TDCREATE
 40
2448328.489641204
  9
$TDUPDATE
 40
2456597.7116164472
  9
$TDINDWG
 40
0.6092664931
  9
$TDUSRTIMER
 40
0.6092664931
  9
$USRTIMER
 70
     1
  9
$ANGBASE
 50
0.0
  9
$ANGDIR
 70
     0
  9
$PDMODE
 70
    35
  9
$PDSIZE
 40
0.0
  9
$PLINEWID
 40
0.0
  9
$COORDS
 70
     1
  9
$SPLFRAME
 70
     0
  9
$SPLINETYPE
 70
     6
  9
$SPLINESEGS
 70
     8
  9
$ATTDIA
 70
     0
  9
$ATTREQ
 70
     1
  9
$HANDLING
 70
     1
  9
$HANDSEED
  5
E6F
  9
$SURFTAB1
 70
     6
  9
$SURFTAB2
 70
     6
  9
$SURFTYPE
 70
     6
  9
$SURFU
 70
     6
  9
$SURFV
 70
     6
  9
$UCSNAME
  2

  9
$UCSORG
 10
0.0
 20
0.0
 30
0.0
  9
$UCSXDIR
 10
1.0
 20
0.0
 30
0.0
  9
$UCSYDIR
 10
0.0
 20
1.0
 30
0.0
  9
$PUCSNAME
  2

  9
$PUCSORG
 10
0.0
 20
0.0
 30
0.0
  9
$PUCSXDIR
 10
1.0
 20
0.0
 30
0.0
  9
$PUCSYDIR
 10
0.0
 20
1.0
 30
0.0
  9
$USERI1
 70
     3
  9
$USERI2
 70
     1
  9
$USERI3
 70
     1
  9
$USERI4
 70
     0
  9
$USERI5
 70
     0
  9
$USERR1
 40
0.5
  9
$USERR2
 40
3.0
  9
$USERR3
 40
3.0
  9
$USERR4
 40
3.0
  9
$USERR5
 40
10.0
  9
$WORLDVIEW
 70
     1
  9
$SHADEDGE
 70
     3
  9
$SHADEDIF
 70
    70
  9
$TILEMODE
 70
     1
  9
$MAXACTVP
 70
    16
  9
$PLIMCHECK
 70
     0
  9
$PEXTMIN
 10
1.0000000000000000E+020
 20
1.0000000000000000E+020
 30
1.0000000000000000E+020
  9
$PEXTMAX
 10
-1.0000000000000000E+020
 20
-1.0000000000000000E+020
 30
-1.0000000000000000E+020
  9
$PLIMMIN
 10
0.0
 20
0.0
  9
$PLIMMAX
 10
12.0
 20
9.0
  9
$UNITMODE
 70
     0
  9
$VISRETAIN
 70
     0
  9
$PLINEGEN
 70
     1
  9
$PSLTSCALE
 70
     0
  0
ENDSEC
  0
SECTION
  2
TABLES
  0
TABLE
  2
VPORT
 70
     1
  0
VPORT
  2
*ACTIVE
 70
     0
 10
0.0
 20
0.0
 11
1.0
 21
1.0
 12
100.028977877919
 22
66.75636307133405
 13
0.0
 23
0.0
 14
2.5
 24
2.5
 15
5.0
 25
5.0
 16
0.0
 26
0.0
 36
1.0
 17
0.0
 27
0.0
 37
0.0
 40
137.71137496815999
 41
1.831871345029239
 42
50.0
 43
0.0
 44
0.0
 50
0.0
 51
0.0
 71
     0
 72
   500
 73
     1
 74
     0
 75
     0
 76
     0
 77
     0
 78
     2
  0
ENDTAB
  0
TABLE
  2
LTYPE
 70
     4
  0
LTYPE
  2
CONTINUOUS
 70
     0
  3
Solid Line
 72
    65
 73
     0
 40
0.0
  0
LTYPE
  2
CENTER
 70
     0
  3
____ _ ____ _ ____ _ ____ _ ____ _ ____ _ ____
 72
    65
 73
     4
 40
2.0
 49
1.25
 49
-0.25
 49
0.25
 49
-0.25
  0
LTYPE
  2
HIDDEN
 70
     0
  3
_ _ _ _ _ _ _ _ _ _ _ _ _ _ _ _ _ _ _ _ _ _ _
 72
    65
 73
     2
 40
0.375
 49
0.25
 49
-0.125
  0
LTYPE
  2
PHANTOM2
 70
     0
  3
___ _ _ ___ _ _ ___ _ _ ___ _ _
 72
    65
 73
     6
 40
1.25
 49
0.625
 49
-0.125
 49
0.125
 49
-0.125
 49
0.125
 49
-0.125
  0
ENDTAB
  0
TABLE
  2
LAYER
 70
     3
  0
LAYER
  2
0
 70
     0
 62
     7
  6
CONTINUOUS
  0
LAYER
  2
1
 70
     0
 62
     1
  6
CENTER
  0
LAYER
  2
2
 70
     0
 62
     2
  6
HIDDEN
  0
ENDTAB
  0
TABLE
  2
STYLE
 70
     2
  0
STYLE
  2
STANDARD
 70
     0
 40
0.0
 41
1.0
 50
0.0
 71
     0
 42
1.6000000000000489
  3
SIMPLEX
  4
BIGFONT
  0
STYLE
  2
STANDARD1
 70
     0
 40
0.0
 41
1.0
 50
0.0
 71
     0
 42
3.0
  3
txt
  4

  0
ENDTAB
  0
TABLE
  2
VIEW
 70
     1
  0
VIEW
  2
ALL
 70
     0
 40
87.5
 10
71.617647058823522
 20
43.75
 41
0.0
 11
0.0
 21
0.0
 31
1.0
 12
0.0
 22
0.0
 32
0.0
 42
0.0
 43
0.0
 44
0.0
 50
0.0
 71
     0
  0
ENDTAB
  0
TABLE
  2
UCS
 70
     0
  0
ENDTAB
  0
TABLE
  2
APPID
 70
     3
  0
APPID
  2
ACAD
 70
     0
  0
APPID
  2
ACAD_MLEADERVER
 70
     0
  0
APPID
  2
ACAD_NAV_VCDISPLAY
 70
     0
  0
ENDTAB
  0
TABLE
  2
DIMSTYLE
 70
     1
  0
DIMSTYLE
  2
STANDARD
 70
     0
  3

  4

  5

  6

  7

 40
1.0
 41
0.18
 42
0.0625
 43
0.38
 44
0.18
 45
0.0
 46
0.0
 47
0.0
 48
0.0
140
0.18
141
0.09
142
0.0
143
25.399999999999999
144
1.0
145
0.0
146
1.0
147
0.09
 71
     0
 72
     0
 73
     1
 74
     1
 75
     0
 76
     0
 77
     0
 78
     0
170
     0
171
     2
172
     0
173
     0
174
     0
175
     0
176
     0
177
     0
178
     0
  0
ENDTAB
  0
ENDSEC
  0
SECTION
  2
BLOCKS
  0
BLOCK
  8
0
  2
$MODEL_SPACE
 70
     0
 10
0.0
 20
0.0
 30
0.0
  3
$MODEL_SPACE
  1

  0
ENDBLK
  5
BAB
  8
0
  0
BLOCK
 67
     1
  8
0
  2
$PAPER_SPACE
 70
     0
 10
0.0
 20
0.0
 30
0.0
  3
$PAPER_SPACE
  1

  0
ENDBLK
  5
BA9
 67
     1
  8
0
  0
ENDSEC
  0
SECTION
  2
ENTITIES
  0
LINE
  5
C8C
  8
2
 10
22.058145807621742
 20
15.23432406638195
 30
0.0
 11
13.658145807621761
 21
15.23432406638195
 31
0.0
  0
LINE
  5
C8D
  8
0
  6
CONTINUOUS
 62
     0
 10
26.15814580762175
 20
15.73432406638195
 30
0.0
 11
9.5581458076217523
 21
15.73432406638195
 31
0.0
  0
LINE
  5
C8E
  8
0
  6
CONTINUOUS
 62
     0
 10
26.35814580762176
 20
15.13432406638197
 30
0.0
 11
9.3581458076217512
 21
15.13432406638197
 31
0.0
  0
LINE
  5
C8F
  8
2
 10
22.488145807621748
 20
12.53432406638195
 30
0.0
 11
13.228145807621759
 21
12.53432406638195
 31
0.0
  0
LINE
  5
C90
  8
2
 10
22.058145807621742
 20
15.23432406638195
 30
0.0
 11
22.558145807621742
 21
15.73432406638195
 31
0.0
  0
LINE
  5
C91
  8
2
 10
13.158145807621761
 20
15.73432406638195
 30
0.0
 11
13.658145807621761
 21
15.23432406638195
 31
0.0
  0
LINE
  5
C92
  8
2
 10
22.058145807621742
 20
12.53432406638195
 30
0.0
 11
22.058145807621742
 21
15.23432406638195
 31
0.0
  0
LINE
  5
C93
  8
2
 10
13.658145807621761
 20
15.23432406638195
 30
0.0
 11
13.658145807621761
 21
12.53432406638195
 31
0.0
  0
LINE
  5
C94
  8
0
  6
CONTINUOUS
 62
     0
 10
26.35814580762176
 20
15.13432406638197
 30
0.0
 11
26.358145807621749
 21
15.53432406638195
 31
0.0
  0
LINE
  5
C95
  8
0
  6
CONTINUOUS
 62
     0
 10
9.3581458076217512
 20
15.534324066381959
 30
0.0
 11
9.3581458076217512
 21
15.13432406638197
 31
0.0
  0
ARC
  5
C96
  8
2
 10
22.126333787456328
 20
29.903703948534599
 30
0.0
 40
19.594065191484521
 50
233.10145323790411
 51
242.43188536536309
  0
ARC
  5
C97
  8
0
  6
CONTINUOUS
 62
     0
 10
17.858632518820482
 20
23.605349615482009
 30
0.0
 40
12.0000000000006
 50
308.6552857507113
 51
315.09617995840881
  0
POINT
  5
CA4
  8
1
 10
17.858145807621739
 20
42.509242501473373
 30
-4.1289744410300333
210
0.0
220
-1.0
230
0.0000000000000001
  0
LINE
  5
CA5
  8
1
 10
17.858145807621739
 20
31.509242501473381
 30
0.0
 11
17.858145807621739
 21
53.509242501473381
 31
0.0
  0
LINE
  5
CA6
  8
1
 10
6.8581458076217379
 20
42.509242501473373
 30
0.0
 11
28.85814580762176
 21
42.509242501473373
 31
0.0
  0
CIRCLE
  5
CA7
  8
0
  6
CONTINUOUS
 62
     0
 10
17.858145807621739
 20
42.509242501473373
 30
0.0
 40
4.1999999999999957
  0
CIRCLE
  5
CA9
  8
0
  6
CONTINUOUS
 62
     0
 10
17.858145807621739
 20
42.509242501473373
 30
0.0
 40
8.5
  0
LINE
  5
CBC
  8
1
 10
17.858145807621749
 20
18.519824066381961
 30
0.0
 11
17.858145807621749
 21
8.2343322258965372
 31
0.0
  0
LINE
  5
CBD
  8
0
  6
CONTINUOUS
 62
     0
 10
9.5581458076217523
 20
14.234332225896541
 30
0.0
 11
10.36205818094589
 21
14.23433222589653
 31
0.0
  0
LINE
  5
CBE
  8
0
  6
CONTINUOUS
 62
     0
 10
9.5581458076217505
 20
10.73433222589653
 30
0.0
 11
26.158145807621761
 21
10.73433222589653
 31
0.0
  0
LINE
  5
CBF
  8
2
 10
13.05814580762174
 20
12.53432406638195
 30
0.0
 11
22.658145807621761
 21
12.53432406638195
 31
0.0
  0
LINE
  5
CC0
  8
0
  6
CONTINUOUS
 62
     0
 10
9.3581458076217512
 20
14.03433222589654
 30
0.0
 11
9.3581458076217512
 21
10.934332225896529
 31
0.0
  0
LINE
  5
CC1
  8
0
  6
CONTINUOUS
 62
     0
 10
26.35814580762176
 20
10.934332225896529
 30
0.0
 11
26.35814580762176
 21
14.03433222589654
 31
0.0
  0
LINE
  5
CC2
  8
2
 10
10.362058180945921
 20
14.234332225896511
 30
0.0
 11
13.05814580762174
 21
12.53432406638195
 31
0.0
  0
LINE
  5
CC3
  8
2
 10
22.658145807621771
 20
12.534324066382011
 30
0.0
 11
25.354233434297711
 21
14.234332225896621
 31
0.0
  0
LINE
  5
CC4
  8
2
 10
13.05814580762174
 20
12.53432406638195
 30
0.0
 11
13.05814580762174
 21
10.73433222589653
 31
0.0
  0
LINE
  5
CC5
  8
2
 10
22.658145807621761
 20
10.73433222589653
 30
0.0
 11
22.658145807621771
 21
12.534324066382011
 31
0.0
  0
LINE
  5
CD8
  8
0
  6
CONTINUOUS
 62
     0
 10
25.354233434297711
 20
14.234332225896621
 30
0.0
 11
26.15814580762175
 21
14.23433222589653
 31
0.0
  0
CIRCLE
  5
CE0
  8
2
 10
17.858145807621749
 20
42.509242501473373
 30
0.0
 40
4.8000000000000114
  0
ARC
  5
CE6
  8
0
  6
CONTINUOUS
 62
     0
 10
17.857659096422719
 20
23.605349615481749
 30
0.0
 40
12.00000000000022
 50
224.9038200415917
 51
231.34471424928901
  0
LINE
  5
CE7
  8
0
 10
10.36205818094589
 20
14.23433222589653
 30
0.0
 11
25.354233434297711
 21
14.234332225896621
 31
0.0
  0
ARC
  5
CE8
  8
2
 10
13.58995782779078
 20
29.90370394852933
 30
0.0
 40
19.594065191478141
 50
297.56811463463481
 51
306.8985467620966
  0
LINE
  5
D11
  8
0
  6
CONTINUOUS
 62
     0
 10
9.5581458076217523
 20
15.73432406638195
 30
0.0
 11
9.3581458076217512
 21
15.534324066381959
 31
0.0
  0
LINE
  5
D12
  8
0
  6
CONTINUOUS
 62
     0
 10
26.15814580762175
 20
15.73432406638195
 30
0.0
 11
26.358145807621749
 21
15.53432406638195
 31
0.0
  0
LINE
  5
D13
  8
0
  6
CONTINUOUS
 62
     0
 10
26.15814580762175
 20
14.23433222589653
 30
0.0
 11
26.35814580762176
 21
14.03433222589654
 31
0.0
  0
LINE
  5
D14
  8
0
  6
CONTINUOUS
 62
     0
 10
26.35814580762176
 20
10.934332225896529
 30
0.0
 11
26.158145807621761
 21
10.73433222589653
 31
0.0
  0
LINE
  5
D15
  8
0
  6
CONTINUOUS
 62
     0
 10
9.5581458076217523
 20
14.234332225896541
 30
0.0
 11
9.3581458076217512
 21
14.03433222589654
 31
0.0
  0
LINE
  5
D16
  8
0
  6
CONTINUOUS
 62
     0
 10
9.3581458076217512
 20
10.934332225896529
 30
0.0
 11
9.5581458076217505
 21
10.73433222589653
 31
0.0
  0
TEXT
  5
DDF
  8
0
 62
     3
 10
0.0
 20
0.0
 30
0.0
 40
5.0
  1
BJ742-08201-SUS
  7
STANDARD1
  0
ENDSEC
  0
EOF
