  0
SECTION
  2
HEADER
  9
$ACADVER
  1
AC1009
  9
$INSBASE
 10
0.0
 20
0.0
 30
0.0
  9
$EXTMIN
 10
0.0
 20
-1.4802182810368341
 30
0.0
  9
$EXTMAX
 10
96.551688201597813
 20
96.40434742873019
 30
0.0
  9
$LIMMIN
 10
0.0
 20
0.0
  9
$LIMMAX
 10
192.5
 20
135.0
  9
$ORTHOMODE
 70
     1
  9
$REGENMODE
 70
     1
  9
$FILLMODE
 70
     1
  9
$QTEXTMODE
 70
     0
  9
$MIRRTEXT
 70
     0
  9
$DRAGMODE
 70
     2
  9
$LTSCALE
 40
5.0
  9
$OSMODE
 70
  3071
  9
$ATTMODE
 70
     1
  9
$TEXTSIZE
 40
1.6000000000000489
  9
$TRACEWID
 40
0.05
  9
$TEXTSTYLE
  7
STANDARD
  9
$CLAYER
  8
0
  9
$CELTYPE
  6
BYLAYER
  9
$CECOLOR
 62
   256
  9
$DIMSCALE
 40
0.5
  9
$DIMASZ
 40
3.0
  9
$DIMEXO
 40
2.0
  9
$DIMDLI
 40
0.38
  9
$DIMRND
 40
0.0
  9
$DIMDLE
 40
0.0
  9
$DIMEXE
 40
2.0
  9
$DIMTP
 40
0.0
  9
$DIMTM
 40
0.0
  9
$DIMTXT
 40
3.0
  9
$DIMCEN
 40
0.0
  9
$DIMTSZ
 40
0.0
  9
$DIMTOL
 70
     0
  9
$DIMLIM
 70
     0
  9
$DIMTIH
 70
     0
  9
$DIMTOH
 70
     0
  9
$DIMSE1
 70
     0
  9
$DIMSE2
 70
     0
  9
$DIMTAD
 70
     1
  9
$DIMZIN
 70
     0
  9
$DIMBLK
  1

  9
$DIMASO
 70
     0
  9
$DIMSHO
 70
     0
  9
$DIMPOST
  1

  9
$DIMAPOST
  1

  9
$DIMALT
 70
     0
  9
$DIMALTD
 70
     2
  9
$DIMALTF
 40
25.399999999999999
  9
$DIMLFAC
 40
1.0
  9
$DIMTOFL
 70
     1
  9
$DIMTVP
 40
1.6000000000000001
  9
$DIMTIX
 70
     1
  9
$DIMSOXD
 70
     0
  9
$DIMSAH
 70
     0
  9
$DIMBLK1
  1

  9
$DIMBLK2
  1

  9
$DIMSTYLE
  2
STANDARD
  9
$DIMCLRD
 70
     0
  9
$DIMCLRE
 70
     0
  9
$DIMCLRT
 70
     0
  9
$DIMTFAC
 40
1.0
  9
$DIMGAP
 40
0.09
  9
$LUNITS
 70
     2
  9
$LUPREC
 70
     4
  9
$SKETCHINC
 40
0.1
  9
$FILLETRAD
 40
0.3
  9
$AUNITS
 70
     0
  9
$AUPREC
 70
     4
  9
$MENU
  1
E:\r13\win\SUPPORT\ACAD
  9
$ELEVATION
 40
0.0
  9
$PELEVATION
 40
0.0
  9
$THICKNESS
 40
0.0
  9
$LIMCHECK
 70
     0
  9
$BLIPMODE
 70
     0
  9
$CHAMFERA
 40
0.0
  9
$CHAMFERB
 40
0.0
  9
$SKPOLY
 70
     0
  9
$TDCREATE
 40
2448328.489641204
  9
$TDUPDATE
 40
2456597.7115124422
  9
$TDINDWG
 40
0.5702800347
  9
$TDUSRTIMER
 40
0.5702800347
  9
$USRTIMER
 70
     1
  9
$ANGBASE
 50
0.0
  9
$ANGDIR
 70
     0
  9
$PDMODE
 70
    35
  9
$PDSIZE
 40
0.0
  9
$PLINEWID
 40
0.0
  9
$COORDS
 70
     1
  9
$SPLFRAME
 70
     0
  9
$SPLINETYPE
 70
     6
  9
$SPLINESEGS
 70
     8
  9
$ATTDIA
 70
     0
  9
$ATTREQ
 70
     1
  9
$HANDLING
 70
     1
  9
$HANDSEED
  5
DC0
  9
$SURFTAB1
 70
     6
  9
$SURFTAB2
 70
     6
  9
$SURFTYPE
 70
     6
  9
$SURFU
 70
     6
  9
$SURFV
 70
     6
  9
$UCSNAME
  2

  9
$UCSORG
 10
0.0
 20
0.0
 30
0.0
  9
$UCSXDIR
 10
1.0
 20
0.0
 30
0.0
  9
$UCSYDIR
 10
0.0
 20
1.0
 30
0.0
  9
$PUCSNAME
  2

  9
$PUCSORG
 10
0.0
 20
0.0
 30
0.0
  9
$PUCSXDIR
 10
1.0
 20
0.0
 30
0.0
  9
$PUCSYDIR
 10
0.0
 20
1.0
 30
0.0
  9
$USERI1
 70
     3
  9
$USERI2
 70
     1
  9
$USERI3
 70
     1
  9
$USERI4
 70
     0
  9
$USERI5
 70
     0
  9
$USERR1
 40
0.5
  9
$USERR2
 40
3.0
  9
$USERR3
 40
3.0
  9
$USERR4
 40
3.0
  9
$USERR5
 40
10.0
  9
$WORLDVIEW
 70
     1
  9
$SHADEDGE
 70
     3
  9
$SHADEDIF
 70
    70
  9
$TILEMODE
 70
     1
  9
$MAXACTVP
 70
    16
  9
$PLIMCHECK
 70
     0
  9
$PEXTMIN
 10
1.0000000000000000E+020
 20
1.0000000000000000E+020
 30
1.0000000000000000E+020
  9
$PEXTMAX
 10
-1.0000000000000000E+020
 20
-1.0000000000000000E+020
 30
-1.0000000000000000E+020
  9
$PLIMMIN
 10
0.0
 20
0.0
  9
$PLIMMAX
 10
12.0
 20
9.0
  9
$UNITMODE
 70
     0
  9
$VISRETAIN
 70
     0
  9
$PLINEGEN
 70
     1
  9
$PSLTSCALE
 70
     0
  0
ENDSEC
  0
SECTION
  2
TABLES
  0
TABLE
  2
VPORT
 70
     1
  0
VPORT
  2
*ACTIVE
 70
     0
 10
0.0
 20
0.0
 11
1.0
 21
1.0
 12
100.028977877919
 22
66.75636307133405
 13
0.0
 23
0.0
 14
2.5
 24
2.5
 15
5.0
 25
5.0
 16
0.0
 26
0.0
 36
1.0
 17
0.0
 27
0.0
 37
0.0
 40
137.71137496815999
 41
1.831871345029239
 42
50.0
 43
0.0
 44
0.0
 50
0.0
 51
0.0
 71
     0
 72
   500
 73
     1
 74
     0
 75
     0
 76
     0
 77
     0
 78
     2
  0
ENDTAB
  0
TABLE
  2
LTYPE
 70
     4
  0
LTYPE
  2
CONTINUOUS
 70
     0
  3
Solid Line
 72
    65
 73
     0
 40
0.0
  0
LTYPE
  2
CENTER
 70
     0
  3
____ _ ____ _ ____ _ ____ _ ____ _ ____ _ ____
 72
    65
 73
     4
 40
2.0
 49
1.25
 49
-0.25
 49
0.25
 49
-0.25
  0
LTYPE
  2
HIDDEN
 70
     0
  3
_ _ _ _ _ _ _ _ _ _ _ _ _ _ _ _ _ _ _ _ _ _ _
 72
    65
 73
     2
 40
0.375
 49
0.25
 49
-0.125
  0
LTYPE
  2
PHANTOM2
 70
     0
  3
___ _ _ ___ _ _ ___ _ _ ___ _ _
 72
    65
 73
     6
 40
1.25
 49
0.625
 49
-0.125
 49
0.125
 49
-0.125
 49
0.125
 49
-0.125
  0
ENDTAB
  0
TABLE
  2
LAYER
 70
     5
  0
LAYER
  2
0
 70
     0
 62
     7
  6
CONTINUOUS
  0
LAYER
  2
1
 70
     0
 62
     1
  6
CENTER
  0
LAYER
  2
11
 70
     0
 62
     3
  6
CONTINUOUS
  0
LAYER
  2
2
 70
     0
 62
     2
  6
HIDDEN
  0
LAYER
  2
WAKU
 70
     0
 62
     7
  6
CONTINUOUS
  0
ENDTAB
  0
TABLE
  2
STYLE
 70
     2
  0
STYLE
  2
STANDARD
 70
     0
 40
0.0
 41
1.0
 50
0.0
 71
     0
 42
1.6000000000000489
  3
SIMPLEX
  4
BIGFONT
  0
STYLE
  2
STANDARD1
 70
     0
 40
0.0
 41
1.0
 50
0.0
 71
     0
 42
3.0
  3
txt
  4

  0
ENDTAB
  0
TABLE
  2
VIEW
 70
     1
  0
VIEW
  2
ALL
 70
     0
 40
87.5
 10
71.617647058823522
 20
43.75
 41
0.0
 11
0.0
 21
0.0
 31
1.0
 12
0.0
 22
0.0
 32
0.0
 42
0.0
 43
0.0
 44
0.0
 50
0.0
 71
     0
  0
ENDTAB
  0
TABLE
  2
UCS
 70
     0
  0
ENDTAB
  0
TABLE
  2
APPID
 70
     4
  0
APPID
  2
ACAD
 70
     0
  0
APPID
  2
ACAD_MLEADERVER
 70
     0
  0
APPID
  2
ACAD_NAV_VCDISPLAY
 70
     0
  0
APPID
  2
ACAD_EXEMPT_FROM_CAD_STANDARDS
 70
     0
  0
ENDTAB
  0
TABLE
  2
DIMSTYLE
 70
     1
  0
DIMSTYLE
  2
STANDARD
 70
     0
  3

  4

  5

  6

  7

 40
1.0
 41
0.18
 42
0.0625
 43
0.38
 44
0.18
 45
0.0
 46
0.0
 47
0.0
 48
0.0
140
0.18
141
0.09
142
0.0
143
25.399999999999999
144
1.0
145
0.0
146
1.0
147
0.09
 71
     0
 72
     0
 73
     1
 74
     1
 75
     0
 76
     0
 77
     0
 78
     0
170
     0
171
     2
172
     0
173
     0
174
     0
175
     0
176
     0
177
     0
178
     0
  0
ENDTAB
  0
ENDSEC
  0
SECTION
  2
BLOCKS
  0
BLOCK
  8
0
  2
$MODEL_SPACE
 70
     0
 10
0.0
 20
0.0
 30
0.0
  3
$MODEL_SPACE
  1

  0
ENDBLK
  5
BAB
  8
0
  0
BLOCK
 67
     1
  8
0
  2
$PAPER_SPACE
 70
     0
 10
0.0
 20
0.0
 30
0.0
  3
$PAPER_SPACE
  1

  0
ENDBLK
  5
BA9
 67
     1
  8
0
  0
BLOCK
  8
11
  2
STDGX5
 70
     0
 10
0.0
 20
0.0
 30
0.0
  3
STDGX5
  1

  0
ENDBLK
  5
230
  8
11
  0
BLOCK
  8
0
  2
ARROW1
 70
     0
 10
0.0
 20
0.0
 30
0.0
  3
ARROW1
  1

  0
SOLID
  5
C6E
  8
WAKU
  6
CONTINUOUS
 62
     4
 10
-1.0
 20
0.1666666666666714
 30
0.0
 11
-1.0
 21
-0.1666666666666714
 31
0.0
 12
0.0
 22
0.0
 32
0.0
 13
0.0
 23
0.0
 33
0.0
  0
ENDBLK
  5
C6F
  8
0
  0
ENDSEC
  0
SECTION
  2
ENTITIES
  0
INSERT
  5
254
  8
11
  2
STDGX5
 10
155.0
 20
0.0
 30
0.0
 41
0.5
 42
0.5
 43
0.5
  0
LINE
  5
9DD
  8
2
 10
84.351688201597753
 20
63.120264920038323
 30
0.0
 11
90.751688201597773
 21
63.120264920038323
 31
0.0
  0
LINE
  5
9DE
  8
2
 10
90.751688201597759
 20
61.220264920038318
 30
0.0
 11
84.351688201597753
 21
61.220264920038318
 31
0.0
  0
LINE
  5
9DF
  8
2
 10
91.05168820159777
 20
59.459925573092619
 30
0.0
 11
84.051688201597756
 21
59.459925573092619
 31
0.0
  0
LINE
  5
9E0
  8
0
 10
81.351688201597739
 20
63.420264920038328
 30
0.0
 11
93.751688201597759
 21
63.420264920038328
 31
0.0
1001
ACAD
1000
ASC_BOUNDS
1002
{
1070
    19
1002
}
  0
LINE
  5
9E1
  8
0
 10
91.321699916540481
 20
60.920264920038328
 30
0.0
 11
83.781676486654561
 21
60.920264920038328
 31
0.0
1001
ACAD
1000
ASC_BOUNDS
1002
{
1070
    19
1002
}
  0
LINE
  5
9E2
  8
0
 10
91.05168820159777
 20
60.749999987427152
 30
0.0
 11
84.051688201597756
 21
60.749999987427152
 31
0.0
  0
LINE
  5
9E3
  8
0
 10
93.751688201597759
 20
59.159925573092607
 30
0.0
 11
81.351688201597739
 21
59.159925573092629
 31
0.0
  0
LINE
  5
9FE
  8
1
 10
87.55168820159777
 20
65.920264920038335
 30
0.0
 11
87.551688201597742
 21
56.659925573092629
 31
0.0
  0
LINE
  5
A01
  8
2
 10
84.051688201597756
 20
59.459925573092619
 30
0.0
 11
83.751688201597744
 21
59.159925573092629
 31
0.0
  0
LINE
  5
A02
  8
2
 10
84.351688201597753
 20
61.220264920038318
 30
0.0
 11
84.051688201597784
 21
60.920264920038328
 31
0.0
1001
ACAD
1000
ASC_BOUNDS
1002
{
1070
    19
1002
}
  0
LINE
  5
A03
  8
2
 10
84.351688201597753
 20
63.120264920038323
 30
0.0
 11
84.051688201597784
 21
63.420264920038328
 31
0.0
1001
ACAD
1000
ASC_BOUNDS
1002
{
1070
    19
1002
}
  0
LINE
  5
A04
  8
0
 10
81.551688201597756
 20
61.659925573092629
 30
0.0
 11
84.051688201597699
 21
60.749999987427152
 31
0.0
  0
ARC
  5
A05
  8
0
 10
87.55168820159777
 20
75.438770754634106
 30
0.0
 40
15.0
 50
244.32071138054289
 51
255.4435277568557
1001
ACAD
1000
ASC_BOUNDS
1002
{
1070
    19
1002
}
  0
LINE
  5
A06
  8
0
 10
81.351688201597739
 20
63.420264920038328
 30
0.0
 11
81.051688201597756
 21
63.120264920038323
 31
0.0
1001
ACAD
1000
ASC_BOUNDS
1002
{
1070
    19
1002
}
  0
LINE
  5
A07
  8
0
 10
81.051688201597756
 20
61.920264920038328
 30
0.0
 11
81.051688201597756
 21
63.120264920038323
 31
0.0
1001
ACAD
1000
ASC_BOUNDS
1002
{
1070
    19
1002
}
  0
LINE
  5
A08
  8
0
 10
81.051688201597756
 20
59.459925573092619
 30
0.0
 11
81.051688201597756
 21
61.359925573092653
 31
0.0
  0
LINE
  5
A09
  8
0
 10
81.051688201597756
 20
61.359925573092653
 30
0.0
 11
81.351688201597739
 21
61.659925573092657
 31
0.0
  0
LINE
  5
A0A
  8
0
 10
81.351688201597739
 20
61.659925573092657
 30
0.0
 11
81.623499147332097
 21
61.659925573092629
 31
0.0
  0
LINE
  5
A0B
  8
0
 10
81.351688201597739
 20
59.159925573092629
 30
0.0
 11
81.051688201597756
 21
59.459925573092619
 31
0.0
  0
LINE
  5
A0C
  8
2
 10
84.351688201597753
 20
63.120264920038323
 30
0.0
 11
84.351688201597753
 21
61.220264920038318
 31
0.0
1001
ACAD
1000
ASC_BOUNDS
1002
{
1070
    19
1002
}
  0
LINE
  5
A0D
  8
2
 10
84.051688201597713
 20
60.749999987427167
 30
0.0
 11
84.051688201597756
 21
59.459925573092619
 31
0.0
  0
ARC
  5
A27
  8
0
 10
87.55168820159777
 20
75.438770754634106
 30
0.0
 40
15.0
 50
284.5564722431443
 51
295.67928861945711
1001
ACAD
1000
ASC_BOUNDS
1002
{
1070
    19
1002
}
  0
LINE
  5
A28
  8
2
 10
90.751688201597759
 20
63.120264920038323
 30
0.0
 11
90.751688201597759
 21
61.220264920038318
 31
0.0
1001
ACAD
1000
ASC_BOUNDS
1002
{
1070
    19
1002
}
  0
LINE
  5
A2A
  8
2
 10
91.051688201597727
 20
63.420264920038328
 30
0.0
 11
90.751688201597759
 21
63.120264920038323
 31
0.0
1001
ACAD
1000
ASC_BOUNDS
1002
{
1070
    19
1002
}
  0
LINE
  5
A2B
  8
0
 10
93.751688201597759
 20
63.420264920038328
 30
0.0
 11
94.051688201597784
 21
63.120264920038323
 31
0.0
1001
ACAD
1000
ASC_BOUNDS
1002
{
1070
    19
1002
}
  0
LINE
  5
A2C
  8
0
 10
94.051688201597784
 20
63.120264920038323
 30
0.0
 11
94.051688201597784
 21
61.920264920038328
 31
0.0
1001
ACAD
1000
ASC_BOUNDS
1002
{
1070
    19
1002
}
  0
LINE
  5
A2D
  8
0
 10
93.551688201597727
 20
61.659925573092629
 30
0.0
 11
91.051688201597827
 21
60.749999987427152
 31
0.0
  0
LINE
  5
A2E
  8
2
 10
91.05168820159777
 20
60.749999987427167
 30
0.0
 11
91.051688201597727
 21
59.459925573092619
 31
0.0
  0
LINE
  5
A2F
  8
2
 10
91.051688201597727
 20
60.920264920038328
 30
0.0
 11
90.751688201597759
 21
61.220264920038318
 31
0.0
1001
ACAD
1000
ASC_BOUNDS
1002
{
1070
    19
1002
}
  0
LINE
  5
A30
  8
2
 10
91.051688201597727
 20
59.459925573092619
 30
0.0
 11
91.351688201597739
 21
59.159925573092607
 31
0.0
  0
LINE
  5
A31
  8
0
 10
94.051688201597784
 20
61.359925573092617
 30
0.0
 11
94.051688201597784
 21
59.459925573092619
 31
0.0
  0
LINE
  5
A32
  8
0
 10
94.051688201597784
 20
61.359925573092617
 30
0.0
 11
93.751688201597759
 21
61.659925573092607
 31
0.0
  0
LINE
  5
A33
  8
0
 10
93.479877255863286
 20
61.659925573092607
 30
0.0
 11
93.751688201597759
 21
61.659925573092607
 31
0.0
  0
LINE
  5
A34
  8
0
 10
94.051688201597784
 20
59.459925573092619
 30
0.0
 11
93.751688201597759
 21
59.159925573092607
 31
0.0
  0
CIRCLE
  5
AB4
  8
0
 10
87.551688201597784
 20
87.404347428730148
 30
0.0
 40
6.5000000000000284
  0
LINE
  5
AB5
  8
1
 10
96.551688201597813
 20
87.404347428730148
 30
0.0
 11
78.551688201597756
 21
87.404347428730148
 31
0.0
  0
LINE
  5
AB6
  8
1
 10
87.551688201597784
 20
96.40434742873019
 30
0.0
 11
87.551688201597784
 21
78.404347428730119
 31
0.0
  0
CIRCLE
  5
AB8
  8
2
 10
87.551688201597784
 20
87.404347428730148
 30
0.0
 40
3.5000000000002411
  0
CIRCLE
  5
CC3
  8
0
 10
87.551688201597784
 20
87.404347428730148
 30
0.0
 40
3.2000000000000308
  0
TEXT
  5
D66
  8
0
 62
     3
 10
0.0
 20
0.0
 30
0.0
 40
5.0
  1
BJ742-06001
  7
STANDARD1
  0
ENDSEC
  0
EOF
