  0
SECTION
  2
HEADER
  9
$ACADVER
  1
AC1009
  9
$INSBASE
 10
0.0
 20
0.0
 30
0.0
  9
$EXTMIN
 10
0.0
 20
-1.4802182810368341
 30
0.0
  9
$EXTMAX
 10
271.0
 20
199.0
 30
0.0
  9
$LIMMIN
 10
0.0
 20
0.0
  9
$LIMMAX
 10
375.0
 20
270.0
  9
$ORTHOMODE
 70
     0
  9
$REGENMODE
 70
     1
  9
$FILLMODE
 70
     1
  9
$QTEXTMODE
 70
     0
  9
$MIRRTEXT
 70
     0
  9
$DRAGMODE
 70
     2
  9
$LTSCALE
 40
10.0
  9
$OSMODE
 70
  3071
  9
$ATTMODE
 70
     1
  9
$TEXTSIZE
 40
0.2
  9
$TRACEWID
 40
0.05
  9
$TEXTSTYLE
  7
STANDARD
  9
$CLAYER
  8
0
  9
$CELTYPE
  6
BYLAYER
  9
$CECOLOR
 62
   256
  9
$DIMSCALE
 40
1.0
  9
$DIMASZ
 40
3.0
  9
$DIMEXO
 40
2.0
  9
$DIMDLI
 40
0.38
  9
$DIMRND
 40
0.0
  9
$DIMDLE
 40
0.0
  9
$DIMEXE
 40
2.0
  9
$DIMTP
 40
0.0
  9
$DIMTM
 40
0.0
  9
$DIMTXT
 40
3.0
  9
$DIMCEN
 40
0.0
  9
$DIMTSZ
 40
0.0
  9
$DIMTOL
 70
     0
  9
$DIMLIM
 70
     0
  9
$DIMTIH
 70
     0
  9
$DIMTOH
 70
     0
  9
$DIMSE1
 70
     0
  9
$DIMSE2
 70
     0
  9
$DIMTAD
 70
     1
  9
$DIMZIN
 70
     0
  9
$DIMBLK
  1

  9
$DIMASO
 70
     0
  9
$DIMSHO
 70
     0
  9
$DIMPOST
  1

  9
$DIMAPOST
  1

  9
$DIMALT
 70
     0
  9
$DIMALTD
 70
     2
  9
$DIMALTF
 40
25.399999999999999
  9
$DIMLFAC
 40
1.0
  9
$DIMTOFL
 70
     1
  9
$DIMTVP
 40
1.6000000000000001
  9
$DIMTIX
 70
     1
  9
$DIMSOXD
 70
     0
  9
$DIMSAH
 70
     0
  9
$DIMBLK1
  1

  9
$DIMBLK2
  1

  9
$DIMSTYLE
  2
STANDARD
  9
$DIMCLRD
 70
     0
  9
$DIMCLRE
 70
     0
  9
$DIMCLRT
 70
     0
  9
$DIMTFAC
 40
1.0
  9
$DIMGAP
 40
0.09
  9
$LUNITS
 70
     2
  9
$LUPREC
 70
     4
  9
$SKETCHINC
 40
0.1
  9
$FILLETRAD
 40
0.0
  9
$AUNITS
 70
     0
  9
$AUPREC
 70
     4
  9
$MENU
  1
E:\r13\win\SUPPORT\ACAD
  9
$ELEVATION
 40
0.0
  9
$PELEVATION
 40
0.0
  9
$THICKNESS
 40
0.0
  9
$LIMCHECK
 70
     0
  9
$BLIPMODE
 70
     0
  9
$CHAMFERA
 40
0.0
  9
$CHAMFERB
 40
0.0
  9
$SKPOLY
 70
     0
  9
$TDCREATE
 40
2449840.353356482
  9
$TDUPDATE
 40
2456597.7029752778
  9
$TDINDWG
 40
0.0002203356
  9
$TDUSRTIMER
 40
0.0002203356
  9
$USRTIMER
 70
     1
  9
$ANGBASE
 50
0.0
  9
$ANGDIR
 70
     0
  9
$PDMODE
 70
     0
  9
$PDSIZE
 40
0.0
  9
$PLINEWID
 40
0.0
  9
$COORDS
 70
     1
  9
$SPLFRAME
 70
     0
  9
$SPLINETYPE
 70
     6
  9
$SPLINESEGS
 70
     8
  9
$ATTDIA
 70
     0
  9
$ATTREQ
 70
     1
  9
$HANDLING
 70
     1
  9
$HANDSEED
  5
245
  9
$SURFTAB1
 70
     6
  9
$SURFTAB2
 70
     6
  9
$SURFTYPE
 70
     6
  9
$SURFU
 70
     6
  9
$SURFV
 70
     6
  9
$UCSNAME
  2

  9
$UCSORG
 10
0.0
 20
0.0
 30
0.0
  9
$UCSXDIR
 10
1.0
 20
0.0
 30
0.0
  9
$UCSYDIR
 10
0.0
 20
1.0
 30
0.0
  9
$PUCSNAME
  2

  9
$PUCSORG
 10
0.0
 20
0.0
 30
0.0
  9
$PUCSXDIR
 10
1.0
 20
0.0
 30
0.0
  9
$PUCSYDIR
 10
0.0
 20
1.0
 30
0.0
  9
$USERI1
 70
     3
  9
$USERI2
 70
     1
  9
$USERI3
 70
     0
  9
$USERI4
 70
     0
  9
$USERI5
 70
     0
  9
$USERR1
 40
1.0
  9
$USERR2
 40
3.0
  9
$USERR3
 40
3.0
  9
$USERR4
 40
3.0
  9
$USERR5
 40
10.0
  9
$WORLDVIEW
 70
     1
  9
$SHADEDGE
 70
     3
  9
$SHADEDIF
 70
    70
  9
$TILEMODE
 70
     1
  9
$MAXACTVP
 70
    16
  9
$PLIMCHECK
 70
     0
  9
$PEXTMIN
 10
1.0000000000000000E+020
 20
1.0000000000000000E+020
 30
1.0000000000000000E+020
  9
$PEXTMAX
 10
-1.0000000000000000E+020
 20
-1.0000000000000000E+020
 30
-1.0000000000000000E+020
  9
$PLIMMIN
 10
0.0
 20
0.0
  9
$PLIMMAX
 10
12.0
 20
9.0
  9
$UNITMODE
 70
     0
  9
$VISRETAIN
 70
     0
  9
$PLINEGEN
 70
     0
  9
$PSLTSCALE
 70
     0
  0
ENDSEC
  0
SECTION
  2
TABLES
  0
TABLE
  2
VPORT
 70
     1
  0
VPORT
  2
*ACTIVE
 70
     0
 10
0.0
 20
0.0
 11
1.0
 21
1.0
 12
195.01701172807989
 22
134.25430329196891
 13
0.0
 23
0.0
 14
5.0
 24
5.0
 15
10.0
 25
10.0
 16
0.0
 26
0.0
 36
1.0
 17
0.0
 27
0.0
 37
0.0
 40
273.92629380544389
 41
1.831871345029239
 42
50.0
 43
0.0
 44
0.0
 50
0.0
 51
0.0
 71
     0
 72
   100
 73
     1
 74
     0
 75
     0
 76
     0
 77
     0
 78
     2
  0
ENDTAB
  0
TABLE
  2
LTYPE
 70
     4
  0
LTYPE
  2
CONTINUOUS
 70
     0
  3
Solid Line
 72
    65
 73
     0
 40
0.0
  0
LTYPE
  2
CENTER
 70
     0
  3
____ _ ____ _ ____ _ ____ _ ____ _ ____ _ ____
 72
    65
 73
     4
 40
2.0
 49
1.25
 49
-0.25
 49
0.25
 49
-0.25
  0
LTYPE
  2
HIDDEN
 70
     0
  3
__ __ __ __ __ __ __ __ __ __ __ __ __ __ __ __
 72
    65
 73
     2
 40
0.375
 49
0.25
 49
-0.125
  0
LTYPE
  2
PHANTOM2
 70
     0
  3
___ _ _ ___ _ _ ___ _ _ ___ _ _
 72
    65
 73
     6
 40
1.25
 49
0.625
 49
-0.125
 49
0.125
 49
-0.125
 49
0.125
 49
-0.125
  0
ENDTAB
  0
TABLE
  2
LAYER
 70
     4
  0
LAYER
  2
0
 70
     0
 62
     7
  6
CONTINUOUS
  0
LAYER
  2
1
 70
     0
 62
     1
  6
CENTER
  0
LAYER
  2
2
 70
     0
 62
     2
  6
HIDDEN
  0
LAYER
  2
3
 70
     0
 62
     3
  6
CONTINUOUS
  0
ENDTAB
  0
TABLE
  2
STYLE
 70
     2
  0
STYLE
  2
STANDARD
 70
     0
 40
0.0
 41
1.0
 50
0.0
 71
     0
 42
0.2
  3
TXT
  4
BIGFONT
  0
STYLE
  2
STANDARD1
 70
     0
 40
0.0
 41
1.0
 50
0.0
 71
     0
 42
3.0
  3
txt
  4

  0
ENDTAB
  0
TABLE
  2
VIEW
 70
     0
  0
ENDTAB
  0
TABLE
  2
UCS
 70
     0
  0
ENDTAB
  0
TABLE
  2
APPID
 70
     3
  0
APPID
  2
ACAD
 70
     0
  0
APPID
  2
ACAD_MLEADERVER
 70
     0
  0
APPID
  2
ACAD_NAV_VCDISPLAY
 70
     0
  0
ENDTAB
  0
TABLE
  2
DIMSTYLE
 70
     1
  0
DIMSTYLE
  2
STANDARD
 70
     0
  3

  4

  5

  6

  7

 40
1.0
 41
0.18
 42
0.0625
 43
0.38
 44
0.18
 45
0.0
 46
0.0
 47
0.0
 48
0.0
140
0.18
141
0.09
142
0.0
143
25.399999999999999
144
1.0
145
0.0
146
1.0
147
0.09
 71
     0
 72
     0
 73
     1
 74
     1
 75
     0
 76
     0
 77
     0
 78
     0
170
     0
171
     2
172
     0
173
     0
174
     0
175
     0
176
     0
177
     0
178
     0
  0
ENDTAB
  0
ENDSEC
  0
SECTION
  2
BLOCKS
  0
BLOCK
  8
0
  2
$MODEL_SPACE
 70
     0
 10
0.0
 20
0.0
 30
0.0
  3
$MODEL_SPACE
  1

  0
ENDBLK
  5
FD
  8
0
  0
BLOCK
 67
     1
  8
0
  2
$PAPER_SPACE
 70
     0
 10
0.0
 20
0.0
 30
0.0
  3
$PAPER_SPACE
  1

  0
ENDBLK
  5
FB
 67
     1
  8
0
  0
BLOCK
  8
0
  2
B741318B
 70
     0
 10
0.0
 20
0.0
 30
0.0
  3
B741318B
  1

  0
ARC
  5
39
  8
0
 10
10.199999999999999
 20
18.626518999999998
 30
0.0
 40
5.3734809999999991
 50
69.252336
 51
129.25233600000001
  0
LINE
  5
3A
  8
0
 10
6.7999999999999989
 20
22.787564
 30
0.0
 11
6.7999999999999989
 21
6.0
 31
0.0
  0
ARC
  5
3B
  8
0
 10
0.0
 20
4.3247279999999986
 30
0.0
 40
19.675272
 50
69.780873
 51
90.000007999999994
  0
LINE
  5
3C
  8
1
 10
0.0
 20
34.0
 30
0.0
 11
0.0
 21
-10.0
 31
0.0
  0
LINE
  5
3D
  8
0
 10
15.5
 20
6.0
 30
0.0
 11
-15.5
 21
6.0
 31
0.0
  0
LINE
  5
3E
  8
0
 10
-15.5
 20
6.0
 30
0.0
 11
-16.0
 21
5.5
 31
0.0
  0
LINE
  5
3F
  8
0
 10
-16.0
 20
5.5
 30
0.0
 11
-16.0
 21
2.6000000000000001
 31
0.0
  0
LINE
  5
40
  8
0
 10
-13.6
 20
22.787564
 30
0.0
 11
-13.6
 21
6.4000000000000004
 31
0.0
  0
ARC
  5
41
  8
0
 10
-14.0
 20
6.4000000000000004
 30
0.0
 40
0.4
 50
270.0
 51
0.0
  0
ARC
  5
42
  8
0
 10
0.0
 20
4.3247279999999986
 30
0.0
 40
19.675272
 50
89.999992000000006
 51
110.219127
  0
LINE
  5
43
  8
0
 10
15.5
 20
6.0
 30
0.0
 11
16.0
 21
5.5
 31
0.0
  0
ARC
  5
44
  8
0
 10
14.0
 20
6.4000000000000004
 30
0.0
 40
0.4
 50
180.0
 51
270.0
  0
LINE
  5
45
  8
0
 10
9.3472150000000003
 20
0.0
 30
0.0
 11
-9.3472150000000003
 21
0.0
 31
0.0
  0
LINE
  5
46
  8
0
 10
16.0
 20
5.5
 30
0.0
 11
16.0
 21
2.6000000000000001
 31
0.0
  0
LINE
  5
47
  8
0
 10
13.6
 20
22.787564
 30
0.0
 11
13.6
 21
6.4000000000000004
 31
0.0
  0
LINE
  5
48
  8
0
 10
-11.5
 20
24.0
 30
0.0
 11
11.5
 21
24.0
 31
0.0
  0
LINE
  5
49
  8
0
 10
-6.7999999999999989
 20
22.787564
 30
0.0
 11
-6.7999999999999989
 21
6.0
 31
0.0
  0
LINE
  5
4A
  8
0
 10
13.6
 20
22.787564
 30
0.0
 11
11.5
 21
24.0
 31
0.0
  0
ARC
  5
4B
  8
0
 10
-10.199999999999999
 20
18.626518999999998
 30
0.0
 40
5.3734809999999991
 50
50.747664
 51
110.747664
  0
LINE
  5
4C
  8
0
 10
-13.6
 20
22.787564
 30
0.0
 11
-11.5
 21
24.0
 31
0.0
  0
LINE
  5
4D
  8
0
 10
16.0
 20
2.6000000000000001
 30
0.0
 11
-16.0
 21
2.6000000000000001
 31
0.0
  0
ARC
  5
4E
  8
0
 10
0.0
 20
33.728765000000003
 30
0.0
 40
35.0
 50
242.79710600000001
 51
254.510411
  0
ARC
  5
4F
  8
0
 10
0.0
 20
33.728765000000003
 30
0.0
 40
35.0
 50
285.48958900000002
 51
297.20289400000001
  0
ENDBLK
  5
50
  8
0
  0
BLOCK
  8
0
  2
B741318C
 70
     0
 10
0.0
 20
0.0
 30
0.0
  3
B741318C
  1

  0
LINE
  5
52
  8
1
 10
0.0
 20
30.0
 30
0.0
 11
0.0
 21
-5.0
 31
0.0
  0
LINE
  5
53
  8
0
 10
9.3472150000000003
 20
0.0
 30
0.0
 11
-9.3472150000000003
 21
0.0
 31
0.0
  0
ARC
  5
54
  8
0
 10
-12.4
 20
6.4000000000000004
 30
0.0
 40
0.4
 50
270.0
 51
0.0
  0
LINE
  5
55
  8
0
 10
0.0
 20
6.0
 30
0.0
 11
0.0
 21
22.639527999999999
 31
0.0
  0
LINE
  5
56
  8
0
 10
11.5
 20
24.0
 30
0.0
 11
-11.5
 21
24.0
 31
0.0
  0
LINE
  5
57
  8
0
 10
-12.0
 20
23.711324999999999
 30
0.0
 11
-11.5
 21
24.0
 31
0.0
  0
LINE
  5
58
  8
0
 10
-12.0
 20
6.4000000000000004
 30
0.0
 11
-12.0
 21
23.711324999999999
 31
0.0
  0
ARC
  5
59
  8
0
 10
-6.0
 20
6.3811980000000004
 30
0.0
 40
17.33012699999999
 50
69.743842000000001
 51
110.256158
  0
ARC
  5
5A
  8
0
 10
6.0
 20
6.3811980000000004
 30
0.0
 40
17.33012699999999
 50
69.743842000000001
 51
110.256158
  0
LINE
  5
5B
  8
0
 10
12.0
 20
23.711324999999999
 30
0.0
 11
11.5
 21
24.0
 31
0.0
  0
ARC
  5
5C
  8
0
 10
12.4
 20
6.4000000000000004
 30
0.0
 40
0.4
 50
180.0
 51
270.0
  0
LINE
  5
5D
  8
0
 10
12.0
 20
6.4000000000000004
 30
0.0
 11
12.0
 21
23.711324999999999
 31
0.0
  0
ARC
  5
5E
  8
0
 10
0.0
 20
33.728765000000003
 30
0.0
 40
35.0
 50
285.48958900000002
 51
297.20289400000001
  0
ARC
  5
5F
  8
0
 10
0.0
 20
33.728765000000003
 30
0.0
 40
35.0
 50
242.79710600000001
 51
254.510411
  0
LINE
  5
60
  8
0
 10
16.0
 20
2.6000000000000001
 30
0.0
 11
-16.0
 21
2.6000000000000001
 31
0.0
  0
LINE
  5
61
  8
0
 10
16.0
 20
5.5
 30
0.0
 11
16.0
 21
2.6000000000000001
 31
0.0
  0
LINE
  5
62
  8
0
 10
15.5
 20
6.0
 30
0.0
 11
16.0
 21
5.5
 31
0.0
  0
LINE
  5
63
  8
0
 10
-16.0
 20
5.5
 30
0.0
 11
-16.0
 21
2.6000000000000001
 31
0.0
  0
LINE
  5
64
  8
0
 10
-15.5
 20
6.0
 30
0.0
 11
-16.0
 21
5.5
 31
0.0
  0
LINE
  5
65
  8
0
 10
15.5
 20
6.0
 30
0.0
 11
-15.5
 21
6.0
 31
0.0
  0
ENDBLK
  5
66
  8
0
  0
BLOCK
  8
0
  2
742D01B2
 70
     0
 10
110.0
 20
85.0
 30
0.0
  3
742D01B2
  1

  0
LINE
  5
68
  8
0
 10
125.5
 20
85.0
 30
0.0
 11
94.500000000000014
 21
85.0
 31
0.0
  0
LINE
  5
69
  8
2
 10
100.5
 20
88.089156000000003
 30
0.0
 11
119.5
 21
88.089156000000003
 31
0.0
  0
LINE
  5
6A
  8
2
 10
100.5
 20
85.5
 30
0.0
 11
119.5
 21
85.5
 31
0.0
  0
LINE
  5
6B
  8
2
 10
100.5
 20
85.5
 30
0.0
 11
100.0
 21
85.0
 31
0.0
  0
LINE
  5
6C
  8
2
 10
100.5
 20
88.089156000000003
 30
0.0
 11
100.5
 21
85.5
 31
0.0
  0
LINE
  5
6D
  8
2
 10
95.25
 20
90.0
 30
0.0
 11
100.5
 21
88.089156000000003
 31
0.0
  0
LINE
  5
6E
  8
2
 10
119.5
 20
85.5
 30
0.0
 11
120.0
 21
85.0
 31
0.0
  0
LINE
  5
6F
  8
2
 10
119.5
 20
88.089156000000003
 30
0.0
 11
119.5
 21
85.5
 31
0.0
  0
LINE
  5
70
  8
2
 10
124.75
 20
90.0
 30
0.0
 11
119.5
 21
88.089156000000003
 31
0.0
  0
LINE
  5
71
  8
0
 10
94.0
 20
85.5
 30
0.0
 11
94.500000000000014
 21
85.0
 31
0.0
  0
LINE
  5
72
  8
0
 10
94.500000000000014
 20
90.0
 30
0.0
 11
94.0
 21
89.500000000000014
 31
0.0
  0
LINE
  5
73
  8
0
 10
126.0
 20
89.500000000000014
 30
0.0
 11
125.5
 21
90.0
 31
0.0
  0
LINE
  5
74
  8
0
 10
126.0
 20
85.5
 30
0.0
 11
125.5
 21
85.0
 31
0.0
  0
LINE
  5
75
  8
0
 10
94.0
 20
85.5
 30
0.0
 11
94.0
 21
89.500000000000014
 31
0.0
  0
LINE
  5
76
  8
0
 10
126.0
 20
89.500000000000014
 30
0.0
 11
126.0
 21
85.5
 31
0.0
  0
LINE
  5
77
  8
0
 10
94.500000000000014
 20
90.0
 30
0.0
 11
125.5
 21
90.0
 31
0.0
  0
LINE
  5
78
  8
1
 10
110.0
 20
95.0
 30
0.0
 11
110.0
 21
80.0
 31
0.0
  0
ENDBLK
  5
79
  8
0
  0
ENDSEC
  0
SECTION
  2
ENTITIES
  0
CIRCLE
  5
7A
  8
0
 10
165.0
 20
175.0
 30
0.0
 40
7.0
  0
CIRCLE
  5
7B
  8
3
 10
165.0
 20
175.0
 30
0.0
 40
8.0
  0
LINE
  5
7C
  8
0
 10
178.59230500000001
 20
174.542563
 30
0.0
 11
172.192305
 21
163.457437
 31
0.0
  0
ARC
  5
7D
  8
0
 10
165.0
 20
175.0
 30
0.0
 40
13.6
 50
358.07248700000002
 51
1.9275129999999989
  0
ARC
  5
7E
  8
0
 10
165.0
 20
175.0
 30
0.0
 40
13.6
 50
58.072487000000002
 51
61.927513000000012
  0
LINE
  5
7F
  8
0
 10
172.192305
 20
186.542563
 30
0.0
 11
178.59230500000001
 21
175.457437
 31
0.0
  0
ARC
  5
80
  8
0
 10
165.0
 20
175.0
 30
0.0
 40
13.6
 50
118.072487
 51
121.927513
  0
LINE
  5
81
  8
0
 10
158.59999999999999
 20
187.0
 30
0.0
 11
171.40000000000001
 21
187.0
 31
0.0
  0
ARC
  5
82
  8
0
 10
165.0
 20
175.0
 30
0.0
 40
13.6
 50
178.072487
 51
181.927513
  0
LINE
  5
83
  8
0
 10
151.40769499999999
 20
175.457437
 30
0.0
 11
157.807695
 21
186.542563
 31
0.0
  0
ARC
  5
84
  8
0
 10
165.0
 20
175.0
 30
0.0
 40
13.6
 50
238.072487
 51
241.927513
  0
LINE
  5
85
  8
0
 10
157.807695
 20
163.457437
 30
0.0
 11
151.40769499999999
 21
174.542563
 31
0.0
  0
ARC
  5
86
  8
0
 10
165.0
 20
175.0
 30
0.0
 40
13.6
 50
298.07248700000002
 51
301.92751299999998
  0
LINE
  5
87
  8
0
 10
171.40000000000001
 20
163.0
 30
0.0
 11
158.59999999999999
 21
163.0
 31
0.0
  0
CIRCLE
  5
88
  8
0
 10
165.0
 20
175.0
 30
0.0
 40
16.0
  0
CIRCLE
  5
89
  8
0
 10
165.0
 20
175.0
 30
0.0
 40
11.5
  0
LINE
  5
8A
  8
1
 10
141.0
 20
175.0
 30
0.0
 11
189.0
 21
175.0
 31
0.0
  0
LINE
  5
8B
  8
1
 10
165.0
 20
151.0
 30
0.0
 11
165.0
 21
199.0
 31
0.0
  0
INSERT
  5
95
  8
0
  2
742D01B2
 10
255.0
 20
90.0
 30
0.0
  0
INSERT
  5
96
  8
0
  2
B741318C
 10
255.0
 20
93.153462000000005
 30
0.0
  0
INSERT
  5
97
  8
0
  2
742D01B2
 10
165.0
 20
90.0
 30
0.0
  0
INSERT
  5
98
  8
0
  2
B741318B
 10
165.0
 20
93.153462000000005
 30
0.0
  0
TEXT
  5
1B6
  8
0
 62
     3
 10
0.0
 20
0.0
 30
0.0
 40
5.0
  1
BJ739-16001
  7
STANDARD1
  0
ENDSEC
  0
EOF
