  0
SECTION
  2
HEADER
  9
$ACADVER
  1
AC1009
  9
$INSBASE
 10
0.0
 20
0.0
 30
0.0
  9
$EXTMIN
 10
0.0
 20
-1.4802182810368341
 30
0.0
  9
$EXTMAX
 10
119.1119425741304
 20
103.0808664472633
 30
0.0
  9
$LIMMIN
 10
0.0
 20
0.0
  9
$LIMMAX
 10
192.5
 20
135.0
  9
$ORTHOMODE
 70
     1
  9
$REGENMODE
 70
     1
  9
$FILLMODE
 70
     1
  9
$QTEXTMODE
 70
     0
  9
$MIRRTEXT
 70
     0
  9
$DRAGMODE
 70
     2
  9
$LTSCALE
 40
5.0
  9
$OSMODE
 70
  3071
  9
$ATTMODE
 70
     1
  9
$TEXTSIZE
 40
2.0
  9
$TRACEWID
 40
0.05
  9
$TEXTSTYLE
  7
STANDARD
  9
$CLAYER
  8
0
  9
$CELTYPE
  6
BYLAYER
  9
$CECOLOR
 62
   256
  9
$DIMSCALE
 40
0.5
  9
$DIMASZ
 40
3.0
  9
$DIMEXO
 40
2.0
  9
$DIMDLI
 40
0.38
  9
$DIMRND
 40
0.0
  9
$DIMDLE
 40
0.0
  9
$DIMEXE
 40
2.0
  9
$DIMTP
 40
0.0
  9
$DIMTM
 40
0.0
  9
$DIMTXT
 40
3.0
  9
$DIMCEN
 40
0.0
  9
$DIMTSZ
 40
0.0
  9
$DIMTOL
 70
     0
  9
$DIMLIM
 70
     0
  9
$DIMTIH
 70
     0
  9
$DIMTOH
 70
     0
  9
$DIMSE1
 70
     0
  9
$DIMSE2
 70
     0
  9
$DIMTAD
 70
     1
  9
$DIMZIN
 70
     0
  9
$DIMBLK
  1

  9
$DIMASO
 70
     0
  9
$DIMSHO
 70
     0
  9
$DIMPOST
  1

  9
$DIMAPOST
  1

  9
$DIMALT
 70
     0
  9
$DIMALTD
 70
     2
  9
$DIMALTF
 40
25.399999999999999
  9
$DIMLFAC
 40
1.0
  9
$DIMTOFL
 70
     1
  9
$DIMTVP
 40
1.6000000000000001
  9
$DIMTIX
 70
     1
  9
$DIMSOXD
 70
     0
  9
$DIMSAH
 70
     0
  9
$DIMBLK1
  1

  9
$DIMBLK2
  1

  9
$DIMSTYLE
  2
STANDARD
  9
$DIMCLRD
 70
     0
  9
$DIMCLRE
 70
     0
  9
$DIMCLRT
 70
     0
  9
$DIMTFAC
 40
1.0
  9
$DIMGAP
 40
0.09
  9
$LUNITS
 70
     2
  9
$LUPREC
 70
     4
  9
$SKETCHINC
 40
0.1
  9
$FILLETRAD
 40
0.4
  9
$AUNITS
 70
     0
  9
$AUPREC
 70
     4
  9
$MENU
  1
E:\r13\win\SUPPORT\ACAD
  9
$ELEVATION
 40
0.0
  9
$PELEVATION
 40
0.0
  9
$THICKNESS
 40
0.0
  9
$LIMCHECK
 70
     0
  9
$BLIPMODE
 70
     0
  9
$CHAMFERA
 40
0.0
  9
$CHAMFERB
 40
0.0
  9
$SKPOLY
 70
     0
  9
$TDCREATE
 40
2448328.489641204
  9
$TDUPDATE
 40
2456597.702723912
  9
$TDINDWG
 40
0.6336817708
  9
$TDUSRTIMER
 40
0.6336817708
  9
$USRTIMER
 70
     1
  9
$ANGBASE
 50
0.0
  9
$ANGDIR
 70
     0
  9
$PDMODE
 70
    35
  9
$PDSIZE
 40
0.0
  9
$PLINEWID
 40
0.0
  9
$COORDS
 70
     1
  9
$SPLFRAME
 70
     0
  9
$SPLINETYPE
 70
     6
  9
$SPLINESEGS
 70
     8
  9
$ATTDIA
 70
     0
  9
$ATTREQ
 70
     1
  9
$HANDLING
 70
     1
  9
$HANDSEED
  5
CF1
  9
$SURFTAB1
 70
     6
  9
$SURFTAB2
 70
     6
  9
$SURFTYPE
 70
     6
  9
$SURFU
 70
     6
  9
$SURFV
 70
     6
  9
$UCSNAME
  2

  9
$UCSORG
 10
0.0
 20
0.0
 30
0.0
  9
$UCSXDIR
 10
1.0
 20
0.0
 30
0.0
  9
$UCSYDIR
 10
0.0
 20
1.0
 30
0.0
  9
$PUCSNAME
  2

  9
$PUCSORG
 10
0.0
 20
0.0
 30
0.0
  9
$PUCSXDIR
 10
1.0
 20
0.0
 30
0.0
  9
$PUCSYDIR
 10
0.0
 20
1.0
 30
0.0
  9
$USERI1
 70
     3
  9
$USERI2
 70
     1
  9
$USERI3
 70
     1
  9
$USERI4
 70
     0
  9
$USERI5
 70
     0
  9
$USERR1
 40
0.5
  9
$USERR2
 40
3.0
  9
$USERR3
 40
3.0
  9
$USERR4
 40
3.0
  9
$USERR5
 40
10.0
  9
$WORLDVIEW
 70
     1
  9
$SHADEDGE
 70
     3
  9
$SHADEDIF
 70
    70
  9
$TILEMODE
 70
     1
  9
$MAXACTVP
 70
    16
  9
$PLIMCHECK
 70
     0
  9
$PEXTMIN
 10
1.0000000000000000E+020
 20
1.0000000000000000E+020
 30
1.0000000000000000E+020
  9
$PEXTMAX
 10
-1.0000000000000000E+020
 20
-1.0000000000000000E+020
 30
-1.0000000000000000E+020
  9
$PLIMMIN
 10
0.0
 20
0.0
  9
$PLIMMAX
 10
12.0
 20
9.0
  9
$UNITMODE
 70
     0
  9
$VISRETAIN
 70
     0
  9
$PLINEGEN
 70
     1
  9
$PSLTSCALE
 70
     0
  0
ENDSEC
  0
SECTION
  2
TABLES
  0
TABLE
  2
VPORT
 70
     1
  0
VPORT
  2
*ACTIVE
 70
     0
 10
0.0
 20
0.0
 11
1.0
 21
1.0
 12
100.028977877919
 22
66.75636307133405
 13
0.0
 23
0.0
 14
2.5
 24
2.5
 15
5.0
 25
5.0
 16
0.0
 26
0.0
 36
1.0
 17
0.0
 27
0.0
 37
0.0
 40
137.71137496815999
 41
1.831871345029239
 42
50.0
 43
0.0
 44
0.0
 50
0.0
 51
0.0
 71
     0
 72
   500
 73
     1
 74
     0
 75
     0
 76
     0
 77
     0
 78
     2
  0
ENDTAB
  0
TABLE
  2
LTYPE
 70
     4
  0
LTYPE
  2
CONTINUOUS
 70
     0
  3
Solid Line
 72
    65
 73
     0
 40
0.0
  0
LTYPE
  2
CENTER
 70
     0
  3
____ _ ____ _ ____ _ ____ _ ____ _ ____ _ ____
 72
    65
 73
     4
 40
2.0
 49
1.25
 49
-0.25
 49
0.25
 49
-0.25
  0
LTYPE
  2
HIDDEN
 70
     0
  3
_ _ _ _ _ _ _ _ _ _ _ _ _ _ _ _ _ _ _ _ _ _ _
 72
    65
 73
     2
 40
0.375
 49
0.25
 49
-0.125
  0
LTYPE
  2
PHANTOM2
 70
     0
  3
___ _ _ ___ _ _ ___ _ _ ___ _ _
 72
    65
 73
     6
 40
1.25
 49
0.625
 49
-0.125
 49
0.125
 49
-0.125
 49
0.125
 49
-0.125
  0
ENDTAB
  0
TABLE
  2
LAYER
 70
     5
  0
LAYER
  2
0
 70
     0
 62
     7
  6
CONTINUOUS
  0
LAYER
  2
1
 70
     0
 62
     1
  6
CENTER
  0
LAYER
  2
3
 70
     0
 62
     3
  6
CONTINUOUS
  0
LAYER
  2
11
 70
     0
 62
     3
  6
CONTINUOUS
  0
LAYER
  2
2
 70
     0
 62
     2
  6
HIDDEN
  0
ENDTAB
  0
TABLE
  2
STYLE
 70
     2
  0
STYLE
  2
STANDARD
 70
     0
 40
0.0
 41
1.0
 50
0.0
 71
     0
 42
2.0
  3
simplex
  4
bigfont
  0
STYLE
  2
STANDARD1
 70
     0
 40
0.0
 41
1.0
 50
0.0
 71
     0
 42
3.0
  3
txt
  4

  0
ENDTAB
  0
TABLE
  2
VIEW
 70
     1
  0
VIEW
  2
ALL
 70
     0
 40
87.5
 10
71.617647058823522
 20
43.75
 41
0.0
 11
0.0
 21
0.0
 31
1.0
 12
0.0
 22
0.0
 32
0.0
 42
0.0
 43
0.0
 44
0.0
 50
0.0
 71
     0
  0
ENDTAB
  0
TABLE
  2
UCS
 70
     0
  0
ENDTAB
  0
TABLE
  2
APPID
 70
     3
  0
APPID
  2
ACAD
 70
     0
  0
APPID
  2
ACAD_MLEADERVER
 70
     0
  0
APPID
  2
ACAD_NAV_VCDISPLAY
 70
     0
  0
ENDTAB
  0
TABLE
  2
DIMSTYLE
 70
     1
  0
DIMSTYLE
  2
STANDARD
 70
     0
  3

  4

  5

  6

  7

 40
1.0
 41
0.18
 42
0.0625
 43
0.38
 44
0.18
 45
0.0
 46
0.0
 47
0.0
 48
0.0
140
0.18
141
0.09
142
0.0
143
25.399999999999999
144
1.0
145
0.0
146
1.0
147
0.09
 71
     0
 72
     0
 73
     1
 74
     1
 75
     0
 76
     0
 77
     0
 78
     0
170
     0
171
     2
172
     0
173
     0
174
     0
175
     0
176
     0
177
     0
178
     0
  0
ENDTAB
  0
ENDSEC
  0
SECTION
  2
BLOCKS
  0
BLOCK
  8
0
  2
$MODEL_SPACE
 70
     0
 10
0.0
 20
0.0
 30
0.0
  3
$MODEL_SPACE
  1

  0
ENDBLK
  5
BAA
  8
0
  0
BLOCK
 67
     1
  8
0
  2
$PAPER_SPACE
 70
     0
 10
0.0
 20
0.0
 30
0.0
  3
$PAPER_SPACE
  1

  0
ENDBLK
  5
BA8
 67
     1
  8
0
  0
BLOCK
  8
11
  2
STDGX5
 70
     0
 10
0.0
 20
0.0
 30
0.0
  3
STDGX5
  1

  0
ENDBLK
  5
230
  8
11
  0
ENDSEC
  0
SECTION
  2
ENTITIES
  0
INSERT
  5
254
  8
11
  2
STDGX5
 10
155.0
 20
0.0
 30
0.0
 41
0.5
 42
0.5
 43
0.5
  0
LINE
  5
7A7
  8
0
 10
111.9756556879916
 20
74.781649434452532
 30
0.0
 11
111.9756556879916
 21
74.808146742556289
 31
0.0
1001
ACAD
1000
ASC_BOUNDS
1002
{
1070
    19
1002
}
  0
ARC
  5
7BE
  8
0
 10
111.5756556879916
 20
62.43464405066004
 30
0.0
 40
0.4
 50
0.0
 51
89.999999999999005
  0
ARC
  5
7BF
  8
0
 10
111.5756556879916
 20
74.781649434452532
 30
0.0
 40
0.4
 50
270.00000000000068
 51
0.0
1001
ACAD
1000
ASC_BOUNDS
1002
{
1070
    19
1002
}
  0
LINE
  5
7C1
  8
0
 10
111.9756556879916
 20
62.408146742556312
 30
0.0
 11
112.2756556879916
 21
62.108146742556301
 31
0.0
  0
CIRCLE
  5
7C2
  8
0
 10
74.412489729729259
 20
68.608146742556272
 30
0.0
 40
6.2000000000000002
  0
LINE
  5
7C5
  8
0
 10
112.2756556879916
 20
75.108146742556301
 30
0.0
 11
111.9756556879916
 21
74.808146742556289
 31
0.0
1001
ACAD
1000
ASC_BOUNDS
1002
{
1070
    19
1002
}
  0
LINE
  5
7C6
  8
0
 10
112.2756556879916
 20
75.108146742556286
 30
0.0
 11
112.2756556879916
 21
62.108146742556272
 31
0.0
  0
LINE
  5
7C7
  8
0
 10
69.412489729729316
 20
71.49489808850447
 30
0.0
 11
69.412489729729145
 21
65.721395396608131
 31
0.0
  0
LINE
  5
7C8
  8
0
 10
69.412489729729145
 20
65.721395396608131
 30
0.0
 11
74.412489729729259
 21
62.834644050659982
 31
0.0
  0
LINE
  5
7C9
  8
0
 10
74.412489729729259
 20
62.834644050659982
 30
0.0
 11
79.412489729729259
 21
65.721395396608131
 31
0.0
  0
LINE
  5
7CA
  8
0
 10
79.412489729729259
 20
65.721395396608131
 30
0.0
 11
79.412489729729202
 21
71.494898088504357
 31
0.0
  0
LINE
  5
7CB
  8
0
 10
79.412489729729202
 20
71.494898088504357
 30
0.0
 11
74.412489729729259
 21
74.381649434452555
 31
0.0
  0
LINE
  5
7CC
  8
0
 10
74.412489729729259
 20
74.381649434452555
 30
0.0
 11
69.412489729729316
 21
71.49489808850447
 31
0.0
  0
CIRCLE
  5
7CD
  8
0
 10
74.412489729729259
 20
68.608146742556272
 30
0.0
 40
4.9000000000000004
  0
CIRCLE
  5
7CE
  8
3
 10
74.412489729729259
 20
68.608146742556272
 30
0.0
 40
3.0
  0
CIRCLE
  5
7CF
  8
0
 10
74.412489729729259
 20
68.608146742556272
 30
0.0
 40
2.458499999999999
  0
LINE
  5
7D1
  8
0
 10
105.4756556879916
 20
73.508146742555766
 30
0.0
 11
105.4756556879916
 21
63.70814674255687
 31
0.0
1001
ACAD
1000
ASC_BOUNDS
1002
{
1070
    19
1002
}
  0
LINE
  5
7D2
  8
0
 10
105.979972702296
 20
74.381649434452527
 30
0.0
 11
105.4756556879916
 21
73.508146742555766
 31
0.0
1001
ACAD
1000
ASC_BOUNDS
1002
{
1070
    19
1002
}
  0
LINE
  5
7D3
  8
0
 10
105.979972702296
 20
74.38164943445247
 30
0.0
 11
111.5756556879916
 21
74.381649434452527
 31
0.0
1001
ACAD
1000
ASC_BOUNDS
1002
{
1070
    19
1002
}
  0
LINE
  5
7D4
  8
0
 10
105.97997270230439
 20
65.721395396608131
 30
0.0
 11
111.9756556879916
 21
65.721395396608131
 31
0.0
  0
LINE
  5
7D5
  8
0
 10
105.979972702296
 20
62.83464405066016
 30
0.0
 11
111.5756556879916
 21
62.834644050660053
 31
0.0
  0
ARC
  5
7D6
  8
0
 10
115.0868087274699
 20
68.608146742568039
 30
0.0
 40
9.5534180125581827
 50
162.41204622597201
 51
197.5879537741755
  0
ARC
  5
7D7
  8
0
 10
108.08921346333921
 20
64.278019723634117
 30
0.0
 40
2.5558227484274911
 50
145.61575253202599
 51
205.61575253065999
  0
LINE
  5
7D8
  8
0
 10
105.979972702296
 20
62.834644050660103
 30
0.0
 11
105.4756556879916
 21
63.70814674255687
 31
0.0
  0
LINE
  5
7D9
  8
0
 10
111.9756556879916
 20
74.781649434452532
 30
0.0
 11
111.9756556879916
 21
62.408146742556312
 31
0.0
  0
CIRCLE
  5
7DA
  8
0
 10
74.412489729729259
 20
68.608146742556272
 30
0.0
 40
6.5
  0
LINE
  5
7DB
  8
0
 10
112.2756556879916
 20
62.108146742556301
 30
0.0
 11
113.4756556879916
 21
62.108146742556272
 31
0.0
  0
LINE
  5
7DC
  8
0
 10
112.2756556879916
 20
75.108146742556301
 30
0.0
 11
113.4756556879917
 21
75.108146742556286
 31
0.0
1001
ACAD
1000
ASC_BOUNDS
1002
{
1070
    19
1002
}
  0
LINE
  5
7DE
  8
1
 10
83.412489729729245
 20
68.608146742556272
 30
0.0
 11
65.412489729729259
 21
68.608146742556272
 31
0.0
  0
LINE
  5
7DF
  8
1
 10
74.412489729729259
 20
77.608146742556272
 30
0.0
 11
74.412489729729259
 21
59.608146742556272
 31
0.0
  0
LINE
  5
7E0
  8
1
 10
102.9756556879916
 20
68.608146742556315
 30
0.0
 11
119.1119425741304
 21
68.608146742556315
 31
0.0
  0
ARC
  5
87B
  8
0
 10
99.95714985339589
 20
68.608146742556343
 30
0.0
 40
15.0
 50
23.965467853844441
 51
25.679288619450869
1001
ACAD
1000
ASC_BOUNDS
1002
{
1070
    19
1002
}
  0
LINE
  5
87D
  8
0
 10
113.4756556879916
 20
75.108146742556301
 30
0.0
 11
113.4756556879916
 21
62.108146742556258
 31
0.0
  0
ARC
  5
87E
  8
0
 10
99.95714985339589
 20
68.608146742556343
 30
0.0
 40
15.0
 50
334.32071138054857
 51
336.03453214615558
  0
LINE
  5
906
  8
0
 10
105.97997270230439
 20
71.494898088504499
 30
0.0
 11
111.9756556879916
 21
71.494898088504499
 31
0.0
  0
ARC
  5
907
  8
0
 10
108.08921346333921
 20
72.938273761478513
 30
0.0
 40
2.5558227484274911
 50
154.38424746934541
 51
214.38424746797401
  0
INSERT
  5
920
  8
11
  2
STDGX5
 10
302.5
 20
0.0
 30
0.0
 41
0.5
 42
0.5
 43
0.5
  0
LINE
  5
A11
  8
0
 10
115.86400632946859
 20
75.108146742556301
 30
0.0
 11
115.86400632946859
 21
62.108146742556301
 31
0.0
  0
LINE
  5
A12
  8
2
 10
114.5739319151341
 20
72.108146742556301
 30
0.0
 11
114.5739319151341
 21
65.108146742556301
 31
0.0
  0
LINE
  5
A13
  8
0
 10
116.16400632946861
 20
74.808146742556303
 30
0.0
 11
116.16400632946861
 21
62.408146742556298
 31
0.0
  0
LINE
  5
A14
  8
0
 10
113.66400632946861
 20
62.408146742556298
 30
0.0
 11
113.66400632946861
 21
74.808146742556303
 31
0.0
  0
LINE
  5
A16
  8
2
 10
113.66400632946861
 20
62.608146742556301
 30
0.0
 11
114.5739319151341
 21
65.108146742556244
 31
0.0
  0
LINE
  5
A17
  8
0
 10
115.86400632946859
 20
62.108146742556301
 30
0.0
 11
113.9640063294686
 21
62.108146742556301
 31
0.0
  0
LINE
  5
A18
  8
0
 10
113.9640063294686
 20
62.108146742556301
 30
0.0
 11
113.66400632946861
 21
62.408146742556298
 31
0.0
  0
LINE
  5
A19
  8
0
 10
116.16400632946861
 20
62.408146742556298
 30
0.0
 11
115.86400632946859
 21
62.108146742556301
 31
0.0
  0
LINE
  5
A1A
  8
2
 10
114.5739319151341
 20
65.108146742556286
 30
0.0
 11
115.86400632946859
 21
65.108146742556301
 31
0.0
  0
LINE
  5
A1B
  8
2
 10
115.86400632946859
 20
65.108146742556301
 30
0.0
 11
116.16400632946861
 21
64.808146742556289
 31
0.0
  0
LINE
  5
A1C
  8
2
 10
113.66400632946861
 20
74.608146742556301
 30
0.0
 11
114.5739319151341
 21
72.108146742556357
 31
0.0
  0
LINE
  5
A1D
  8
2
 10
114.5739319151341
 20
72.108146742556301
 30
0.0
 11
115.86400632946859
 21
72.108146742556301
 31
0.0
  0
LINE
  5
A1E
  8
2
 10
115.86400632946859
 20
72.108146742556301
 30
0.0
 11
116.16400632946861
 21
72.408146742556283
 31
0.0
  0
LINE
  5
A1F
  8
0
 10
113.9640063294686
 20
75.108146742556301
 30
0.0
 11
115.86400632946859
 21
75.108146742556301
 31
0.0
  0
LINE
  5
A20
  8
0
 10
113.9640063294686
 20
75.108146742556301
 30
0.0
 11
113.66400632946861
 21
74.808146742556303
 31
0.0
  0
LINE
  5
A21
  8
0
 10
115.86400632946859
 20
75.108146742556301
 30
0.0
 11
116.16400632946861
 21
74.808146742556303
 31
0.0
  0
LINE
  5
A22
  8
0
 10
113.9640063294686
 20
75.108146742556301
 30
0.0
 11
113.9640063294686
 21
62.108146742556301
 31
0.0
  0
LINE
  5
ACF
  8
2
 10
114.5739319151341
 20
100.0808664472633
 30
0.0
 11
114.5739319151341
 21
93.080866447263304
 31
0.0
  0
LINE
  5
AD2
  8
0
 10
112.2756556879916
 20
103.0808664472633
 30
0.0
 11
112.2756556879916
 21
90.080866447263276
 31
0.0
  0
LINE
  5
AD3
  8
0
 10
111.9756556879921
 20
102.7808664472637
 30
0.0
 11
111.9756556879918
 21
90.380866447263045
 31
0.0
  0
LINE
  5
AD4
  8
0
 10
113.4756556879916
 20
103.0808664472633
 30
0.0
 11
113.4756556879916
 21
90.080866447263276
 31
0.0
  0
LINE
  5
AD5
  8
0
 10
115.86400632946859
 20
103.0808664472633
 30
0.0
 11
115.86400632946859
 21
90.080866447263304
 31
0.0
  0
LINE
  5
AD6
  8
0
 10
116.16400632946861
 20
102.78086644726331
 30
0.0
 11
116.16400632946861
 21
90.380866447263301
 31
0.0
  0
LINE
  5
AD7
  8
0
 10
113.66400632946861
 20
90.380866447263301
 30
0.0
 11
113.66400632946861
 21
102.78086644726331
 31
0.0
  0
LINE
  5
AD8
  8
0
 10
113.9640063294686
 20
103.0808664472633
 30
0.0
 11
113.9640063294686
 21
90.080866447263304
 31
0.0
  0
LINE
  5
ADD
  8
0
 10
116.16400632946861
 20
90.380866447263301
 30
0.0
 11
115.86400632946859
 21
90.080866447263304
 31
0.0
  0
LINE
  5
ADE
  8
0
 10
113.9640063294686
 20
90.080866447263304
 30
0.0
 11
113.66400632946861
 21
90.380866447263301
 31
0.0
  0
ARC
  5
ADF
  8
0
 10
99.95714985339589
 20
96.580866447263375
 30
0.0
 40
15.0
 50
334.32071138054857
 51
336.03453214615558
  0
LINE
  5
AE0
  8
0
 10
111.9756556879916
 20
90.380866447263315
 30
0.0
 11
112.2756556879916
 21
90.080866447263304
 31
0.0
  0
LINE
  5
AE1
  8
0
 10
115.86400632946859
 20
90.080866447263304
 30
0.0
 11
113.9640063294686
 21
90.080866447263304
 31
0.0
  0
LINE
  5
AE2
  8
0
 10
112.2756556879916
 20
90.080866447263304
 30
0.0
 11
113.4756556879916
 21
90.080866447263276
 31
0.0
  0
LINE
  5
AE3
  8
2
 10
114.5739319151341
 20
93.080866447263276
 30
0.0
 11
115.86400632946859
 21
93.080866447263304
 31
0.0
  0
LINE
  5
AE4
  8
2
 10
113.66400632946861
 20
90.580866447263304
 30
0.0
 11
114.5739319151341
 21
93.080866447263247
 31
0.0
  0
LINE
  5
AE6
  8
2
 10
115.86400632946859
 20
93.080866447263304
 30
0.0
 11
116.16400632946861
 21
92.780866447263293
 31
0.0
  0
LINE
  5
AE9
  8
1
 10
102.9756556879916
 20
96.580866447263304
 30
0.0
 11
119.1119425741304
 21
96.580866447263304
 31
0.0
  0
LINE
  5
AEC
  8
2
 10
113.66400632946861
 20
102.5808664472633
 30
0.0
 11
114.5739319151341
 21
100.0808664472633
 31
0.0
  0
LINE
  5
AED
  8
2
 10
114.5739319151341
 20
100.0808664472633
 30
0.0
 11
115.86400632946859
 21
100.0808664472633
 31
0.0
  0
LINE
  5
AEE
  8
2
 10
115.86400632946859
 20
100.0808664472633
 30
0.0
 11
116.16400632946861
 21
100.3808664472633
 31
0.0
  0
LINE
  5
AEF
  8
0
 10
113.9640063294686
 20
103.0808664472633
 30
0.0
 11
115.86400632946859
 21
103.0808664472633
 31
0.0
  0
LINE
  5
AF0
  8
0
 10
112.2756556879916
 20
103.0808664472633
 30
0.0
 11
113.4756556879917
 21
103.0808664472633
 31
0.0
1001
ACAD
1000
ASC_BOUNDS
1002
{
1070
    19
1002
}
  0
LINE
  5
AF2
  8
0
 10
111.9756556879916
 20
102.75436913915949
 30
0.0
 11
111.9756556879916
 21
102.78086644726331
 31
0.0
1001
ACAD
1000
ASC_BOUNDS
1002
{
1070
    19
1002
}
  0
LINE
  5
AF3
  8
0
 10
112.2756556879916
 20
103.0808664472633
 30
0.0
 11
111.9756556879916
 21
102.78086644726331
 31
0.0
1001
ACAD
1000
ASC_BOUNDS
1002
{
1070
    19
1002
}
  0
LINE
  5
AF4
  8
0
 10
113.9640063294686
 20
103.0808664472633
 30
0.0
 11
113.66400632946861
 21
102.78086644726331
 31
0.0
  0
ARC
  5
AF5
  8
0
 10
99.95714985339589
 20
96.580866447263375
 30
0.0
 40
15.0
 50
23.965467853844441
 51
25.679288619450869
1001
ACAD
1000
ASC_BOUNDS
1002
{
1070
    19
1002
}
  0
LINE
  5
AF6
  8
0
 10
115.86400632946859
 20
103.0808664472633
 30
0.0
 11
116.16400632946861
 21
102.78086644726331
 31
0.0
  0
LINE
  5
AF8
  8
0
 10
105.97997270229691
 20
96.580866447263304
 30
0.0
 11
111.9756556879916
 21
96.580866447263304
 31
0.0
  0
ARC
  5
AF9
  8
0
 10
112.7542769728105
 20
94.080866447263304
 30
0.0
 40
7.2208862578987887
 50
159.7438419996262
 51
200.2561580003738
  0
LINE
  5
AFA
  8
0
 10
105.5333907149116
 20
91.580866447263304
 30
0.0
 11
105.4756556879916
 21
91.680866447265217
 31
0.0
  0
LINE
  5
AFB
  8
0
 10
105.5333907149116
 20
91.580866447263304
 30
0.0
 11
111.5756556879919
 21
91.580866447263332
 31
0.0
  0
LINE
  5
AFC
  8
0
 10
105.5333907149116
 20
101.5808664472633
 30
0.0
 11
111.5756556879916
 21
101.5808664472633
 31
0.0
  0
LINE
  5
AFD
  8
0
 10
105.5333907149116
 20
101.5808664472633
 30
0.0
 11
105.4756556879916
 21
101.48086644726141
 31
0.0
  0
ARC
  5
AFE
  8
0
 10
112.7542769728105
 20
99.080866447263304
 30
0.0
 40
7.2208862578987887
 50
159.7438419996262
 51
200.2561580003738
  0
LINE
  5
AFF
  8
0
 10
105.4756556879916
 20
91.680866447265217
 30
0.0
 11
105.4756556879916
 21
101.48086644726141
 31
0.0
  0
ARC
  5
B0C
  8
0
 10
111.5756556879916
 20
101.9808664472633
 30
0.0
 40
0.4
 50
270.0
 51
0.0
  0
ARC
  5
B0D
  8
0
 10
111.5756556879919
 20
91.180866447263327
 30
0.0
 40
0.4
 50
0.0000000000010687
 51
90.0
  0
TEXT
  5
C61
  8
0
 62
     3
 10
0.0
 20
0.0
 30
0.0
 40
5.0
  1
BJ739-06001-SUS
  7
STANDARD1
  0
ENDSEC
  0
EOF
