  0
SECTION
  2
HEADER
  9
$ACADVER
  1
AC1009
  9
$INSBASE
 10
0.0
 20
0.0
 30
0.0
  9
$EXTMIN
 10
0.0
 20
-1.4802182810368341
 30
0.0
  9
$EXTMAX
 10
140.3065090000043
 20
124.198291
 30
0.0
  9
$LIMMIN
 10
0.0
 20
0.0
  9
$LIMMAX
 10
187.5
 20
135.0
  9
$ORTHOMODE
 70
     1
  9
$REGENMODE
 70
     1
  9
$FILLMODE
 70
     1
  9
$QTEXTMODE
 70
     0
  9
$MIRRTEXT
 70
     0
  9
$DRAGMODE
 70
     2
  9
$LTSCALE
 40
10.0
  9
$OSMODE
 70
  3071
  9
$ATTMODE
 70
     1
  9
$TEXTSIZE
 40
0.2
  9
$TRACEWID
 40
0.05
  9
$TEXTSTYLE
  7
STANDARD
  9
$CLAYER
  8
0
  9
$CELTYPE
  6
BYLAYER
  9
$CECOLOR
 62
   256
  9
$DIMSCALE
 40
0.5
  9
$DIMASZ
 40
3.0
  9
$DIMEXO
 40
2.0
  9
$DIMDLI
 40
0.38
  9
$DIMRND
 40
0.0
  9
$DIMDLE
 40
0.0
  9
$DIMEXE
 40
2.0
  9
$DIMTP
 40
0.0
  9
$DIMTM
 40
0.0
  9
$DIMTXT
 40
3.0
  9
$DIMCEN
 40
0.0
  9
$DIMTSZ
 40
0.0
  9
$DIMTOL
 70
     0
  9
$DIMLIM
 70
     0
  9
$DIMTIH
 70
     0
  9
$DIMTOH
 70
     0
  9
$DIMSE1
 70
     0
  9
$DIMSE2
 70
     0
  9
$DIMTAD
 70
     1
  9
$DIMZIN
 70
     0
  9
$DIMBLK
  1

  9
$DIMASO
 70
     0
  9
$DIMSHO
 70
     0
  9
$DIMPOST
  1

  9
$DIMAPOST
  1

  9
$DIMALT
 70
     0
  9
$DIMALTD
 70
     2
  9
$DIMALTF
 40
25.399999999999999
  9
$DIMLFAC
 40
1.0
  9
$DIMTOFL
 70
     1
  9
$DIMTVP
 40
1.6000000000000001
  9
$DIMTIX
 70
     1
  9
$DIMSOXD
 70
     0
  9
$DIMSAH
 70
     0
  9
$DIMBLK1
  1

  9
$DIMBLK2
  1

  9
$DIMSTYLE
  2
STANDARD
  9
$DIMCLRD
 70
     0
  9
$DIMCLRE
 70
     0
  9
$DIMCLRT
 70
     0
  9
$DIMTFAC
 40
1.0
  9
$DIMGAP
 40
0.09
  9
$LUNITS
 70
     2
  9
$LUPREC
 70
     4
  9
$SKETCHINC
 40
0.1
  9
$FILLETRAD
 40
0.5
  9
$AUNITS
 70
     0
  9
$AUPREC
 70
     4
  9
$MENU
  1
E:\r13\win\SUPPORT\ACAD
  9
$ELEVATION
 40
0.0
  9
$PELEVATION
 40
0.0
  9
$THICKNESS
 40
0.0
  9
$LIMCHECK
 70
     0
  9
$BLIPMODE
 70
     0
  9
$CHAMFERA
 40
0.8
  9
$CHAMFERB
 40
0.8
  9
$SKPOLY
 70
     0
  9
$TDCREATE
 40
2449840.5863194452
  9
$TDUPDATE
 40
2456597.6933138198
  9
$TDINDWG
 40
0.0175314699
  9
$TDUSRTIMER
 40
0.0175314699
  9
$USRTIMER
 70
     1
  9
$ANGBASE
 50
0.0
  9
$ANGDIR
 70
     0
  9
$PDMODE
 70
     0
  9
$PDSIZE
 40
0.0
  9
$PLINEWID
 40
0.0
  9
$COORDS
 70
     1
  9
$SPLFRAME
 70
     0
  9
$SPLINETYPE
 70
     6
  9
$SPLINESEGS
 70
     8
  9
$ATTDIA
 70
     0
  9
$ATTREQ
 70
     1
  9
$HANDLING
 70
     1
  9
$HANDSEED
  5
2FB
  9
$SURFTAB1
 70
     6
  9
$SURFTAB2
 70
     6
  9
$SURFTYPE
 70
     6
  9
$SURFU
 70
     6
  9
$SURFV
 70
     6
  9
$UCSNAME
  2

  9
$UCSORG
 10
0.0
 20
0.0
 30
0.0
  9
$UCSXDIR
 10
1.0
 20
0.0
 30
0.0
  9
$UCSYDIR
 10
0.0
 20
1.0
 30
0.0
  9
$PUCSNAME
  2

  9
$PUCSORG
 10
0.0
 20
0.0
 30
0.0
  9
$PUCSXDIR
 10
1.0
 20
0.0
 30
0.0
  9
$PUCSYDIR
 10
0.0
 20
1.0
 30
0.0
  9
$USERI1
 70
     3
  9
$USERI2
 70
     1
  9
$USERI3
 70
     0
  9
$USERI4
 70
     0
  9
$USERI5
 70
     0
  9
$USERR1
 40
0.5
  9
$USERR2
 40
3.0
  9
$USERR3
 40
3.0
  9
$USERR4
 40
3.0
  9
$USERR5
 40
10.0
  9
$WORLDVIEW
 70
     1
  9
$SHADEDGE
 70
     3
  9
$SHADEDIF
 70
    70
  9
$TILEMODE
 70
     1
  9
$MAXACTVP
 70
    16
  9
$PLIMCHECK
 70
     0
  9
$PEXTMIN
 10
1.0000000000000000E+020
 20
1.0000000000000000E+020
 30
1.0000000000000000E+020
  9
$PEXTMAX
 10
-1.0000000000000000E+020
 20
-1.0000000000000000E+020
 30
-1.0000000000000000E+020
  9
$PLIMMIN
 10
0.0
 20
0.0
  9
$PLIMMAX
 10
12.0
 20
9.0
  9
$UNITMODE
 70
     0
  9
$VISRETAIN
 70
     0
  9
$PLINEGEN
 70
     0
  9
$PSLTSCALE
 70
     0
  0
ENDSEC
  0
SECTION
  2
TABLES
  0
TABLE
  2
VPORT
 70
     1
  0
VPORT
  2
*ACTIVE
 70
     0
 10
0.0
 20
0.0
 11
1.0
 21
1.0
 12
97.52905416604365
 22
66.75636307133405
 13
0.0
 23
0.0
 14
5.0
 24
5.0
 15
10.0
 25
10.0
 16
0.0
 26
0.0
 36
1.0
 17
0.0
 27
0.0
 37
0.0
 40
137.71137496815999
 41
1.831871345029239
 42
50.0
 43
0.0
 44
0.0
 50
0.0
 51
0.0
 71
     0
 72
   100
 73
     1
 74
     0
 75
     0
 76
     0
 77
     0
 78
     2
  0
ENDTAB
  0
TABLE
  2
LTYPE
 70
     4
  0
LTYPE
  2
CONTINUOUS
 70
     0
  3
Solid Line
 72
    65
 73
     0
 40
0.0
  0
LTYPE
  2
CENTER
 70
     0
  3
____ _ ____ _ ____ _ ____ _ ____ _ ____ _ ____
 72
    65
 73
     4
 40
2.0
 49
1.25
 49
-0.25
 49
0.25
 49
-0.25
  0
LTYPE
  2
HIDDEN
 70
     0
  3
_ _ _ _ _ _ _ _ _ _ _ _ _ _ _ _ _ _ _ _ _ _ _
 72
    65
 73
     2
 40
0.375
 49
0.25
 49
-0.125
  0
LTYPE
  2
PHANTOM2
 70
     0
  3
___ _ _ ___ _ _ ___ _ _ ___ _ _
 72
    65
 73
     6
 40
1.25
 49
0.625
 49
-0.125
 49
0.125
 49
-0.125
 49
0.125
 49
-0.125
  0
ENDTAB
  0
TABLE
  2
LAYER
 70
     3
  0
LAYER
  2
0
 70
     0
 62
     7
  6
CONTINUOUS
  0
LAYER
  2
1
 70
     0
 62
     1
  6
CENTER
  0
LAYER
  2
2
 70
     0
 62
     2
  6
HIDDEN
  0
ENDTAB
  0
TABLE
  2
STYLE
 70
     2
  0
STYLE
  2
STANDARD
 70
     0
 40
0.0
 41
1.0
 50
0.0
 71
     0
 42
0.2
  3
TXT
  4
BIGFONT
  0
STYLE
  2
STANDARD1
 70
     0
 40
0.0
 41
1.0
 50
0.0
 71
     0
 42
3.0
  3
txt
  4

  0
ENDTAB
  0
TABLE
  2
VIEW
 70
     0
  0
ENDTAB
  0
TABLE
  2
UCS
 70
     0
  0
ENDTAB
  0
TABLE
  2
APPID
 70
     4
  0
APPID
  2
ACAD
 70
     0
  0
APPID
  2
MCAD_NO_VIS
 70
     0
  0
APPID
  2
ACAD_MLEADERVER
 70
     0
  0
APPID
  2
ACAD_NAV_VCDISPLAY
 70
     0
  0
ENDTAB
  0
TABLE
  2
DIMSTYLE
 70
     1
  0
DIMSTYLE
  2
STANDARD
 70
     0
  3

  4

  5

  6

  7

 40
1.0
 41
0.18
 42
0.0625
 43
0.38
 44
0.18
 45
0.0
 46
0.0
 47
0.0
 48
0.0
140
0.18
141
0.09
142
0.0
143
25.399999999999999
144
1.0
145
0.0
146
1.0
147
0.09
 71
     0
 72
     0
 73
     1
 74
     1
 75
     0
 76
     0
 77
     0
 78
     0
170
     0
171
     2
172
     0
173
     0
174
     0
175
     0
176
     0
177
     0
178
     0
  0
ENDTAB
  0
ENDSEC
  0
SECTION
  2
BLOCKS
  0
BLOCK
  8
0
  2
$MODEL_SPACE
 70
     0
 10
0.0
 20
0.0
 30
0.0
  3
$MODEL_SPACE
  1

  0
ENDBLK
  5
DF
  8
0
  0
BLOCK
 67
     1
  8
0
  2
$PAPER_SPACE
 70
     0
 10
0.0
 20
0.0
 30
0.0
  3
$PAPER_SPACE
  1

  0
ENDBLK
  5
DD
 67
     1
  8
0
  0
ENDSEC
  0
SECTION
  2
ENTITIES
  0
CIRCLE
  5
3E
  8
0
 10
68.306508999999991
 20
106.198291
 30
0.0
 40
12.0
  0
LINE
  5
41
  8
1
 10
49.306508999999998
 20
106.198291
 30
0.0
 11
87.306508999999977
 21
106.198291
 31
0.0
  0
LINE
  5
42
  8
1
 10
68.306508999999991
 20
88.198290999999983
 30
0.0
 11
68.306508999999991
 21
124.198291
 31
0.0
  0
LINE
  5
43
  8
0
 10
80.306509000000005
 20
61.816906000000017
 30
0.0
 11
80.306509000000034
 21
60.301523344316671
 31
0.0
  0
LINE
  5
45
  8
0
 10
81.006508999999994
 20
47.016905999999999
 30
0.0
 11
81.006508999999994
 21
38.416906557637937
 31
0.0
  0
LINE
  5
46
  8
0
 10
55.606508999999981
 20
47.016905999999999
 30
0.0
 11
55.606508999999988
 21
38.416905999999997
 31
0.0
  0
LINE
  5
47
  8
0
 10
56.906508999999978
 20
37.616906
 30
0.0
 11
79.706484999999972
 21
37.616906
 31
0.0
  0
LINE
  5
48
  8
0
 10
57.106509000000003
 20
62.616906000000007
 30
0.0
 11
79.506509000000008
 21
62.616906000000007
 31
0.0
  0
LINE
  5
49
  8
0
 10
57.777434740280157
 20
55.916905999999997
 30
0.0
 11
78.835583259719826
 21
55.916905999999997
 31
0.0
  0
LINE
  5
52
  8
0
 10
55.606508999999988
 20
38.416905999999997
 30
0.0
 11
61.95906857097664
 21
38.416905999999997
 31
0.0
  0
LINE
  5
53
  8
0
 10
55.606508999999988
 20
47.016905999999999
 30
0.0
 11
61.95906857097664
 21
47.016905999999999
 31
0.0
  0
LINE
  5
5A
  8
0
 10
74.653949429023314
 20
47.016905999999999
 30
0.0
 11
74.653949429023314
 21
38.416905999999997
 31
0.0
  0
LINE
  5
5B
  8
0
 10
61.95906857097664
 20
47.016905999999999
 30
0.0
 11
61.959068570976662
 21
38.416905999999997
 31
0.0
  0
LINE
  5
5C
  8
0
 10
74.653949429023314
 20
38.416905999999997
 30
0.0
 11
81.006508999999994
 21
38.416905999999997
 31
0.0
  0
LINE
  5
5D
  8
0
 10
74.653949429023314
 20
47.016905999999999
 30
0.0
 11
81.006508999999994
 21
47.016905999999999
 31
0.0
  0
LINE
  5
5F
  8
2
 10
76.306508999999991
 20
48.616906
 30
0.0
 11
76.306508999999991
 21
37.616906
 31
0.0
  0
LINE
  5
60
  8
2
 10
75.306508999999991
 20
48.616906
 30
0.0
 11
75.306508999999991
 21
37.616906
 31
0.0
  0
LINE
  5
61
  8
2
 10
60.306508999999991
 20
48.616906
 30
0.0
 11
60.306508999999998
 21
37.616906
 31
0.0
  0
LINE
  5
62
  8
2
 10
61.306508999999991
 20
48.616906
 30
0.0
 11
61.306508999999998
 21
37.616906
 31
0.0
  0
LINE
  5
63
  8
1
 10
68.306509352941163
 20
67.616906
 30
0.0
 11
68.306496999999993
 21
32.616906
 31
0.0
  0
LINE
  5
64
  8
1
 10
128.3065093529454
 20
67.616918117942191
 30
0.0
 11
128.30649700000001
 21
32.616906
 31
0.0
  0
LINE
  5
65
  8
2
 10
121.30650900000001
 20
48.616918117942163
 30
0.0
 11
121.30650900000001
 21
37.616906
 31
0.0
  0
LINE
  5
66
  8
2
 10
120.30650900000001
 20
48.616918117942163
 30
0.0
 11
120.30650900000001
 21
37.616906
 31
0.0
  0
LINE
  5
67
  8
2
 10
135.30650900000001
 20
48.616918117942163
 30
0.0
 11
135.30650900000001
 21
37.616906
 31
0.0
  0
LINE
  5
68
  8
2
 10
136.30650900000001
 20
48.616918117942163
 30
0.0
 11
136.30650900000001
 21
37.616906
 31
0.0
  0
LINE
  5
69
  8
0
 10
117.30650199999999
 20
47.016905999999999
 30
0.0
 11
139.306501
 21
47.016905999999999
 31
0.0
  0
LINE
  5
6A
  8
0
 10
117.30650799999989
 20
38.416905999999997
 30
0.0
 11
139.306499
 21
38.416905999999997
 31
0.0
  0
LINE
  5
79
  8
0
 10
117.30650900000001
 20
37.616906
 30
0.0
 11
139.30650900000001
 21
37.616906
 31
0.0
  0
LINE
  5
7C
  8
0
 10
139.30650307999781
 20
47.81690599999952
 30
0.0
 11
139.306499
 21
37.616906
 31
0.0
  0
LINE
  5
7D
  8
0
 10
117.30650900000001
 20
37.616906
 30
0.0
 11
117.30649947999621
 21
47.81690599999952
 31
0.0
  0
LINE
  5
116
  8
0
 10
57.95650809383838
 20
49.416905999999997
 30
0.0
 11
78.656485906161606
 21
49.416905999999997
 31
0.0
  0
LINE
  5
125
  8
2
 10
60.306508999999991
 20
48.616906
 30
0.0
 11
76.306508999999991
 21
48.616906
 31
0.0
  0
LINE
  5
127
  8
0
 10
55.606508999999988
 20
38.416905999999997
 30
0.0
 11
56.906508999999978
 21
37.616906000000007
 31
0.0
  0
LINE
  5
128
  8
0
 10
81.006484999999998
 20
38.416905999999997
 30
0.0
 11
79.706485000000001
 21
37.616906000000007
 31
0.0
  0
LINE
  5
129
  8
0
 10
55.606508999999988
 20
47.016906557637931
 30
0.0
 11
57.95650809383838
 21
49.416906000000012
 31
0.0
  0
LINE
  5
12A
  8
0
 10
81.006484999999998
 20
47.016906557637931
 30
0.0
 11
78.656485906161606
 21
49.41690599999999
 31
0.0
  0
LINE
  5
12F
  8
0
 10
59.406512847058252
 20
55.716906000000002
 30
0.0
 11
77.20650515294173
 21
55.716906000000009
 31
0.0
  0
LINE
  5
133
  8
0
 10
78.656485906161606
 20
49.41690599999999
 30
0.0
 11
77.20650515294173
 21
55.716906000000002
 31
0.0
  0
LINE
  5
134
  8
0
 10
77.20650515294173
 20
55.716906000000002
 30
0.0
 11
77.306505223529967
 21
55.916905999999997
 31
0.0
  0
LINE
  5
135
  8
0
 10
59.406512847058252
 20
55.716906000000002
 30
0.0
 11
59.306512776470008
 21
55.916905999999997
 31
0.0
  0
LINE
  5
136
  8
0
 10
57.956532093838369
 20
49.41690599999999
 30
0.0
 11
59.406512847058252
 21
55.716906000000002
 31
0.0
  0
LINE
  5
137
  8
0
 10
57.106509000000003
 20
62.616906000000007
 30
0.0
 11
56.306508999999998
 21
61.81690600000001
 31
0.0
  0
LINE
  5
138
  8
0
 10
79.506509000000008
 20
62.616906000000007
 30
0.0
 11
80.306509000000005
 21
61.816906000000017
 31
0.0
  0
ARC
  5
139
  8
0
 10
68.295008398308809
 20
61.892033751959723
 30
0.0
 40
12.1163472243597
 50
330.4524326476531
 51
352.45702497500702
  0
ARC
  5
13A
  8
0
 10
68.318009601691173
 20
61.892033751959723
 30
0.0
 40
12.1163472243597
 50
187.54297502499301
 51
209.5475673523469
  0
LINE
  5
13B
  8
0
 10
56.306508999999977
 20
61.816906000000017
 30
0.0
 11
56.306508999999963
 21
60.301523344316671
 31
0.0
  0
LINE
  5
185
  8
0
 10
140.3065090000043
 20
61.81691811794218
 30
0.0
 11
140.3065090000043
 21
60.301535462258833
 31
0.0
  0
LINE
  5
186
  8
0
 10
117.10650900000429
 20
62.61691811794217
 30
0.0
 11
139.50650900000431
 21
62.616918117942177
 31
0.0
  0
LINE
  5
187
  8
0
 10
117.77743474028441
 20
55.91691811794216
 30
0.0
 11
138.8355832597241
 21
55.91691811794216
 31
0.0
  0
LINE
  5
188
  8
0
 10
119.4065128470625
 20
55.716918117942171
 30
0.0
 11
137.20650515294599
 21
55.716918117942171
 31
0.0
  0
LINE
  5
189
  8
0
 10
137.20650515294599
 20
55.716918117942171
 30
0.0
 11
137.3065052235342
 21
55.91691811794216
 31
0.0
  0
LINE
  5
18A
  8
0
 10
119.4065128470625
 20
55.716918117942171
 30
0.0
 11
119.30651277647431
 21
55.91691811794216
 31
0.0
  0
LINE
  5
18B
  8
0
 10
117.10650900000429
 20
62.61691811794217
 30
0.0
 11
116.3065090000043
 21
61.816918117942173
 31
0.0
  0
LINE
  5
18C
  8
0
 10
139.50650900000431
 20
62.616918117942177
 30
0.0
 11
140.3065090000043
 21
61.81691811794218
 31
0.0
  0
ARC
  5
18D
  8
0
 10
128.29500839831309
 20
61.892045869901892
 30
0.0
 40
12.1163472243597
 50
330.4524326476531
 51
352.45702497500702
  0
ARC
  5
18E
  8
0
 10
128.31800960169551
 20
61.892045869901892
 30
0.0
 40
12.1163472243597
 50
187.54297502499301
 51
209.5475673523469
  0
LINE
  5
18F
  8
0
 10
116.3065090000042
 20
61.81691811794218
 30
0.0
 11
116.3065090000042
 21
60.301535462258833
 31
0.0
  0
LINE
  5
190
  8
0
 10
138.6564859061659
 20
49.416918117942153
 30
0.0
 11
137.20650515294599
 21
55.716918117942171
 31
0.0
  0
LINE
  5
191
  8
0
 10
117.9565320938426
 20
49.416918117942153
 30
0.0
 11
119.4065128470625
 21
55.716918117942171
 31
0.0
  0
LINE
  5
192
  8
0
 10
117.9565320938426
 20
49.416918117942153
 30
0.0
 11
138.65650990616589
 21
49.416918117942153
 31
0.0
  0
LINE
  5
193
  8
2
 10
120.30652707059249
 20
48.616918117942163
 30
0.0
 11
136.30652707059249
 21
48.616918117942163
 31
0.0
  0
LINE
  5
195
  8
0
 10
139.30650307999781
 20
47.81690599999952
 30
0.0
 11
138.65650990616589
 21
49.416918117942153
 31
0.0
  0
LINE
  5
196
  8
0
 10
117.9565320938426
 20
49.416918117942153
 30
0.0
 11
117.30649947999621
 21
47.81690599999952
 31
0.0
  0
LINE
  5
1B6
  8
0
 10
61.959068570976662
 20
95.198290999999998
 30
0.0
 11
63.510677476687263
 21
95.198290999999998
 31
0.0
  0
LINE
  5
1B7
  8
0
 10
61.959068570976662
 20
117.198291
 30
0.0
 11
63.510677476687242
 21
117.198291
 31
0.0
  0
LINE
  5
1B8
  8
0
 10
73.102340523312719
 20
95.198290999999998
 30
0.0
 11
74.653949429023356
 21
95.198290999999998
 31
0.0
  0
LINE
  5
1B9
  8
0
 10
73.102340523312733
 20
117.198291
 30
0.0
 11
74.653949429023342
 21
117.198291
 31
0.0
  0
ARC
  5
1BA
  8
0
 10
68.306509000000005
 20
106.198291
 30
0.0
 40
12.699999999999999
 50
299.98666704886102
 51
60.013332951138061
  0
ARC
  5
1BB
  8
0
 10
68.306509000000005
 20
106.198291
 30
0.0
 40
12.699999999999999
 50
119.9866670488608
 51
240.01333295113901
  0
ARC
  5
1BF
  8
0
 10
68.306508999999977
 20
22.235656000027621
 30
0.0
 40
25.581249999973242
 50
75.633198462638831
 51
104.3668015373611
  0
ARC
  5
1C0
  8
0
 10
68.306508999999977
 20
63.198155999972371
 30
0.0
 40
25.581249999973242
 50
255.6331984626388
 51
284.3668015373612
  0
TEXT
  5
26C
  8
0
 62
     3
 10
0.0
 20
0.0
 30
0.0
 40
5.0
  1
BJ735-16022-F
  7
STANDARD1
  0
ENDSEC
  0
EOF
