  0
SECTION
  2
HEADER
  9
$ACADVER
  1
AC1009
  9
$INSBASE
 10
0.0
 20
0.0
 30
0.0
  9
$EXTMIN
 10
0.0
 20
-2.960436562073669
 30
0.0
  9
$EXTMAX
 10
134.03306634837071
 20
129.0331940130325
 30
0.0
  9
$LIMMIN
 10
0.0
 20
0.0
  9
$LIMMAX
 10
187.5
 20
135.0
  9
$ORTHOMODE
 70
     1
  9
$REGENMODE
 70
     1
  9
$FILLMODE
 70
     1
  9
$QTEXTMODE
 70
     0
  9
$MIRRTEXT
 70
     0
  9
$DRAGMODE
 70
     2
  9
$LTSCALE
 40
5.0
  9
$OSMODE
 70
  3071
  9
$ATTMODE
 70
     1
  9
$TEXTSIZE
 40
0.2
  9
$TRACEWID
 40
0.05
  9
$TEXTSTYLE
  7
STANDARD
  9
$CLAYER
  8
0
  9
$CELTYPE
  6
BYLAYER
  9
$CECOLOR
 62
   256
  9
$DIMSCALE
 40
0.5
  9
$DIMASZ
 40
3.0
  9
$DIMEXO
 40
2.0
  9
$DIMDLI
 40
0.38
  9
$DIMRND
 40
0.0
  9
$DIMDLE
 40
0.0
  9
$DIMEXE
 40
2.0
  9
$DIMTP
 40
0.0
  9
$DIMTM
 40
0.0
  9
$DIMTXT
 40
3.2000000000000002
  9
$DIMCEN
 40
0.0
  9
$DIMTSZ
 40
0.0
  9
$DIMTOL
 70
     0
  9
$DIMLIM
 70
     0
  9
$DIMTIH
 70
     0
  9
$DIMTOH
 70
     0
  9
$DIMSE1
 70
     0
  9
$DIMSE2
 70
     0
  9
$DIMTAD
 70
     1
  9
$DIMZIN
 70
     0
  9
$DIMBLK
  1

  9
$DIMASO
 70
     0
  9
$DIMSHO
 70
     0
  9
$DIMPOST
  1

  9
$DIMAPOST
  1

  9
$DIMALT
 70
     0
  9
$DIMALTD
 70
     2
  9
$DIMALTF
 40
25.399999999999999
  9
$DIMLFAC
 40
1.0
  9
$DIMTOFL
 70
     1
  9
$DIMTVP
 40
1.6000000000000001
  9
$DIMTIX
 70
     1
  9
$DIMSOXD
 70
     0
  9
$DIMSAH
 70
     0
  9
$DIMBLK1
  1

  9
$DIMBLK2
  1

  9
$DIMSTYLE
  2
STANDARD
  9
$DIMCLRD
 70
     0
  9
$DIMCLRE
 70
     0
  9
$DIMCLRT
 70
     0
  9
$DIMTFAC
 40
1.0
  9
$DIMGAP
 40
0.09
  9
$LUNITS
 70
     2
  9
$LUPREC
 70
     4
  9
$SKETCHINC
 40
0.1
  9
$FILLETRAD
 40
0.0
  9
$AUNITS
 70
     0
  9
$AUPREC
 70
     4
  9
$MENU
  1
E:\r13\win\SUPPORT\ACAD
  9
$ELEVATION
 40
0.0
  9
$PELEVATION
 40
0.0
  9
$THICKNESS
 40
0.0
  9
$LIMCHECK
 70
     0
  9
$BLIPMODE
 70
     0
  9
$CHAMFERA
 40
0.0
  9
$CHAMFERB
 40
0.0
  9
$SKPOLY
 70
     0
  9
$TDCREATE
 40
2449839.7683912041
  9
$TDUPDATE
 40
2456597.692044537
  9
$TDINDWG
 40
0.0014539583
  9
$TDUSRTIMER
 40
0.0014539583
  9
$USRTIMER
 70
     1
  9
$ANGBASE
 50
0.0
  9
$ANGDIR
 70
     0
  9
$PDMODE
 70
     0
  9
$PDSIZE
 40
0.0
  9
$PLINEWID
 40
0.0
  9
$COORDS
 70
     1
  9
$SPLFRAME
 70
     0
  9
$SPLINETYPE
 70
     6
  9
$SPLINESEGS
 70
     8
  9
$ATTDIA
 70
     0
  9
$ATTREQ
 70
     1
  9
$HANDLING
 70
     1
  9
$HANDSEED
  5
2A7
  9
$SURFTAB1
 70
     6
  9
$SURFTAB2
 70
     6
  9
$SURFTYPE
 70
     6
  9
$SURFU
 70
     6
  9
$SURFV
 70
     6
  9
$UCSNAME
  2

  9
$UCSORG
 10
0.0
 20
0.0
 30
0.0
  9
$UCSXDIR
 10
1.0
 20
0.0
 30
0.0
  9
$UCSYDIR
 10
0.0
 20
1.0
 30
0.0
  9
$PUCSNAME
  2

  9
$PUCSORG
 10
0.0
 20
0.0
 30
0.0
  9
$PUCSXDIR
 10
1.0
 20
0.0
 30
0.0
  9
$PUCSYDIR
 10
0.0
 20
1.0
 30
0.0
  9
$USERI1
 70
     0
  9
$USERI2
 70
     1
  9
$USERI3
 70
     0
  9
$USERI4
 70
     0
  9
$USERI5
 70
     0
  9
$USERR1
 40
0.0
  9
$USERR2
 40
0.0
  9
$USERR3
 40
0.0
  9
$USERR4
 40
0.0
  9
$USERR5
 40
0.0
  9
$WORLDVIEW
 70
     1
  9
$SHADEDGE
 70
     3
  9
$SHADEDIF
 70
    70
  9
$TILEMODE
 70
     1
  9
$MAXACTVP
 70
    16
  9
$PLIMCHECK
 70
     0
  9
$PEXTMIN
 10
1.0000000000000000E+020
 20
1.0000000000000000E+020
 30
1.0000000000000000E+020
  9
$PEXTMAX
 10
-1.0000000000000000E+020
 20
-1.0000000000000000E+020
 30
-1.0000000000000000E+020
  9
$PLIMMIN
 10
0.0
 20
0.0
  9
$PLIMMAX
 10
12.0
 20
9.0
  9
$UNITMODE
 70
     0
  9
$VISRETAIN
 70
     0
  9
$PLINEGEN
 70
     0
  9
$PSLTSCALE
 70
     0
  0
ENDSEC
  0
SECTION
  2
TABLES
  0
TABLE
  2
VPORT
 70
     1
  0
VPORT
  2
*ACTIVE
 70
     0
 10
0.0
 20
0.0
 11
1.0
 21
1.0
 12
97.570150770051072
 22
66.014785922033241
 13
0.0
 23
0.0
 14
5.0
 24
5.0
 15
5.0
 25
5.0
 16
0.0
 26
0.0
 36
1.0
 17
0.0
 27
0.0
 37
0.0
 40
139.20783109903601
 41
1.831871345029239
 42
50.0
 43
0.0
 44
0.0
 50
0.0
 51
0.0
 71
     0
 72
   500
 73
     1
 74
     0
 75
     0
 76
     0
 77
     0
 78
     2
  0
ENDTAB
  0
TABLE
  2
LTYPE
 70
     3
  0
LTYPE
  2
CONTINUOUS
 70
     0
  3
Solid Line
 72
    65
 73
     0
 40
0.0
  0
LTYPE
  2
CENTER
 70
     0
  3
____ _ ____ _ ____ _ ____ _ ____ _ ____ _ ____
 72
    65
 73
     4
 40
2.0
 49
1.25
 49
-0.25
 49
0.25
 49
-0.25
  0
LTYPE
  2
PHANTOM2
 70
     0
  3
___ _ _ ___ _ _ ___ _ _ ___ _ _
 72
    65
 73
     6
 40
1.25
 49
0.625
 49
-0.125
 49
0.125
 49
-0.125
 49
0.125
 49
-0.125
  0
ENDTAB
  0
TABLE
  2
LAYER
 70
     3
  0
LAYER
  2
0
 70
     0
 62
     7
  6
CONTINUOUS
  0
LAYER
  2
1
 70
     0
 62
     1
  6
CENTER
  0
LAYER
  2
3
 70
     0
 62
     3
  6
CONTINUOUS
  0
ENDTAB
  0
TABLE
  2
STYLE
 70
     2
  0
STYLE
  2
STANDARD
 70
     0
 40
0.0
 41
1.0
 50
0.0
 71
     0
 42
0.2
  3
TXT
  4
BIGFONT
  0
STYLE
  2
STANDARD1
 70
     0
 40
0.0
 41
1.0
 50
0.0
 71
     0
 42
3.0
  3
txt
  4

  0
ENDTAB
  0
TABLE
  2
VIEW
 70
     1
  0
VIEW
  2
ALL
 70
     0
 40
179.5384664489153
 10
135.0
 20
89.769233224457665
 41
0.0
 11
0.0
 21
0.0
 31
1.0
 12
0.0
 22
0.0
 32
0.0
 42
0.0
 43
0.0
 44
0.0
 50
0.0
 71
     0
  0
ENDTAB
  0
TABLE
  2
UCS
 70
     0
  0
ENDTAB
  0
TABLE
  2
APPID
 70
     3
  0
APPID
  2
ACAD
 70
     0
  0
APPID
  2
ACAD_MLEADERVER
 70
     0
  0
APPID
  2
ACAD_NAV_VCDISPLAY
 70
     0
  0
ENDTAB
  0
TABLE
  2
DIMSTYLE
 70
     1
  0
DIMSTYLE
  2
STANDARD
 70
     0
  3

  4

  5

  6

  7

 40
1.0
 41
0.18
 42
0.0625
 43
0.38
 44
0.18
 45
0.0
 46
0.0
 47
0.0
 48
0.0
140
0.18
141
0.09
142
0.0
143
25.399999999999999
144
1.0
145
0.0
146
1.0
147
0.09
 71
     0
 72
     0
 73
     1
 74
     1
 75
     0
 76
     0
 77
     0
 78
     0
170
     0
171
     2
172
     0
173
     0
174
     0
175
     0
176
     0
177
     0
178
     0
  0
ENDTAB
  0
ENDSEC
  0
SECTION
  2
BLOCKS
  0
BLOCK
  8
0
  2
$MODEL_SPACE
 70
     0
 10
0.0
 20
0.0
 30
0.0
  3
$MODEL_SPACE
  1

  0
ENDBLK
  5
15D
  8
0
  0
BLOCK
 67
     1
  8
0
  2
$PAPER_SPACE
 70
     0
 10
0.0
 20
0.0
 30
0.0
  3
$PAPER_SPACE
  1

  0
ENDBLK
  5
15B
 67
     1
  8
0
  0
BLOCK
  8
0
  2
732D55B2
 70
     0
 10
119.29800635385649
 20
44.079448568429143
 30
0.0
  3
732D55B2
  1

  0
LINE
  5
39
  8
0
 10
131.29799383038491
 20
44.368123703023791
 30
0.0
 11
130.79799383038531
 21
44.079448568429143
 31
0.0
  0
LINE
  5
3A
  8
0
 10
131.29799383038491
 20
53.790773433764343
 30
0.0
 11
130.79799383038531
 21
54.079448568358998
 31
0.0
  0
LINE
  5
3B
  8
0
 10
131.29799383038491
 20
44.368123703023677
 30
0.0
 11
131.29799383038491
 21
53.790773433764343
 31
0.0
  0
ARC
  5
3C
  8
0
 10
125.2979938303849
 20
36.460646414669213
 30
0.0
 40
17.33012701909939
 50
69.74384199979977
 51
110.2561580002002
  0
ARC
  5
3D
  8
0
 10
125.2979938303849
 20
61.698250722118821
 30
0.0
 40
17.33012701909939
 50
249.7438419997998
 51
290.25615800020017
  0
ARC
  5
3E
  8
0
 10
113.2979938303849
 20
61.698250722118821
 30
0.0
 40
17.33012701909939
 50
249.7438419997998
 51
290.25615800020017
  0
ARC
  5
3F
  8
0
 10
113.2979938303849
 20
36.460646414669213
 30
0.0
 40
17.33012701909939
 50
69.743841999799812
 51
110.2561580002002
  0
LINE
  5
40
  8
0
 10
107.2979938303849
 20
44.368123703023677
 30
0.0
 11
107.2979938303849
 21
53.790773433764343
 31
0.0
  0
LINE
  5
41
  8
0
 10
107.2979938303849
 20
53.790773433764343
 30
0.0
 11
107.7979938303846
 21
54.079448568358998
 31
0.0
  0
LINE
  5
42
  8
0
 10
107.2979938303849
 20
44.368123703023791
 30
0.0
 11
107.7979938303846
 21
44.079448568429143
 31
0.0
  0
LINE
  5
43
  8
0
 10
130.79799383038451
 20
54.079448568358998
 30
0.0
 11
107.7979938303846
 21
54.079448568358998
 31
0.0
  0
LINE
  5
44
  8
0
 10
130.79799383038451
 20
44.079448568429143
 30
0.0
 11
107.7979938303846
 21
44.079448568429143
 31
0.0
  0
LINE
  5
45
  8
0
 10
119.2979938303849
 20
45.439920472732297
 30
0.0
 11
119.2979938303849
 21
52.718976664055837
 31
0.0
  0
ENDBLK
  5
46
  8
0
  0
BLOCK
  8
0
  2
732D55C2
 70
     0
 10
249.56121473187969
 20
63.676900535371843
 30
0.0
  3
732D55C2
  1

  0
LINE
  5
48
  8
0
 10
240.92168663626279
 20
49.82048328514594
 30
0.0
 11
248.20074282749681
 21
49.82048328514594
 31
0.0
  0
LINE
  5
49
  8
0
 10
240.92168663626279
 20
70.594389745782834
 30
0.0
 11
248.20074282749681
 21
70.594389745782962
 31
0.0
  0
LINE
  5
4A
  8
0
 10
240.92168663626279
 20
56.759389745774051
 30
0.0
 11
248.20074282749681
 21
56.759389745773952
 31
0.0
  0
LINE
  5
4B
  8
0
 10
240.92168663626279
 20
77.53329620641108
 30
0.0
 11
248.20074282749681
 21
77.53329620641108
 31
0.0
  0
LINE
  5
4C
  8
0
 10
249.5612147318798
 20
75.176889745749634
 30
0.0
 11
248.20074282749681
 21
77.53329620641108
 31
0.0
  0
LINE
  5
4D
  8
0
 10
249.5612147318798
 20
52.17688974580728
 30
0.0
 11
248.20074282749681
 21
49.82048328514594
 31
0.0
  0
LINE
  5
4E
  8
0
 10
249.5612147318798
 20
75.17688974577851
 30
0.0
 11
249.5612147318798
 21
52.17688974580728
 31
0.0
  0
ARC
  5
4F
  8
0
 10
244.4707443743014
 20
74.06919459119473
 30
0.0
 40
5.0904703575783969
 50
42.883288406008887
 51
42.883288406028527
  0
ARC
  5
50
  8
0
 10
244.45711582940399
 20
53.289936515547247
 30
0.0
 40
5.1041011762679496
 50
342.82319891923697
 51
42.823198923621518
  0
ARC
  5
51
  8
0
 10
231.29450525682529
 20
63.67688974577851
 30
0.0
 40
18.26670947505454
 50
337.7471677682114
 51
22.252832231788631
  0
ARC
  5
52
  8
0
 10
244.4707443743014
 20
74.06919459119473
 30
0.0
 40
5.0904703575783969
 50
317.11671159397139
 51
17.11671159399096
  0
ARC
  5
53
  8
0
 10
244.6516850894582
 20
74.06919459119473
 30
0.0
 40
5.0904703575783969
 50
162.883288406009
 51
222.88328840602861
  0
ARC
  5
54
  8
0
 10
257.82792420693443
 20
63.67688974577851
 30
0.0
 40
18.26670947505454
 50
157.7471677682114
 51
202.2528322317886
  0
ARC
  5
55
  8
0
 10
244.66531363435561
 20
53.289936515547247
 30
0.0
 40
5.1041011762679496
 50
137.17680107637841
 51
197.176801080763
  0
ARC
  5
56
  8
0
 10
244.6516850894582
 20
74.06919459119473
 30
0.0
 40
5.0904703575783969
 50
137.11671159397139
 51
137.11671159399111
  0
LINE
  5
57
  8
0
 10
239.5612147318798
 20
75.17688974577851
 30
0.0
 11
239.5612147318798
 21
52.17688974580728
 31
0.0
  0
LINE
  5
58
  8
0
 10
239.5612147318798
 20
52.17688974580728
 30
0.0
 11
240.92168663626279
 21
49.82048328514594
 31
0.0
  0
LINE
  5
59
  8
0
 10
239.5612147318798
 20
75.176889745749634
 30
0.0
 11
240.92168663626279
 21
77.53329620641108
 31
0.0
  0
ENDBLK
  5
5A
  8
0
  0
ENDSEC
  0
SECTION
  2
ENTITIES
  0
LINE
  5
64
  8
0
 10
73.795492588370223
 20
103.2485843222059
 30
0.0
 11
73.795492588370223
 21
117.1049907826059
 31
0.0
  0
LINE
  5
65
  8
0
 10
73.795492588370223
 20
117.1049907827568
 30
0.0
 11
61.79549258850119
 21
124.0331940129569
 31
0.0
  0
LINE
  5
66
  8
0
 10
61.795492588370223
 20
124.0331940130324
 30
0.0
 11
49.79549258850119
 21
117.1049907828323
 31
0.0
  0
LINE
  5
67
  8
0
 10
49.795492588370223
 20
117.1049907827568
 30
0.0
 11
49.795492588370223
 21
103.2485843223569
 31
0.0
  0
LINE
  5
68
  8
0
 10
49.795492588370223
 20
103.2485843222059
 30
0.0
 11
61.795492588239249
 21
96.320381092005817
 31
0.0
  0
LINE
  5
69
  8
0
 10
61.795492588370209
 20
96.320381091930315
 30
0.0
 11
73.795492588239256
 21
103.2485843221302
 31
0.0
  0
INSERT
  5
6A
  8
0
  2
732D55B2
 10
61.795492588369662
 20
43.335510573981388
 30
0.0
  0
INSERT
  5
6B
  8
0
  2
732D55C2
 10
120.17665988773859
 20
43.335510573981388
 30
0.0
 50
270.0
  0
ARC
  5
6C
  8
0
 10
111.77665988773801
 20
67.93551057398156
 30
0.0
 40
0.4
 50
360.0
 51
89.999999999999986
  0
ARC
  5
6D
  8
0
 10
128.57665988773809
 20
67.935510573981531
 30
0.0
 40
0.4
 50
89.999999999999986
 51
180.0
  0
ARC
  5
6E
  8
0
 10
120.1766598877381
 20
43.335510573981509
 30
0.0
 40
35.0
 50
66.678050167197455
 51
113.3219498324913
  0
ARC
  5
6F
  8
0
 10
109.78435504236531
 20
71.434143386481523
 30
0.0
 40
5.3230831274055292
 50
49.400335133672961
 51
89.994254346304402
  0
ARC
  5
70
  8
0
 10
130.56896473315351
 20
71.433453699998125
 30
0.0
 40
5.3236068081373844
 50
49.405165674066772
 51
49.40516567407186
  0
ARC
  5
71
  8
0
 10
120.1766598877404
 20
57.335510573981509
 30
0.0
 40
19.418319029163499
 50
69.096996477448883
 51
110.9030035225656
  0
ARC
  5
72
  8
0
 10
130.56896473315351
 20
71.433453699998125
 30
0.0
 40
5.3236068081373844
 50
89.999970969017056
 51
130.59483432593291
  0
LINE
  5
73
  8
0
 10
134.0330663483704
 20
75.475827933922886
 30
0.0
 11
134.03306634837071
 21
68.335510573981509
 31
0.0
  0
LINE
  5
74
  8
0
 10
134.03306634837071
 20
68.335510573981509
 30
0.0
 11
106.32025342728009
 21
68.335510573981523
 31
0.0
  0
LINE
  5
75
  8
0
 10
106.32025342728009
 20
68.335510573981523
 30
0.0
 11
106.32025342728009
 21
75.475827933998062
 31
0.0
  0
LINE
  5
76
  8
0
 10
127.104863117938
 20
75.475827933922886
 30
0.0
 11
127.104863117938
 21
68.335510573981509
 31
0.0
  0
LINE
  5
77
  8
0
 10
113.2484566575382
 20
75.475827933922915
 30
0.0
 11
113.2484566575382
 21
68.335510573981523
 31
0.0
  0
LINE
  5
78
  8
0
 10
128.176659887738
 20
25.335510573981502
 30
0.0
 11
126.1766598877381
 21
23.335510573981509
 31
0.0
  0
LINE
  5
79
  8
3
 10
127.0941598877485
 20
24.253010573991979
 30
0.0
 11
127.09415988776961
 21
61.335510574034942
 31
0.0
  0
LINE
  5
7A
  8
3
 10
127.0941598877388
 20
61.335510573981502
 30
0.0
 11
128.17665988773851
 21
63.210455573174571
 31
0.0
  0
LINE
  5
7B
  8
3
 10
113.25915988773841
 20
61.335510573981537
 30
0.0
 11
112.1766598877385
 21
63.210455573174613
 31
0.0
  0
LINE
  5
7C
  8
3
 10
113.25915988772761
 20
24.25301057399199
 30
0.0
 11
113.2591598877075
 21
61.33551057403497
 31
0.0
  0
LINE
  5
7D
  8
0
 10
112.1766598877381
 20
25.335510573981509
 30
0.0
 11
114.1766598877381
 21
23.335510573981509
 31
0.0
  0
LINE
  5
7E
  8
0
 10
126.1766598877381
 20
23.335510573981509
 30
0.0
 11
114.1766598877381
 21
23.335510573981509
 31
0.0
  0
LINE
  5
7F
  8
0
 10
128.176659887738
 20
25.335510573981502
 30
0.0
 11
112.1766598877381
 21
25.335510573981509
 31
0.0
  0
LINE
  5
80
  8
0
 10
128.17665988773851
 20
61.335510574034942
 30
0.0
 11
112.1766598877385
 21
61.33551057403497
 31
0.0
  0
LINE
  5
81
  8
0
 10
128.17665988773811
 20
67.935510573981531
 30
0.0
 11
128.176659887738
 21
25.335510573981502
 31
0.0
  0
LINE
  5
82
  8
0
 10
112.176659887738
 20
67.93551057398156
 30
0.0
 11
112.1766598877381
 21
25.335510573981509
 31
0.0
  0
ARC
  5
83
  8
0
 10
55.795492588370116
 20
62.030340122308722
 30
0.0
 40
14.72348948083652
 50
65.951356164255316
 51
114.0486438357446
  0
ARC
  5
84
  8
0
 10
67.795492588370124
 20
62.030340122308722
 30
0.0
 40
14.72348948083652
 50
65.951356164255316
 51
114.0486438357446
  0
ARC
  5
85
  8
0
 10
53.395492588370139
 20
67.935510573981745
 30
0.0
 40
0.4
 50
360.0
 51
90.000000000000398
  0
ARC
  5
86
  8
0
 10
70.195492588370101
 20
67.935510573981745
 30
0.0
 40
0.4
 50
89.999999999999986
 51
180.0
  0
LINE
  5
87
  8
0
 10
49.795492588370116
 20
76.214075019528849
 30
0.0
 11
49.795492588370116
 21
68.335510573981736
 31
0.0
  0
ARC
  5
88
  8
0
 10
61.795492588370116
 20
43.335510573981622
 30
0.0
 40
35.0
 50
69.948957433494115
 51
110.0510425665058
  0
LINE
  5
89
  8
0
 10
53.795492588370131
 20
67.935510573981745
 30
0.0
 11
53.795492588370109
 21
25.33551057398163
 31
0.0
  0
LINE
  5
8A
  8
0
 10
69.795492588370124
 20
67.935510573981745
 30
0.0
 11
69.795492588370095
 21
25.33551057398163
 31
0.0
  0
LINE
  5
8B
  8
0
 10
69.795492588370124
 20
61.335510573981608
 30
0.0
 11
53.795492588370131
 21
61.335510573981608
 31
0.0
  0
LINE
  5
8C
  8
0
 10
69.795492588370095
 20
25.33551057398163
 30
0.0
 11
53.795492588370109
 21
25.33551057398163
 31
0.0
  0
LINE
  5
8D
  8
0
 10
67.795492588370109
 20
23.33551057398163
 30
0.0
 11
55.795492588370109
 21
23.33551057398163
 31
0.0
  0
LINE
  5
8E
  8
0
 10
53.795492588370109
 20
25.33551057398163
 30
0.0
 11
55.795492588370109
 21
23.33551057398163
 31
0.0
  0
LINE
  5
8F
  8
3
 10
54.877992588359632
 20
24.25301057399211
 30
0.0
 11
54.877992588339303
 21
61.335510573981608
 31
0.0
  0
LINE
  5
90
  8
3
 10
54.877992588369992
 20
61.335510573928183
 30
0.0
 11
53.795492588370131
 21
63.210455573121259
 31
0.0
  0
LINE
  5
91
  8
3
 10
68.712992588370369
 20
61.335510573928183
 30
0.0
 11
69.795492588370124
 21
63.210455573121251
 31
0.0
  0
LINE
  5
92
  8
3
 10
68.712992588380587
 20
24.2530105739921
 30
0.0
 11
68.712992588401065
 21
61.335510573981608
 31
0.0
  0
LINE
  5
93
  8
0
 10
69.795492588370095
 20
25.33551057398163
 30
0.0
 11
67.795492588370109
 21
23.33551057398163
 31
0.0
  0
LINE
  5
94
  8
0
 10
61.795492588370116
 20
75.475827933923
 30
0.0
 11
61.795492588370116
 21
68.335510573981622
 31
0.0
  0
LINE
  5
95
  8
0
 10
73.795492588370124
 20
68.335510573981722
 30
0.0
 11
49.795492588370116
 21
68.335510573981736
 31
0.0
  0
LINE
  5
96
  8
0
 10
73.795492588370124
 20
76.214075019528835
 30
0.0
 11
73.795492588370124
 21
68.335510573981722
 31
0.0
  0
LINE
  5
97
  8
1
 10
78.795492588370209
 20
110.1767875524059
 30
0.0
 11
44.795492588370223
 21
110.1767875524059
 31
0.0
  0
LINE
  5
98
  8
1
 10
61.795492588370351
 20
129.0331940130325
 30
0.0
 11
61.795492588370067
 21
91.320381091930273
 31
0.0
  0
LINE
  5
99
  8
1
 10
61.795492588370131
 20
83.335510573981622
 30
0.0
 11
61.795492588370116
 21
18.33551057398163
 31
0.0
  0
LINE
  5
9A
  8
1
 10
120.1766598878331
 20
83.335510573981509
 30
0.0
 11
120.1766598878331
 21
18.335510573981502
 31
0.0
  0
TEXT
  5
216
  8
0
 62
     3
 10
0.0
 20
0.0
 30
0.0
 40
10.0
  1
BJ732-16055
  7
STANDARD1
  0
ENDSEC
  0
EOF
