  0
SECTION
  2
HEADER
  9
$ACADVER
  1
AC1009
  9
$INSBASE
 10
0.0
 20
0.0
 30
0.0
  9
$EXTMIN
 10
0.0
 20
-1.4802182810368341
 30
0.0
  9
$EXTMAX
 10
127.72875756529869
 20
109.03236422101681
 30
0.0
  9
$LIMMIN
 10
0.0
 20
0.0
  9
$LIMMAX
 10
187.5
 20
135.0
  9
$ORTHOMODE
 70
     1
  9
$REGENMODE
 70
     1
  9
$FILLMODE
 70
     1
  9
$QTEXTMODE
 70
     0
  9
$MIRRTEXT
 70
     0
  9
$DRAGMODE
 70
     2
  9
$LTSCALE
 40
5.0
  9
$OSMODE
 70
  3071
  9
$ATTMODE
 70
     1
  9
$TEXTSIZE
 40
0.2
  9
$TRACEWID
 40
0.05
  9
$TEXTSTYLE
  7
STANDARD
  9
$CLAYER
  8
0
  9
$CELTYPE
  6
BYLAYER
  9
$CECOLOR
 62
   256
  9
$DIMSCALE
 40
0.5
  9
$DIMASZ
 40
3.0
  9
$DIMEXO
 40
2.0
  9
$DIMDLI
 40
0.38
  9
$DIMRND
 40
0.0
  9
$DIMDLE
 40
0.0
  9
$DIMEXE
 40
2.0
  9
$DIMTP
 40
0.0
  9
$DIMTM
 40
0.0
  9
$DIMTXT
 40
3.2000000000000002
  9
$DIMCEN
 40
0.0
  9
$DIMTSZ
 40
0.0
  9
$DIMTOL
 70
     0
  9
$DIMLIM
 70
     0
  9
$DIMTIH
 70
     0
  9
$DIMTOH
 70
     0
  9
$DIMSE1
 70
     0
  9
$DIMSE2
 70
     0
  9
$DIMTAD
 70
     1
  9
$DIMZIN
 70
     0
  9
$DIMBLK
  1

  9
$DIMASO
 70
     0
  9
$DIMSHO
 70
     0
  9
$DIMPOST
  1

  9
$DIMAPOST
  1

  9
$DIMALT
 70
     0
  9
$DIMALTD
 70
     2
  9
$DIMALTF
 40
25.399999999999999
  9
$DIMLFAC
 40
1.0
  9
$DIMTOFL
 70
     1
  9
$DIMTVP
 40
1.6000000000000001
  9
$DIMTIX
 70
     1
  9
$DIMSOXD
 70
     0
  9
$DIMSAH
 70
     0
  9
$DIMBLK1
  1

  9
$DIMBLK2
  1

  9
$DIMSTYLE
  2
STANDARD
  9
$DIMCLRD
 70
     0
  9
$DIMCLRE
 70
     0
  9
$DIMCLRT
 70
     0
  9
$DIMTFAC
 40
1.0
  9
$DIMGAP
 40
0.09
  9
$LUNITS
 70
     2
  9
$LUPREC
 70
     4
  9
$SKETCHINC
 40
0.1
  9
$FILLETRAD
 40
0.0
  9
$AUNITS
 70
     0
  9
$AUPREC
 70
     4
  9
$MENU
  1
E:\r13\win\SUPPORT\ACAD
  9
$ELEVATION
 40
0.0
  9
$PELEVATION
 40
0.0
  9
$THICKNESS
 40
0.0
  9
$LIMCHECK
 70
     0
  9
$BLIPMODE
 70
     0
  9
$CHAMFERA
 40
0.0
  9
$CHAMFERB
 40
0.0
  9
$SKPOLY
 70
     0
  9
$TDCREATE
 40
2449839.7679166668
  9
$TDUPDATE
 40
2456597.6901782979
  9
$TDINDWG
 40
0.0008209144
  9
$TDUSRTIMER
 40
0.0008209144
  9
$USRTIMER
 70
     1
  9
$ANGBASE
 50
0.0
  9
$ANGDIR
 70
     0
  9
$PDMODE
 70
     0
  9
$PDSIZE
 40
0.0
  9
$PLINEWID
 40
0.0
  9
$COORDS
 70
     1
  9
$SPLFRAME
 70
     0
  9
$SPLINETYPE
 70
     6
  9
$SPLINESEGS
 70
     8
  9
$ATTDIA
 70
     0
  9
$ATTREQ
 70
     1
  9
$HANDLING
 70
     1
  9
$HANDSEED
  5
29F
  9
$SURFTAB1
 70
     6
  9
$SURFTAB2
 70
     6
  9
$SURFTYPE
 70
     6
  9
$SURFU
 70
     6
  9
$SURFV
 70
     6
  9
$UCSNAME
  2

  9
$UCSORG
 10
0.0
 20
0.0
 30
0.0
  9
$UCSXDIR
 10
1.0
 20
0.0
 30
0.0
  9
$UCSYDIR
 10
0.0
 20
1.0
 30
0.0
  9
$PUCSNAME
  2

  9
$PUCSORG
 10
0.0
 20
0.0
 30
0.0
  9
$PUCSXDIR
 10
1.0
 20
0.0
 30
0.0
  9
$PUCSYDIR
 10
0.0
 20
1.0
 30
0.0
  9
$USERI1
 70
     0
  9
$USERI2
 70
     1
  9
$USERI3
 70
     0
  9
$USERI4
 70
     0
  9
$USERI5
 70
     0
  9
$USERR1
 40
0.0
  9
$USERR2
 40
0.0
  9
$USERR3
 40
0.0
  9
$USERR4
 40
0.0
  9
$USERR5
 40
0.0
  9
$WORLDVIEW
 70
     1
  9
$SHADEDGE
 70
     3
  9
$SHADEDIF
 70
    70
  9
$TILEMODE
 70
     1
  9
$MAXACTVP
 70
    16
  9
$PLIMCHECK
 70
     0
  9
$PEXTMIN
 10
1.0000000000000000E+020
 20
1.0000000000000000E+020
 30
1.0000000000000000E+020
  9
$PEXTMAX
 10
-1.0000000000000000E+020
 20
-1.0000000000000000E+020
 30
-1.0000000000000000E+020
  9
$PLIMMIN
 10
0.0
 20
0.0
  9
$PLIMMAX
 10
12.0
 20
9.0
  9
$UNITMODE
 70
     0
  9
$VISRETAIN
 70
     0
  9
$PLINEGEN
 70
     0
  9
$PSLTSCALE
 70
     0
  0
ENDSEC
  0
SECTION
  2
TABLES
  0
TABLE
  2
VPORT
 70
     1
  0
VPORT
  2
*ACTIVE
 70
     0
 10
0.0
 20
0.0
 11
1.0
 21
1.0
 12
97.52905416604365
 22
66.75636307133405
 13
0.0
 23
0.0
 14
5.0
 24
5.0
 15
5.0
 25
5.0
 16
0.0
 26
0.0
 36
1.0
 17
0.0
 27
0.0
 37
0.0
 40
137.71137496815999
 41
1.831871345029239
 42
50.0
 43
0.0
 44
0.0
 50
0.0
 51
0.0
 71
     0
 72
   500
 73
     1
 74
     0
 75
     0
 76
     0
 77
     0
 78
     2
  0
ENDTAB
  0
TABLE
  2
LTYPE
 70
     4
  0
LTYPE
  2
CONTINUOUS
 70
     0
  3
Solid Line
 72
    65
 73
     0
 40
0.0
  0
LTYPE
  2
CENTER
 70
     0
  3
____ _ ____ _ ____ _ ____ _ ____ _ ____ _ ____
 72
    65
 73
     4
 40
2.0
 49
1.25
 49
-0.25
 49
0.25
 49
-0.25
  0
LTYPE
  2
HIDDEN
 70
     0
  3
_ _ _ _ _ _ _ _ _ _ _ _ _ _ _ _ _ _ _ _ _ _ _
 72
    65
 73
     2
 40
0.375
 49
0.25
 49
-0.125
  0
LTYPE
  2
PHANTOM2
 70
     0
  3
___ _ _ ___ _ _ ___ _ _ ___ _ _
 72
    65
 73
     6
 40
1.25
 49
0.625
 49
-0.125
 49
0.125
 49
-0.125
 49
0.125
 49
-0.125
  0
ENDTAB
  0
TABLE
  2
LAYER
 70
     4
  0
LAYER
  2
0
 70
     0
 62
     7
  6
CONTINUOUS
  0
LAYER
  2
1
 70
     0
 62
     1
  6
CENTER
  0
LAYER
  2
2
 70
     0
 62
     2
  6
HIDDEN
  0
LAYER
  2
3
 70
     0
 62
     3
  6
CONTINUOUS
  0
ENDTAB
  0
TABLE
  2
STYLE
 70
     2
  0
STYLE
  2
STANDARD
 70
     0
 40
0.0
 41
1.0
 50
0.0
 71
     0
 42
0.2
  3
TXT
  4
BIGFONT
  0
STYLE
  2
STANDARD1
 70
     0
 40
0.0
 41
1.0
 50
0.0
 71
     0
 42
3.0
  3
txt
  4

  0
ENDTAB
  0
TABLE
  2
VIEW
 70
     1
  0
VIEW
  2
ALL
 70
     0
 40
135.0
 10
110.4957983193277
 20
67.5
 41
0.0
 11
0.0
 21
0.0
 31
1.0
 12
0.0
 22
0.0
 32
0.0
 42
0.0
 43
0.0
 44
0.0
 50
0.0
 71
     0
  0
ENDTAB
  0
TABLE
  2
UCS
 70
     0
  0
ENDTAB
  0
TABLE
  2
APPID
 70
     3
  0
APPID
  2
ACAD
 70
     0
  0
APPID
  2
ACAD_MLEADERVER
 70
     0
  0
APPID
  2
ACAD_NAV_VCDISPLAY
 70
     0
  0
ENDTAB
  0
TABLE
  2
DIMSTYLE
 70
     1
  0
DIMSTYLE
  2
STANDARD
 70
     0
  3

  4

  5

  6

  7

 40
1.0
 41
0.18
 42
0.0625
 43
0.38
 44
0.18
 45
0.0
 46
0.0
 47
0.0
 48
0.0
140
0.18
141
0.09
142
0.0
143
25.399999999999999
144
1.0
145
0.0
146
1.0
147
0.09
 71
     0
 72
     0
 73
     1
 74
     1
 75
     0
 76
     0
 77
     0
 78
     0
170
     0
171
     2
172
     0
173
     0
174
     0
175
     0
176
     0
177
     0
178
     0
  0
ENDTAB
  0
ENDSEC
  0
SECTION
  2
BLOCKS
  0
BLOCK
  8
0
  2
$MODEL_SPACE
 70
     0
 10
0.0
 20
0.0
 30
0.0
  3
$MODEL_SPACE
  1

  0
ENDBLK
  5
153
  8
0
  0
BLOCK
 67
     1
  8
0
  2
$PAPER_SPACE
 70
     0
 10
0.0
 20
0.0
 30
0.0
  3
$PAPER_SPACE
  1

  0
ENDBLK
  5
151
 67
     1
  8
0
  0
ENDSEC
  0
SECTION
  2
ENTITIES
  0
CIRCLE
  5
40
  8
0
 10
81.554846235405279
 20
99.032364221016834
 30
0.0
 40
3.267949192431125
  0
LINE
  5
41
  8
1
 10
81.554846235405279
 20
89.032364221016834
 30
0.0
 11
81.554846235405279
 21
109.03236422101681
 31
0.0
  0
LINE
  5
42
  8
1
 10
71.554846235405293
 20
99.032364221016834
 30
0.0
 11
91.554846235405279
 21
99.032364221016834
 31
0.0
  0
CIRCLE
  5
43
  8
3
 10
81.554846235405279
 20
99.032364221016834
 30
0.0
 40
1.5
  0
LINE
  5
44
  8
0
 10
86.269588566016296
 20
100.69705781322691
 30
0.0
 11
81.554846235405279
 21
103.4191155669649
 31
0.0
  0
LINE
  5
45
  8
0
 10
86.269588566015926
 20
97.367670628806451
 30
0.0
 11
81.554846235405279
 21
94.645612875068693
 31
0.0
  0
ARC
  5
46
  8
0
 10
81.554846235405279
 20
99.032364221016834
 30
0.0
 40
5.0
 50
340.55275887228902
 51
19.447241127710171
  0
LINE
  5
47
  8
0
 10
76.84010390479429
 20
100.69705781322691
 30
0.0
 11
81.554846235405279
 21
103.4191155669649
 31
0.0
  0
ARC
  5
48
  8
0
 10
81.554846235405279
 20
99.032364221016834
 30
0.0
 40
5.0
 50
160.5527588722897
 51
199.44724112771101
  0
LINE
  5
49
  8
0
 10
76.84010390479466
 20
97.367670628806451
 30
0.0
 11
81.554846235405279
 21
94.645612875068693
 31
0.0
  0
CIRCLE
  5
4A
  8
0
 10
81.554846235405279
 20
99.032364221016834
 30
0.0
 40
1.0
  0
LINE
  5
4B
  8
0
 10
78.054846235404909
 20
46.768425372095969
 30
0.0
 11
85.054846235405279
 21
46.768425372095962
 31
0.0
  0
LINE
  5
4C
  8
0
 10
78.054846235405279
 20
55.568425372095952
 30
0.0
 11
85.054846235405279
 21
55.568425372095938
 31
0.0
  0
LINE
  5
4D
  8
0
 10
78.554846235405279
 20
56.4344507758804
 30
0.0
 11
84.554846235405265
 21
56.4344507758804
 31
0.0
  0
ARC
  5
4E
  8
0
 10
79.259900416377377
 20
63.7768490070479
 30
0.0
 40
2.5
 50
23.367705910394719
 51
94.704781025471561
  0
ARC
  5
4F
  8
0
 10
80.061449469139205
 20
62.397152980512402
 30
0.0
 40
4.0
 50
104.57522004713709
 51
143.64275495021559
  0
LINE
  5
50
  8
0
 10
76.840103904794674
 20
56.983167702706567
 30
0.0
 11
76.840103904794361
 21
64.768425372093731
 31
0.0
  0
LINE
  5
51
  8
3
 10
81.554846235405265
 20
56.76842537209594
 30
0.0
 11
76.840103904794702
 21
64.768425372094171
 31
0.0
  0
LINE
  5
52
  8
3
 10
76.840103904794702
 20
56.983167702706538
 30
0.0
 11
81.554846235405279
 21
64.768425372098235
 31
0.0
  0
LINE
  5
53
  8
2
 10
84.554846235405265
 20
56.868425372095963
 30
0.0
 11
84.554846235405265
 21
56.768425372095962
 31
0.0
  0
LINE
  5
54
  8
2
 10
85.854846235405134
 20
56.768425372095962
 30
0.0
 11
85.170425727403241
 21
57.205360800078672
 31
0.0
  0
ARC
  5
55
  8
2
 10
84.95484623540527
 20
56.868425372095963
 30
0.0
 40
0.4
 50
57.38789701872409
 51
180.0
  0
LINE
  5
56
  8
2
 10
78.554846235405279
 20
56.868425372095963
 30
0.0
 11
78.554846235405279
 21
56.768425372095962
 31
0.0
  0
LINE
  5
57
  8
0
 10
86.554846235405279
 20
57.268425372095962
 30
0.0
 11
86.554846235405279
 21
64.768425372095933
 31
0.0
  0
LINE
  5
58
  8
0
 10
86.554846235405279
 20
64.768425372095933
 30
0.0
 11
84.822795427836397
 21
67.768425372095962
 31
0.0
  0
LINE
  5
59
  8
0
 10
84.822795427836425
 20
67.768425372095962
 30
0.0
 11
78.286897042974161
 21
67.768425372095962
 31
0.0
  0
LINE
  5
5A
  8
0
 10
76.554846235405279
 20
64.768425372095933
 30
0.0
 11
78.286897042974161
 21
67.768425372095962
 31
0.0
  0
LINE
  5
5B
  8
0
 10
76.554846235405279
 20
64.768425372095933
 30
0.0
 11
76.554846235405279
 21
57.268425372095962
 31
0.0
  0
LINE
  5
5C
  8
0
 10
78.632196504594532
 20
45.768425372095962
 30
0.0
 11
84.477495966215997
 21
45.768425372095948
 31
0.0
  0
LINE
  5
5D
  8
0
 10
78.054846235405279
 20
55.568425372095952
 30
0.0
 11
78.554846235405279
 21
56.4344507758804
 31
0.0
  0
LINE
  5
5E
  8
0
 10
78.554846235405279
 20
56.434450775880379
 30
0.0
 11
78.554846235405279
 21
56.768425372095962
 31
0.0
  0
LINE
  5
5F
  8
0
 10
78.054846235405279
 20
55.568425372095973
 30
0.0
 11
78.054846235405279
 21
46.768425372095969
 31
0.0
  0
LINE
  5
60
  8
0
 10
85.054846235405279
 20
55.568425372095959
 30
0.0
 11
85.054846235405279
 21
46.768425372095962
 31
0.0
  0
LINE
  5
61
  8
0
 10
84.554846235405265
 20
56.434450775880379
 30
0.0
 11
84.554846235405265
 21
56.768425372095962
 31
0.0
  0
LINE
  5
62
  8
0
 10
85.054846235405279
 20
55.568425372095938
 30
0.0
 11
84.554846235405265
 21
56.434450775880393
 31
0.0
  0
LINE
  5
63
  8
1
 10
81.554846235405265
 20
40.768425372095948
 30
0.0
 11
81.554846235405279
 21
72.768425372095962
 31
0.0
  0
LINE
  5
64
  8
2
 10
77.254846235405424
 20
56.768425372095962
 30
0.0
 11
77.939266743407316
 21
57.205360800078672
 31
0.0
  0
ARC
  5
65
  8
2
 10
78.154846235405287
 20
56.868425372095963
 30
0.0
 40
0.4
 50
360.0
 51
122.6121029812758
  0
LINE
  5
66
  8
0
 10
77.054846235405265
 20
56.768425372095962
 30
0.0
 11
86.054846235405279
 21
56.768425372095962
 31
0.0
  0
LINE
  5
67
  8
0
 10
86.054846235405279
 20
56.768425372095962
 30
0.0
 11
86.554846235405279
 21
57.268425372095962
 31
0.0
  0
LINE
  5
68
  8
0
 10
76.554846235405279
 20
57.268425372095962
 30
0.0
 11
77.054846235405265
 21
56.768425372095962
 31
0.0
  0
LINE
  5
69
  8
0
 10
84.477495966216026
 20
45.768425372095948
 30
0.0
 11
85.054846235405648
 21
46.768425372095962
 31
0.0
  0
LINE
  5
6A
  8
0
 10
78.632196504594532
 20
45.768425372095962
 30
0.0
 11
78.054846235404909
 21
46.768425372095969
 31
0.0
  0
LINE
  5
6B
  8
0
 10
81.554846235405279
 20
56.768425372095962
 30
0.0
 11
81.55484623540562
 21
64.768425372093731
 31
0.0
  0
ARC
  5
6C
  8
0
 10
83.849792054433181
 20
63.7768490070479
 30
0.0
 40
2.5
 50
85.29521897452841
 51
156.63229408960521
  0
LINE
  5
6D
  8
0
 10
86.269588566015884
 20
56.983167702706567
 30
0.0
 11
86.269588566016196
 21
64.768425372093731
 31
0.0
  0
ARC
  5
6E
  8
0
 10
83.048243001671352
 20
62.397152980512402
 30
0.0
 40
4.0
 50
36.357245049784368
 51
75.424779952862849
  0
LINE
  5
6F
  8
3
 10
81.554846235405279
 20
56.76842537209594
 30
0.0
 11
86.269588566015855
 21
64.768425372094171
 31
0.0
  0
LINE
  5
70
  8
3
 10
86.269588566015855
 20
56.983167702706538
 30
0.0
 11
81.554846235405279
 21
64.768425372098235
 31
0.0
  0
LINE
  5
71
  8
0
 10
119.84200621933989
 20
46.768425372095997
 30
0.0
 11
126.84200621934021
 21
46.768425372095997
 31
0.0
  0
LINE
  5
72
  8
0
 10
119.84200621934021
 20
55.568425372096009
 30
0.0
 11
126.84200621934021
 21
55.568425372096009
 31
0.0
  0
LINE
  5
73
  8
0
 10
120.34200621934031
 20
56.434450775880443
 30
0.0
 11
126.34200621934031
 21
56.434450775880492
 31
0.0
  0
LINE
  5
74
  8
2
 10
126.34200621934031
 20
56.868425372096027
 30
0.0
 11
126.34200621934031
 21
56.768425372095997
 31
0.0
  0
LINE
  5
75
  8
2
 10
127.6420062193402
 20
56.768425372095997
 30
0.0
 11
126.9575857113383
 21
57.205360800078687
 31
0.0
  0
ARC
  5
76
  8
2
 10
126.7420062193403
 20
56.868425372096027
 30
0.0
 40
0.4
 50
57.38789701872409
 51
180.0
  0
LINE
  5
77
  8
2
 10
120.34200621934031
 20
56.868425372096027
 30
0.0
 11
120.34200621934031
 21
56.768425372095997
 31
0.0
  0
LINE
  5
78
  8
0
 10
120.4193564885295
 20
45.768425372095997
 30
0.0
 11
126.264655950151
 21
45.768425372095997
 31
0.0
  0
LINE
  5
79
  8
0
 10
119.84200621934021
 20
55.568425372096009
 30
0.0
 11
120.34200621934031
 21
56.434450775880443
 31
0.0
  0
LINE
  5
7A
  8
0
 10
120.34200621934031
 20
56.434450775880443
 30
0.0
 11
120.34200621934031
 21
56.768425372095997
 31
0.0
  0
LINE
  5
7B
  8
0
 10
119.84200621934021
 20
55.568425372096009
 30
0.0
 11
119.84200621934021
 21
46.768425372095997
 31
0.0
  0
LINE
  5
7C
  8
0
 10
126.84200621934021
 20
55.568425372096009
 30
0.0
 11
126.84200621934021
 21
46.768425372095997
 31
0.0
  0
LINE
  5
7D
  8
0
 10
126.34200621934031
 20
56.434450775880443
 30
0.0
 11
126.34200621934031
 21
56.768425372095997
 31
0.0
  0
LINE
  5
7E
  8
0
 10
126.84200621934021
 20
55.568425372096009
 30
0.0
 11
126.34200621934031
 21
56.434450775880443
 31
0.0
  0
LINE
  5
7F
  8
1
 10
123.34200621934021
 20
40.768425372095997
 30
0.0
 11
123.34200621934031
 21
72.768425372096004
 31
0.0
  0
LINE
  5
80
  8
2
 10
119.04200621934039
 20
56.768425372095997
 30
0.0
 11
119.7264267273423
 21
57.205360800078687
 31
0.0
  0
ARC
  5
81
  8
2
 10
119.9420062193403
 20
56.868425372096027
 30
0.0
 40
0.4
 50
360.0
 51
122.6121029812758
  0
LINE
  5
82
  8
0
 10
118.95525487339209
 20
56.76842537209594
 30
0.0
 11
127.72875756528821
 21
56.76842537209594
 31
0.0
  0
LINE
  5
83
  8
0
 10
126.264655950151
 20
45.768425372095997
 30
0.0
 11
126.8420062193406
 21
46.768425372095997
 31
0.0
  0
LINE
  5
84
  8
0
 10
120.4193564885295
 20
45.768425372095997
 30
0.0
 11
119.84200621933989
 21
46.768425372095997
 31
0.0
  0
LINE
  5
85
  8
0
 10
121.6773126271296
 20
64.768425371786037
 30
0.0
 11
125.0066998115508
 21
64.768425371832294
 31
0.0
  0
LINE
  5
86
  8
0
 10
125.0066998115508
 20
64.768425371832294
 30
0.0
 11
125.0066998115507
 21
56.768425372095997
 31
0.0
  0
LINE
  5
87
  8
0
 10
127.72875756528821
 20
65.830603198587227
 30
0.0
 11
127.72875756528821
 21
56.76842537209594
 31
0.0
  0
ARC
  5
88
  8
0
 10
126.801934671813
 20
64.453754268485483
 30
0.0
 40
1.8226042101269719
 50
95.347745621952996
 51
170.05811676351391
  0
ARC
  5
89
  8
0
 10
126.7524618185294
 20
64.977551027005887
 30
0.0
 40
1.29647652989504
 50
41.14579466723481
 51
95.328322776835762
  0
LINE
  5
8A
  8
3
 10
125.0066998115508
 20
64.768425371812071
 30
0.0
 11
127.72875756528821
 21
56.76842537209594
 31
0.0
  0
LINE
  5
8B
  8
3
 10
125.0066998115507
 20
56.768425372095891
 30
0.0
 11
127.72875756529869
 21
65.830603198569094
 31
0.0
  0
LINE
  5
8C
  8
3
 10
121.6773126271295
 20
56.76842537209594
 30
0.0
 11
118.955254873383
 21
65.830603198571424
 31
0.0
  0
LINE
  5
8D
  8
3
 10
121.67731262713571
 20
64.768425371786037
 30
0.0
 11
118.95525487339221
 21
56.76842537209594
 31
0.0
  0
ARC
  5
8E
  8
0
 10
119.931550620151
 20
64.977551027005887
 30
0.0
 40
1.29647652989504
 50
84.67167722316421
 51
138.8542053327651
  0
ARC
  5
8F
  8
0
 10
119.8820777668674
 20
64.453754268485483
 30
0.0
 40
1.8226042101269719
 50
9.9418832364859622
 51
84.652254378046948
  0
LINE
  5
90
  8
0
 10
121.6773126271296
 20
64.768425371786037
 30
0.0
 11
121.6773126271295
 21
56.768425372095997
 31
0.0
  0
LINE
  5
91
  8
0
 10
118.95525487339221
 20
65.830603198587227
 30
0.0
 11
118.95525487339221
 21
56.76842537209594
 31
0.0
  0
LINE
  5
92
  8
0
 10
118.95525487339221
 20
65.830603198587227
 30
0.0
 11
120.074057026909
 21
67.768425372096061
 31
0.0
  0
LINE
  5
93
  8
0
 10
126.6099554117714
 20
67.768425372096061
 30
0.0
 11
120.074057026909
 21
67.768425372096061
 31
0.0
  0
LINE
  5
94
  8
0
 10
127.72875756528821
 20
65.830603198587227
 30
0.0
 11
126.6099554117713
 21
67.768425372096061
 31
0.0
  0
TEXT
  5
20E
  8
0
 62
     3
 10
0.0
 20
0.0
 30
0.0
 40
5.0
  1
BJ723-10021
  7
STANDARD1
  0
ENDSEC
  0
EOF
