  0
SECTION
  2
HEADER
  9
$ACADVER
  1
AC1009
  9
$INSBASE
 10
0.0
 20
0.0
 30
0.0
  9
$EXTMIN
 10
0.0
 20
-2.960436562073669
 30
0.0
  9
$EXTMAX
 10
179.5577713833876
 20
124.63740728532559
 30
0.0
  9
$LIMMIN
 10
0.0
 20
0.0
  9
$LIMMAX
 10
375.0
 20
270.0
  9
$ORTHOMODE
 70
     0
  9
$REGENMODE
 70
     1
  9
$FILLMODE
 70
     1
  9
$QTEXTMODE
 70
     0
  9
$MIRRTEXT
 70
     0
  9
$DRAGMODE
 70
     2
  9
$LTSCALE
 40
10.0
  9
$OSMODE
 70
  3071
  9
$ATTMODE
 70
     1
  9
$TEXTSIZE
 40
0.2
  9
$TRACEWID
 40
0.05
  9
$TEXTSTYLE
  7
STANDARD
  9
$CLAYER
  8
0
  9
$CELTYPE
  6
BYLAYER
  9
$CECOLOR
 62
   256
  9
$DIMSCALE
 40
1.0
  9
$DIMASZ
 40
3.0
  9
$DIMEXO
 40
2.0
  9
$DIMDLI
 40
0.38
  9
$DIMRND
 40
0.0
  9
$DIMDLE
 40
0.0
  9
$DIMEXE
 40
2.0
  9
$DIMTP
 40
0.0
  9
$DIMTM
 40
0.0
  9
$DIMTXT
 40
3.2000000000000002
  9
$DIMCEN
 40
0.0
  9
$DIMTSZ
 40
0.0
  9
$DIMTOL
 70
     0
  9
$DIMLIM
 70
     0
  9
$DIMTIH
 70
     0
  9
$DIMTOH
 70
     0
  9
$DIMSE1
 70
     0
  9
$DIMSE2
 70
     0
  9
$DIMTAD
 70
     1
  9
$DIMZIN
 70
     0
  9
$DIMBLK
  1

  9
$DIMASO
 70
     0
  9
$DIMSHO
 70
     0
  9
$DIMPOST
  1

  9
$DIMAPOST
  1

  9
$DIMALT
 70
     0
  9
$DIMALTD
 70
     2
  9
$DIMALTF
 40
25.399999999999999
  9
$DIMLFAC
 40
1.0
  9
$DIMTOFL
 70
     1
  9
$DIMTVP
 40
1.6000000000000001
  9
$DIMTIX
 70
     1
  9
$DIMSOXD
 70
     0
  9
$DIMSAH
 70
     0
  9
$DIMBLK1
  1

  9
$DIMBLK2
  1

  9
$DIMSTYLE
  2
STANDARD
  9
$DIMCLRD
 70
     0
  9
$DIMCLRE
 70
     0
  9
$DIMCLRT
 70
     0
  9
$DIMTFAC
 40
1.0
  9
$DIMGAP
 40
0.09
  9
$LUNITS
 70
     2
  9
$LUPREC
 70
     4
  9
$SKETCHINC
 40
0.1
  9
$FILLETRAD
 40
0.0
  9
$AUNITS
 70
     0
  9
$AUPREC
 70
     4
  9
$MENU
  1
E:\r13\win\SUPPORT\ACAD
  9
$ELEVATION
 40
0.0
  9
$PELEVATION
 40
0.0
  9
$THICKNESS
 40
0.0
  9
$LIMCHECK
 70
     0
  9
$BLIPMODE
 70
     0
  9
$CHAMFERA
 40
0.0
  9
$CHAMFERB
 40
0.0
  9
$SKPOLY
 70
     0
  9
$TDCREATE
 40
2449840.6513888892
  9
$TDUPDATE
 40
2456597.682762871
  9
$TDINDWG
 40
0.0249392593
  9
$TDUSRTIMER
 40
0.0249392593
  9
$USRTIMER
 70
     1
  9
$ANGBASE
 50
0.0
  9
$ANGDIR
 70
     0
  9
$PDMODE
 70
     0
  9
$PDSIZE
 40
0.0
  9
$PLINEWID
 40
0.0
  9
$COORDS
 70
     1
  9
$SPLFRAME
 70
     0
  9
$SPLINETYPE
 70
     6
  9
$SPLINESEGS
 70
     8
  9
$ATTDIA
 70
     0
  9
$ATTREQ
 70
     1
  9
$HANDLING
 70
     1
  9
$HANDSEED
  5
A65
  9
$SURFTAB1
 70
     6
  9
$SURFTAB2
 70
     6
  9
$SURFTYPE
 70
     6
  9
$SURFU
 70
     6
  9
$SURFV
 70
     6
  9
$UCSNAME
  2

  9
$UCSORG
 10
0.0
 20
0.0
 30
0.0
  9
$UCSXDIR
 10
1.0
 20
0.0
 30
0.0
  9
$UCSYDIR
 10
0.0
 20
1.0
 30
0.0
  9
$PUCSNAME
  2

  9
$PUCSORG
 10
0.0
 20
0.0
 30
0.0
  9
$PUCSXDIR
 10
1.0
 20
0.0
 30
0.0
  9
$PUCSYDIR
 10
0.0
 20
1.0
 30
0.0
  9
$USERI1
 70
     0
  9
$USERI2
 70
     1
  9
$USERI3
 70
     0
  9
$USERI4
 70
     0
  9
$USERI5
 70
     0
  9
$USERR1
 40
0.0
  9
$USERR2
 40
0.0
  9
$USERR3
 40
0.0
  9
$USERR4
 40
0.0
  9
$USERR5
 40
0.0
  9
$WORLDVIEW
 70
     1
  9
$SHADEDGE
 70
     3
  9
$SHADEDIF
 70
    70
  9
$TILEMODE
 70
     1
  9
$MAXACTVP
 70
    16
  9
$PLIMCHECK
 70
     0
  9
$PEXTMIN
 10
1.0000000000000000E+020
 20
1.0000000000000000E+020
 30
1.0000000000000000E+020
  9
$PEXTMAX
 10
-1.0000000000000000E+020
 20
-1.0000000000000000E+020
 30
-1.0000000000000000E+020
  9
$PLIMMIN
 10
0.0
 20
0.0
  9
$PLIMMAX
 10
12.0
 20
9.0
  9
$UNITMODE
 70
     0
  9
$VISRETAIN
 70
     0
  9
$PLINEGEN
 70
     0
  9
$PSLTSCALE
 70
     0
  0
ENDSEC
  0
SECTION
  2
TABLES
  0
TABLE
  2
VPORT
 70
     1
  0
VPORT
  2
*ACTIVE
 70
     0
 10
0.0
 20
0.0
 11
1.0
 21
1.0
 12
195.0581083320873
 22
133.5127261426681
 13
0.0
 23
0.0
 14
5.0
 24
5.0
 15
10.0
 25
10.0
 16
0.0
 26
0.0
 36
1.0
 17
0.0
 27
0.0
 37
0.0
 40
275.42274993631997
 41
1.831871345029239
 42
50.0
 43
0.0
 44
0.0
 50
0.0
 51
0.0
 71
     0
 72
   500
 73
     1
 74
     0
 75
     0
 76
     0
 77
     0
 78
     2
  0
ENDTAB
  0
TABLE
  2
LTYPE
 70
     4
  0
LTYPE
  2
CONTINUOUS
 70
     0
  3
Solid Line
 72
    65
 73
     0
 40
0.0
  0
LTYPE
  2
CENTER
 70
     0
  3
____ _ ____ _ ____ _ ____ _ ____ _ ____ _ ____
 72
    65
 73
     4
 40
2.0
 49
1.25
 49
-0.25
 49
0.25
 49
-0.25
  0
LTYPE
  2
HIDDEN
 70
     0
  3
_ _ _ _ _ _ _ _ _ _ _ _ _ _ _ _ _ _ _ _ _ _ _
 72
    65
 73
     2
 40
0.375
 49
0.25
 49
-0.125
  0
LTYPE
  2
PHANTOM2
 70
     0
  3
___ _ _ ___ _ _ ___ _ _ ___ _ _
 72
    65
 73
     6
 40
1.25
 49
0.625
 49
-0.125
 49
0.125
 49
-0.125
 49
0.125
 49
-0.125
  0
ENDTAB
  0
TABLE
  2
LAYER
 70
     4
  0
LAYER
  2
0
 70
     0
 62
     7
  6
CONTINUOUS
  0
LAYER
  2
1
 70
     0
 62
     1
  6
CENTER
  0
LAYER
  2
3
 70
     0
 62
     3
  6
CONTINUOUS
  0
LAYER
  2
2
 70
     0
 62
     2
  6
HIDDEN
  0
ENDTAB
  0
TABLE
  2
STYLE
 70
     2
  0
STYLE
  2
STANDARD
 70
     0
 40
0.0
 41
1.0
 50
0.0
 71
     0
 42
0.2
  3
TXT
  4
BIGFONT
  0
STYLE
  2
STANDARD1
 70
     0
 40
0.0
 41
1.0
 50
0.0
 71
     0
 42
3.0
  3
txt
  4

  0
ENDTAB
  0
TABLE
  2
VIEW
 70
     1
  0
VIEW
  2
ALL
 70
     0
 40
270.0
 10
220.99159663865549
 20
135.0
 41
0.0
 11
0.0
 21
0.0
 31
1.0
 12
0.0
 22
0.0
 32
0.0
 42
0.0
 43
0.0
 44
0.0
 50
0.0
 71
     0
  0
ENDTAB
  0
TABLE
  2
UCS
 70
     0
  0
ENDTAB
  0
TABLE
  2
APPID
 70
     4
  0
APPID
  2
ACAD
 70
     0
  0
APPID
  2
_CALL_MAC$
 70
     0
  0
APPID
  2
ACAD_MLEADERVER
 70
     0
  0
APPID
  2
ACAD_NAV_VCDISPLAY
 70
     0
  0
ENDTAB
  0
TABLE
  2
DIMSTYLE
 70
     1
  0
DIMSTYLE
  2
STANDARD
 70
     0
  3

  4

  5

  6

  7

 40
1.0
 41
0.18
 42
0.0625
 43
0.38
 44
0.18
 45
0.0
 46
0.0
 47
0.0
 48
0.0
140
0.18
141
0.09
142
0.0
143
25.399999999999999
144
1.0
145
0.0
146
1.0
147
0.09
 71
     0
 72
     0
 73
     1
 74
     1
 75
     0
 76
     0
 77
     0
 78
     0
170
     0
171
     2
172
     0
173
     0
174
     0
175
     0
176
     0
177
     0
178
     0
  0
ENDTAB
  0
ENDSEC
  0
SECTION
  2
BLOCKS
  0
BLOCK
  8
0
  2
$MODEL_SPACE
 70
     0
 10
0.0
 20
0.0
 30
0.0
  3
$MODEL_SPACE
  1

  0
ENDBLK
  5
6E2
  8
0
  0
BLOCK
 67
     1
  8
0
  2
$PAPER_SPACE
 70
     0
 10
0.0
 20
0.0
 30
0.0
  3
$PAPER_SPACE
  1

  0
ENDBLK
  5
6E0
 67
     1
  8
0
  0
BLOCK
  8
0
  2
STDGX5
 70
     0
 10
0.0
 20
0.0
 30
0.0
  3
STDGX5
  1

  0
ENDBLK
  5
2C7
  8
0
  0
ENDSEC
  0
SECTION
  2
ENTITIES
  0
INSERT
  5
364
  8
0
  2
STDGX5
 10
0.0
 20
0.0
 30
0.0
  0
INSERT
  5
365
  8
0
  2
STDGX5
 10
0.0
 20
0.0
 30
0.0
  0
INSERT
  5
366
  8
0
  2
STDGX5
 10
275.0
 20
0.0
 30
0.0
  0
INSERT
  5
367
  8
0
  2
STDGX5
 10
275.0
 20
0.0
 30
0.0
  0
INSERT
  5
4ED
  8
0
  2
STDGX5
 10
0.0
 20
0.0
 30
0.0
  0
INSERT
  5
4EE
  8
0
  2
STDGX5
 10
0.0
 20
0.0
 30
0.0
  0
INSERT
  5
4EF
  8
0
  2
STDGX5
 10
275.0
 20
0.0
 30
0.0
  0
INSERT
  5
4F0
  8
0
  2
STDGX5
 10
275.0
 20
0.0
 30
0.0
  0
INSERT
  5
500
  8
0
  2
STDGX5
 10
471.79233269980392
 20
233.9519585625761
 30
0.0
  0
INSERT
  5
501
  8
0
  2
STDGX5
 10
471.79233269980392
 20
233.9519585625761
 30
0.0
  0
INSERT
  5
502
  8
0
  2
STDGX5
 10
471.79233269980392
 20
233.9519585625761
 30
0.0
  0
INSERT
  5
503
  8
0
  2
STDGX5
 10
471.79233269980392
 20
233.9519585625761
 30
0.0
  0
INSERT
  5
67F
  8
0
  2
STDGX5
 10
0.0
 20
0.0
 30
0.0
  0
INSERT
  5
680
  8
0
  2
STDGX5
 10
0.0
 20
0.0
 30
0.0
  0
INSERT
  5
681
  8
0
  2
STDGX5
 10
275.0
 20
0.0
 30
0.0
  0
INSERT
  5
682
  8
0
  2
STDGX5
 10
275.0
 20
0.0
 30
0.0
  0
INSERT
  5
692
  8
0
  2
STDGX5
 10
471.79233269980392
 20
233.9519585625761
 30
0.0
  0
INSERT
  5
693
  8
0
  2
STDGX5
 10
471.79233269980392
 20
233.9519585625761
 30
0.0
  0
INSERT
  5
694
  8
0
  2
STDGX5
 10
471.79233269980392
 20
233.9519585625761
 30
0.0
  0
INSERT
  5
695
  8
0
  2
STDGX5
 10
471.79233269980392
 20
233.9519585625761
 30
0.0
  0
INSERT
  5
698
  8
0
  2
STDGX5
 10
625.17172490477549
 20
209.60057380630951
 30
0.0
  0
INSERT
  5
699
  8
0
  2
STDGX5
 10
625.17172490477549
 20
209.60057380630951
 30
0.0
  0
INSERT
  5
69A
  8
0
  2
STDGX5
 10
625.17172490477549
 20
209.60057380630951
 30
0.0
  0
INSERT
  5
69B
  8
0
  2
STDGX5
 10
625.17172490477549
 20
209.60057380630951
 30
0.0
  0
INSERT
  5
69C
  8
0
  2
STDGX5
 10
611.48701390477561
 20
209.6279228063095
 30
0.0
 41
0.1
 42
0.1
 43
0.1
  0
INSERT
  5
69D
  8
0
  2
STDGX5
 10
611.48701390477561
 20
209.6279228063095
 30
0.0
 41
0.1
 42
0.1
 43
0.1
  0
INSERT
  5
69E
  8
0
  2
STDGX5
 10
611.48701390477561
 20
209.6279228063095
 30
0.0
 41
0.1
 42
0.1
 43
0.1
  0
LINE
  5
815
  8
0
 10
96.557771383387589
 20
31.63740728532558
 30
0.0
 11
96.557771383387603
 21
57.63740728532558
 31
0.0
  0
LINE
  5
816
  8
0
 10
108.5577713833876
 20
31.63740728532558
 30
0.0
 11
96.557771383387603
 21
31.63740728532558
 31
0.0
  0
LINE
  5
817
  8
0
 10
108.5577713833876
 20
57.63740728532558
 30
0.0
 11
108.5577713833876
 21
31.63740728532558
 31
0.0
  0
LINE
  5
818
  8
0
 10
96.557771383387603
 20
57.63740728532558
 30
0.0
 11
108.5577713833876
 21
57.63740728532558
 31
0.0
  0
LINE
  5
819
  8
0
 10
80.978929223778323
 20
54.13740728532558
 30
0.0
 11
81.557771383387603
 21
54.13740728532558
 31
0.0
  0
LINE
  5
81A
  8
0
 10
74.557771383387603
 20
51.63740728532558
 30
0.0
 11
81.557771383387603
 21
51.63740728532558
 31
0.0
  0
LINE
  5
81B
  8
0
 10
80.978929223778323
 20
49.13740728532558
 30
0.0
 11
81.557771383387603
 21
49.13740728532558
 31
0.0
  0
LINE
  5
81C
  8
0
 10
111.6557843833875
 20
57.410910285325578
 30
0.0
 11
109.0644183833875
 21
57.410910285325578
 31
0.0
  0
LINE
  5
81D
  8
0
 10
111.6557843833875
 20
54.524158285325584
 30
0.0
 11
109.0644183833875
 21
54.524158285325584
 31
0.0
  0
LINE
  5
81E
  8
0
 10
111.6557843833875
 20
48.750656285325569
 30
0.0
 11
109.0644183833875
 21
48.750656285325569
 31
0.0
  0
LINE
  5
81F
  8
0
 10
111.6557843833875
 20
45.863904285325567
 30
0.0
 11
109.0644183833875
 21
45.863904285325567
 31
0.0
  0
LINE
  5
820
  8
0
 10
111.6557843833875
 20
45.863904285325567
 30
0.0
 11
112.1601013833875
 21
46.737407285325567
 31
0.0
  0
LINE
  5
821
  8
0
 10
111.6557843833875
 20
57.410910285325578
 30
0.0
 11
112.1601013833875
 21
56.537407285325578
 31
0.0
  0
ARC
  5
822
  8
0
 10
109.8424433833875
 20
47.307280285325568
 30
0.0
 40
2.3176580000000002
 50
0.0
 51
38.518939000000238
  0
ARC
  5
823
  8
0
 10
109.8424433833875
 20
55.967534285325577
 30
0.0
 40
2.3176580000000002
 50
321.48106099999973
 51
0.0
  0
LINE
  5
824
  8
0
 10
112.1601013833875
 20
56.537407285325578
 30
0.0
 11
112.1601013833875
 21
46.737407285325567
 31
0.0
  0
ARC
  5
825
  8
0
 10
103.6851013833875
 20
51.63740728532558
 30
0.0
 40
8.4773300000000003
 50
340.09107500000073
 51
19.908924999999261
  0
ARC
  5
826
  8
0
 10
117.0351013833875
 20
51.63740728532558
 30
0.0
 40
8.4773300000000003
 50
160.0910750000007
 51
199.9089249999993
  0
LINE
  5
827
  8
0
 10
108.5601013833875
 20
56.537407285325578
 30
0.0
 11
108.5601013833875
 21
46.737407285325567
 31
0.0
  0
ARC
  5
828
  8
0
 10
110.8777593833875
 20
55.967534285325577
 30
0.0
 40
2.3176580000000002
 50
180.0
 51
218.51893900000019
  0
ARC
  5
829
  8
0
 10
110.8777593833875
 20
47.307280285325568
 30
0.0
 40
2.3176580000000002
 50
141.48106099999981
 51
180.0
  0
LINE
  5
82A
  8
0
 10
109.0644183833875
 20
57.410910285325578
 30
0.0
 11
108.5601013833875
 21
56.537407285325578
 31
0.0
  0
LINE
  5
82B
  8
0
 10
109.0644183833875
 20
45.863904285325567
 30
0.0
 11
108.5601013833875
 21
46.737407285325567
 31
0.0
  0
LINE
  5
82C
  8
0
 10
112.1601013833875
 20
48.63740728532558
 30
0.0
 11
121.5577713833876
 21
48.63740728532558
 31
0.0
  0
LINE
  5
82E
  8
1
 10
87.557771383387603
 20
51.63740728532558
 30
0.0
 11
69.557771383387603
 21
51.63740728532558
 31
0.0
  0
LINE
  5
82F
  8
0
 10
80.978929223778366
 20
54.13740728532558
 30
0.0
 11
80.978929223778366
 21
49.137407285325551
 31
0.0
  0
LINE
  5
830
  8
0
 10
80.112903819993903
 20
53.63740728532558
 30
0.0
 11
80.112903819993846
 21
49.63740728532558
 31
0.0
  0
LINE
  5
831
  8
0
 10
78.557771383387603
 20
53.63740728532558
 30
0.0
 11
78.557771383387603
 21
49.63740728532558
 31
0.0
  0
LINE
  5
832
  8
0
 10
78.557771383387603
 20
49.63740728532558
 30
0.0
 11
80.112903819993846
 21
49.63740728532558
 31
0.0
  0
LINE
  5
833
  8
0
 10
78.557771383387603
 20
53.63740728532558
 30
0.0
 11
80.112903819993903
 21
53.63740728532558
 31
0.0
  0
LINE
  5
834
  8
0
 10
80.112903819993903
 20
49.637407285325551
 30
0.0
 11
80.978929223778366
 21
49.137407285325551
 31
0.0
  0
LINE
  5
835
  8
0
 10
80.112903819993903
 20
53.63740728532558
 30
0.0
 11
80.978929223778366
 21
54.13740728532558
 31
0.0
  0
ARC
  5
836
  8
0
 10
77.057771383387603
 20
51.63740728532558
 30
0.0
 40
2.5
 50
53.130102354156641
 51
306.86989764584342
  0
LINE
  5
837
  8
0
 10
81.557771383387603
 20
47.330227608360801
 30
0.0
 11
81.957771383392242
 21
46.63740728532558
 31
0.0
  0
LINE
  5
838
  8
0
 10
81.957771383392242
 20
46.63740728532558
 30
0.0
 11
82.557771383387617
 21
46.63740728532558
 31
0.0
  0
LINE
  5
839
  8
0
 10
121.5577713833876
 20
48.63740728532558
 30
0.0
 11
122.5577713833876
 21
49.63740728532558
 31
0.0
  0
LINE
  5
83A
  8
3
 10
112.1601013833875
 20
49.137407285325551
 30
0.0
 11
122.0577713833876
 21
49.13740728532558
 31
0.0
  0
LINE
  5
83B
  8
0
 10
121.5577713833876
 20
54.63740728532558
 30
0.0
 11
121.5577713833876
 21
48.63740728532558
 31
0.0
  0
LINE
  5
83C
  8
0
 10
122.5577713833876
 20
53.63740728532558
 30
0.0
 11
122.5577713833876
 21
49.63740728532558
 31
0.0
  0
LINE
  5
83D
  8
0
 10
81.957771383391787
 20
56.63740728532558
 30
0.0
 11
81.957771383392242
 21
46.63740728532558
 31
0.0
  0
LINE
  5
83E
  8
0
 10
81.557771383387603
 20
55.944586962290359
 30
0.0
 11
81.557771383387603
 21
47.330227608360801
 31
0.0
  0
LINE
  5
83F
  8
3
 10
112.1601013833875
 20
54.137407285325551
 30
0.0
 11
122.0577713833876
 21
54.13740728532558
 31
0.0
  0
LINE
  5
840
  8
0
 10
121.5577713833876
 20
54.63740728532558
 30
0.0
 11
122.5577713833876
 21
53.63740728532558
 31
0.0
  0
LINE
  5
841
  8
0
 10
112.1601013833875
 20
54.637407285325551
 30
0.0
 11
121.5577713833876
 21
54.63740728532558
 31
0.0
  0
LINE
  5
842
  8
0
 10
81.957771383392242
 20
56.63740728532558
 30
0.0
 11
82.557771383387617
 21
56.63740728532558
 31
0.0
  0
LINE
  5
843
  8
0
 10
81.557771383387603
 20
55.944586962290359
 30
0.0
 11
81.957771383392242
 21
56.63740728532558
 31
0.0
  0
LINE
  5
844
  8
1
 10
78.557771383387603
 20
51.63740728532558
 30
0.0
 11
127.5577713833876
 21
51.63740728532558
 31
0.0
  0
LINE
  5
847
  8
0
 10
80.978929223778366
 20
106.13740728532559
 30
0.0
 11
80.978929223778366
 21
101.13740728532549
 31
0.0
  0
LINE
  5
848
  8
0
 10
80.112903819993903
 20
105.63740728532559
 30
0.0
 11
80.112903819993846
 21
101.63740728532559
 31
0.0
  0
LINE
  5
849
  8
0
 10
78.557771383387603
 20
105.63740728532559
 30
0.0
 11
78.557771383387603
 21
101.63740728532559
 31
0.0
  0
LINE
  5
84A
  8
0
 10
78.557771383387603
 20
101.63740728532559
 30
0.0
 11
80.112903819993846
 21
101.63740728532559
 31
0.0
  0
LINE
  5
84B
  8
0
 10
78.557771383387603
 20
105.63740728532559
 30
0.0
 11
80.112903819993903
 21
105.63740728532559
 31
0.0
  0
LINE
  5
84C
  8
0
 10
80.112903819993903
 20
101.63740728532549
 30
0.0
 11
80.978929223778366
 21
101.13740728532549
 31
0.0
  0
LINE
  5
84D
  8
0
 10
80.112903819993903
 20
105.63740728532559
 30
0.0
 11
80.978929223778366
 21
106.13740728532559
 31
0.0
  0
ARC
  5
84E
  8
0
 10
77.057771383387603
 20
103.63740728532559
 30
0.0
 40
2.5
 50
53.130102354156641
 51
306.86989764584342
  0
LINE
  5
84F
  8
0
 10
112.1601013833876
 20
100.63740728532549
 30
0.0
 11
121.5577713833876
 21
100.63740728532559
 31
0.0
  0
LINE
  5
850
  8
0
 10
112.1601013833876
 20
106.63740728532549
 30
0.0
 11
121.5577713833876
 21
106.63740728532559
 31
0.0
  0
LINE
  5
851
  8
0
 10
81.557771383387603
 20
99.330227608360815
 30
0.0
 11
81.957771383392242
 21
98.637407285325594
 31
0.0
  0
LINE
  5
852
  8
0
 10
81.957771383392242
 20
98.637407285325594
 30
0.0
 11
82.557771383387617
 21
98.637407285325594
 31
0.0
  0
LINE
  5
853
  8
0
 10
121.5577713833876
 20
100.63740728532559
 30
0.0
 11
122.5577713833876
 21
101.63740728532559
 31
0.0
  0
LINE
  5
854
  8
3
 10
112.1601013833876
 20
101.13740728532549
 30
0.0
 11
122.0577713833876
 21
101.13740728532559
 31
0.0
  0
LINE
  5
855
  8
0
 10
121.5577713833876
 20
106.63740728532559
 30
0.0
 11
121.5577713833876
 21
100.63740728532559
 31
0.0
  0
LINE
  5
856
  8
0
 10
122.5577713833876
 20
105.63740728532559
 30
0.0
 11
122.5577713833876
 21
101.63740728532559
 31
0.0
  0
LINE
  5
857
  8
0
 10
81.957771383391787
 20
108.63740728532559
 30
0.0
 11
81.957771383392242
 21
98.637407285325594
 31
0.0
  0
LINE
  5
858
  8
0
 10
81.557771383387603
 20
107.9445869622903
 30
0.0
 11
81.557771383387603
 21
99.330227608360815
 31
0.0
  0
LINE
  5
859
  8
3
 10
112.1601013833876
 20
106.13740728532549
 30
0.0
 11
122.0577713833876
 21
106.13740728532559
 31
0.0
  0
LINE
  5
85A
  8
0
 10
121.5577713833876
 20
106.63740728532559
 30
0.0
 11
122.5577713833876
 21
105.63740728532559
 31
0.0
  0
LINE
  5
85B
  8
0
 10
81.957771383392242
 20
108.63740728532559
 30
0.0
 11
82.557771383387617
 21
108.63740728532559
 31
0.0
  0
LINE
  5
85C
  8
0
 10
81.557771383387603
 20
107.9445869622903
 30
0.0
 11
81.957771383392242
 21
108.63740728532559
 31
0.0
  0
LINE
  5
85D
  8
1
 10
77.057771383387603
 20
108.63740728532559
 30
0.0
 11
77.057771383387603
 21
98.637407285325594
 31
0.0
  0
LINE
  5
85E
  8
1
 10
81.557771383387475
 20
51.63740728532558
 30
0.0
 11
72.55777138338749
 21
51.63740728532558
 31
0.0
  0
LINE
  5
860
  8
1
 10
69.557814429258542
 20
103.66281764169899
 30
0.0
 11
127.5577713833876
 21
103.66281764169879
 31
0.0
  0
LINE
  5
861
  8
0
 10
82.557771383387603
 20
97.637407285325594
 30
0.0
 11
82.557771383387603
 21
109.63740728532559
 31
0.0
  0
LINE
  5
862
  8
0
 10
82.557771383387603
 20
97.637407285325594
 30
0.0
 11
96.557771383387603
 21
97.637407285325594
 31
0.0
  0
LINE
  5
863
  8
0
 10
82.557771383387603
 20
109.63740728532559
 30
0.0
 11
96.557771383387603
 21
109.63740728532559
 31
0.0
  0
LINE
  5
864
  8
1
 10
107.8077713833876
 20
93.637407285325594
 30
0.0
 11
97.307771383387603
 21
93.637407285325594
 31
0.0
  0
LINE
  5
865
  8
1
 10
107.8077713833876
 20
113.63740728532559
 30
0.0
 11
97.307771383387603
 21
113.63740728532559
 31
0.0
  0
LINE
  5
866
  8
1
 10
102.5577713833876
 20
82.637407285325594
 30
0.0
 11
102.5577713833876
 21
124.63740728532559
 31
0.0
  0
CIRCLE
  5
867
  8
0
 10
102.5577713833876
 20
93.637407285325594
 30
0.0
 40
2.75
  0
CIRCLE
  5
868
  8
0
 10
102.5577713833876
 20
113.63740728532559
 30
0.0
 40
2.75
  0
LINE
  5
869
  8
0
 10
108.5577713833876
 20
119.63740728532559
 30
0.0
 11
96.557771383387603
 21
119.63740728532559
 31
0.0
  0
LINE
  5
86A
  8
0
 10
108.5577713833876
 20
87.637407285325594
 30
0.0
 11
108.5577713833876
 21
119.63740728532559
 31
0.0
  0
LINE
  5
86B
  8
0
 10
96.557771383387603
 20
87.637407285325594
 30
0.0
 11
108.5577713833876
 21
87.637407285325594
 31
0.0
  0
LINE
  5
86C
  8
0
 10
96.557771383387603
 20
119.63740728532559
 30
0.0
 11
96.557771383387603
 21
87.637407285325594
 31
0.0
  0
LINE
  5
86D
  8
2
 10
105.3077713833876
 20
57.63740728532558
 30
0.0
 11
105.3077713833876
 21
31.63740728532558
 31
0.0
  0
LINE
  5
86E
  8
2
 10
99.807771383387603
 20
57.63740728532558
 30
0.0
 11
99.807771383387575
 21
31.63740728532558
 31
0.0
  0
LINE
  5
86F
  8
1
 10
102.5577713833876
 20
26.63740728532558
 30
0.0
 11
102.5577713833876
 21
62.63740728532558
 31
0.0
  0
LINE
  5
870
  8
0
 10
82.557771383387603
 20
57.63740728532558
 30
0.0
 11
96.557771383387603
 21
57.63740728532558
 31
0.0
  0
LINE
  5
871
  8
0
 10
82.557771383387603
 20
45.637407285325573
 30
0.0
 11
96.557771383387603
 21
45.637407285325573
 31
0.0
  0
LINE
  5
872
  8
0
 10
82.557771383387603
 20
45.637407285325573
 30
0.0
 11
82.557771383387603
 21
57.63740728532558
 31
0.0
  0
LINE
  5
884
  8
0
 10
80.978929223778323
 20
106.13740728532559
 30
0.0
 11
81.557771383387603
 21
106.13740728532559
 31
0.0
  0
LINE
  5
885
  8
0
 10
80.978929223778323
 20
101.13740728532559
 30
0.0
 11
81.557771383387603
 21
101.13740728532559
 31
0.0
  0
LINE
  5
886
  8
0
 10
74.557900523965259
 20
103.66281764169899
 30
0.0
 11
81.557771383387603
 21
103.66281764169899
 31
0.0
  0
CIRCLE
  5
8B8
  8
0
 10
33.55777138338761
 20
51.637407285325608
 30
0.0
 40
5.0
  0
CIRCLE
  5
8B9
  8
0
 10
33.55777138338761
 20
51.637407285325608
 30
0.0
 40
4.3071796769724946
  0
CIRCLE
  5
8BA
  8
0
 10
33.55777138338761
 20
51.637407285325608
 30
0.0
 40
5.9000000000000048
  0
LINE
  5
8BB
  8
1
 10
25.157771383387601
 20
51.637407285325608
 30
0.0
 11
41.957771383387609
 21
51.637407285325608
 31
0.0
  0
POLYLINE
  5
8BC
  8
0
 66
     1
 10
0.0
 20
0.0
 30
0.0
 70
     1
  0
VERTEX
  5
A26
  8
0
 10
32.114395710413532
 20
54.137407285325608
 30
0.0
  0
VERTEX
  5
A27
  8
0
 10
30.671020037439462
 20
51.637407285325608
 30
0.0
  0
VERTEX
  5
A28
  8
0
 10
32.114395710413532
 20
49.137407285325608
 30
0.0
  0
VERTEX
  5
A29
  8
0
 10
35.001147056361681
 20
49.137407285325608
 30
0.0
  0
VERTEX
  5
A2A
  8
0
 10
36.444522729335752
 20
51.637407285325608
 30
0.0
  0
VERTEX
  5
A2B
  8
0
 10
35.001147056361681
 20
54.137407285325608
 30
0.0
  0
SEQEND
  5
A2C
  8
0
  0
LINE
  5
8BD
  8
0
 10
17.5577713833876
 20
31.63740728532559
 30
0.0
 11
17.5577713833876
 21
57.63740728532553
 31
0.0
  0
LINE
  5
8BE
  8
0
 10
49.557771383387603
 20
31.63740728532559
 30
0.0
 11
17.5577713833876
 21
31.63740728532559
 31
0.0
  0
LINE
  5
8BF
  8
0
 10
49.557771383387603
 20
57.63740728532553
 30
0.0
 11
49.55777138338761
 21
31.63740728532559
 31
0.0
  0
LINE
  5
8C0
  8
0
 10
17.5577713833876
 20
57.63740728532553
 30
0.0
 11
49.557771383387603
 21
57.63740728532553
 31
0.0
  0
LINE
  5
8C1
  8
1
 10
23.5577713833876
 20
60.13740728532553
 30
0.0
 11
23.5577713833876
 21
29.13740728532559
 31
0.0
  0
LINE
  5
8C2
  8
1
 10
43.557771383387603
 20
60.13740728532553
 30
0.0
 11
43.55777138338761
 21
29.13740728532559
 31
0.0
  0
LINE
  5
8C3
  8
1
 10
33.55777138338761
 20
61.637407285325537
 30
0.0
 11
33.55777138338761
 21
26.63740728532559
 31
0.0
  0
CIRCLE
  5
8C4
  8
3
 10
163.5577713833876
 20
51.63740728532548
 30
0.0
 40
2.458499999999999
  0
CIRCLE
  5
8C5
  8
0
 10
163.5577713833876
 20
51.63740728532548
 30
0.0
 40
3.0
  0
CIRCLE
  5
8C6
  8
0
 10
163.5577713833876
 20
51.63740728532548
 30
0.0
 40
4.9000000000000004
  0
LINE
  5
8C7
  8
0
 10
163.5577713833876
 20
57.410909977221763
 30
0.0
 11
158.5577713833876
 21
54.524158631273679
 31
0.0
  0
LINE
  5
8C8
  8
0
 10
168.55777138338749
 20
54.524158631273558
 30
0.0
 11
163.5577713833876
 21
57.410909977221763
 31
0.0
  0
LINE
  5
8C9
  8
0
 10
168.5577713833876
 20
48.750655939377332
 30
0.0
 11
168.55777138338749
 21
54.524158631273558
 31
0.0
  0
LINE
  5
8CA
  8
0
 10
163.5577713833876
 20
45.86390459342919
 30
0.0
 11
168.5577713833876
 21
48.750655939377332
 31
0.0
  0
LINE
  5
8CB
  8
0
 10
158.55777138338749
 20
48.750655939377332
 30
0.0
 11
163.5577713833876
 21
45.86390459342919
 31
0.0
  0
LINE
  5
8CC
  8
0
 10
158.5577713833876
 20
54.524158631273679
 30
0.0
 11
158.55777138338749
 21
48.750655939377332
 31
0.0
  0
LINE
  5
8CD
  8
1
 10
163.5577713833876
 20
61.637407285325537
 30
0.0
 11
163.5577713833876
 21
26.63740728532559
 31
0.0
  0
LINE
  5
8CE
  8
1
 10
173.5577713833876
 20
60.13740728532553
 30
0.0
 11
173.5577713833876
 21
29.13740728532559
 31
0.0
  0
LINE
  5
8CF
  8
1
 10
153.5577713833876
 20
60.13740728532553
 30
0.0
 11
153.5577713833876
 21
29.13740728532559
 31
0.0
  0
LINE
  5
8D0
  8
1
 10
171.05777138338749
 20
51.637407285325473
 30
0.0
 11
156.0577713833876
 21
51.63740728532548
 31
0.0
  0
LINE
  5
8D1
  8
1
 10
163.5577713833876
 20
62.63740728532553
 30
0.0
 11
163.5577713833876
 21
48.63740728532548
 31
0.0
  0
LINE
  5
8D2
  8
0
 10
147.5577713833876
 20
57.63740728532553
 30
0.0
 11
179.5577713833876
 21
57.63740728532553
 31
0.0
  0
LINE
  5
8D3
  8
0
 10
179.5577713833876
 20
57.63740728532553
 30
0.0
 11
179.5577713833876
 21
31.63740728532559
 31
0.0
  0
LINE
  5
8D4
  8
0
 10
179.5577713833876
 20
31.63740728532559
 30
0.0
 11
147.5577713833876
 21
31.63740728532559
 31
0.0
  0
LINE
  5
8D5
  8
0
 10
147.5577713833876
 20
31.63740728532559
 30
0.0
 11
147.5577713833876
 21
57.63740728532553
 31
0.0
  0
LINE
  5
907
  8
0
 10
112.1577713833847
 20
98.737407285327507
 30
0.0
 11
112.1577713833847
 21
108.5374072853237
 31
0.0
  0
LINE
  5
908
  8
0
 10
108.5577713833876
 20
98.737407285327507
 30
0.0
 11
108.5577713833876
 21
108.5374072853237
 31
0.0
  0
ARC
  5
909
  8
0
 10
115.8363926682065
 20
106.13740728532559
 30
0.0
 40
7.2208862578987887
 50
159.74384199962481
 51
200.25615800037519
  0
LINE
  5
90A
  8
0
 10
108.6155064103076
 20
108.63740728532559
 30
0.0
 11
108.5577713833876
 21
108.5374072853237
 31
0.0
  0
LINE
  5
90B
  8
0
 10
112.1000363564647
 20
108.63740728532559
 30
0.0
 11
112.1577713833847
 21
108.5374072853237
 31
0.0
  0
ARC
  5
90C
  8
0
 10
104.8791500985658
 20
106.13740728532559
 30
0.0
 40
7.2208862578987887
 50
339.74384199962481
 51
20.25615800037518
  0
LINE
  5
90D
  8
0
 10
108.6155064103076
 20
108.63740728532559
 30
0.0
 11
112.1000363564647
 21
108.63740728532559
 31
0.0
  0
LINE
  5
90E
  8
0
 10
108.6155064103076
 20
98.637407285325594
 30
0.0
 11
112.1000363564647
 21
98.637407285325594
 31
0.0
  0
ARC
  5
90F
  8
0
 10
104.8791500985658
 20
101.13740728532559
 30
0.0
 40
7.2208862578987887
 50
339.74384199962481
 51
20.25615800037518
  0
LINE
  5
910
  8
0
 10
112.1000363564647
 20
98.637407285325594
 30
0.0
 11
112.1577713833847
 21
98.737407285327507
 31
0.0
  0
LINE
  5
911
  8
0
 10
108.6155064103076
 20
98.637407285325594
 30
0.0
 11
108.5577713833876
 21
98.737407285327507
 31
0.0
  0
ARC
  5
912
  8
0
 10
115.8363926682065
 20
101.13740728532559
 30
0.0
 40
7.2208862578987887
 50
159.74384199962481
 51
200.25615800037519
  0
LINE
  5
913
  8
0
 10
109.0620883976929
 20
103.63740728532559
 30
0.0
 11
111.6534543690796
 21
103.63740728532559
 31
0.0
  0
TEXT
  5
9CD
  8
0
 62
     3
 10
0.0
 20
0.0
 30
0.0
 40
10.0
  1
BJ650-06002
  7
STANDARD1
  0
ENDSEC
  0
EOF
