  0
SECTION
  2
HEADER
  9
$ACADVER
  1
AC1009
  9
$INSBASE
 10
0.0
 20
0.0
 30
0.0
  9
$EXTMIN
 10
0.0
 20
-2.960436562073669
 30
0.0
  9
$EXTMAX
 10
185.0856435931293
 20
167.24644973302819
 30
0.0
  9
$LIMMIN
 10
0.0
 20
0.0
  9
$LIMMAX
 10
375.0
 20
270.0
  9
$ORTHOMODE
 70
     1
  9
$REGENMODE
 70
     1
  9
$FILLMODE
 70
     1
  9
$QTEXTMODE
 70
     0
  9
$MIRRTEXT
 70
     0
  9
$DRAGMODE
 70
     2
  9
$LTSCALE
 40
10.0
  9
$OSMODE
 70
  3071
  9
$ATTMODE
 70
     1
  9
$TEXTSIZE
 40
0.2
  9
$TRACEWID
 40
0.05
  9
$TEXTSTYLE
  7
STANDARD
  9
$CLAYER
  8
0
  9
$CELTYPE
  6
BYLAYER
  9
$CECOLOR
 62
   256
  9
$DIMSCALE
 40
1.0
  9
$DIMASZ
 40
3.0
  9
$DIMEXO
 40
2.0
  9
$DIMDLI
 40
0.38
  9
$DIMRND
 40
0.0
  9
$DIMDLE
 40
0.0
  9
$DIMEXE
 40
2.0
  9
$DIMTP
 40
0.0
  9
$DIMTM
 40
0.0
  9
$DIMTXT
 40
3.2000000000000002
  9
$DIMCEN
 40
0.0
  9
$DIMTSZ
 40
0.0
  9
$DIMTOL
 70
     0
  9
$DIMLIM
 70
     0
  9
$DIMTIH
 70
     0
  9
$DIMTOH
 70
     0
  9
$DIMSE1
 70
     0
  9
$DIMSE2
 70
     0
  9
$DIMTAD
 70
     1
  9
$DIMZIN
 70
     0
  9
$DIMBLK
  1

  9
$DIMASO
 70
     0
  9
$DIMSHO
 70
     0
  9
$DIMPOST
  1

  9
$DIMAPOST
  1

  9
$DIMALT
 70
     0
  9
$DIMALTD
 70
     2
  9
$DIMALTF
 40
25.399999999999999
  9
$DIMLFAC
 40
1.0
  9
$DIMTOFL
 70
     1
  9
$DIMTVP
 40
1.6000000000000001
  9
$DIMTIX
 70
     1
  9
$DIMSOXD
 70
     0
  9
$DIMSAH
 70
     0
  9
$DIMBLK1
  1

  9
$DIMBLK2
  1

  9
$DIMSTYLE
  2
STANDARD
  9
$DIMCLRD
 70
     0
  9
$DIMCLRE
 70
     0
  9
$DIMCLRT
 70
     0
  9
$DIMTFAC
 40
1.0
  9
$DIMGAP
 40
0.09
  9
$LUNITS
 70
     2
  9
$LUPREC
 70
     4
  9
$SKETCHINC
 40
0.1
  9
$FILLETRAD
 40
0.0
  9
$AUNITS
 70
     0
  9
$AUPREC
 70
     4
  9
$MENU
  1
E:\r13\win\SUPPORT\ACAD
  9
$ELEVATION
 40
0.0
  9
$PELEVATION
 40
0.0
  9
$THICKNESS
 40
0.0
  9
$LIMCHECK
 70
     0
  9
$BLIPMODE
 70
     0
  9
$CHAMFERA
 40
0.0
  9
$CHAMFERB
 40
0.0
  9
$SKPOLY
 70
     0
  9
$TDCREATE
 40
2449839.764699074
  9
$TDUPDATE
 40
2456597.6811228469
  9
$TDINDWG
 40
0.0215931481
  9
$TDUSRTIMER
 40
0.0215931481
  9
$USRTIMER
 70
     1
  9
$ANGBASE
 50
0.0
  9
$ANGDIR
 70
     0
  9
$PDMODE
 70
     0
  9
$PDSIZE
 40
0.0
  9
$PLINEWID
 40
0.0
  9
$COORDS
 70
     1
  9
$SPLFRAME
 70
     0
  9
$SPLINETYPE
 70
     6
  9
$SPLINESEGS
 70
     8
  9
$ATTDIA
 70
     0
  9
$ATTREQ
 70
     1
  9
$HANDLING
 70
     1
  9
$HANDSEED
  5
48A
  9
$SURFTAB1
 70
     6
  9
$SURFTAB2
 70
     6
  9
$SURFTYPE
 70
     6
  9
$SURFU
 70
     6
  9
$SURFV
 70
     6
  9
$UCSNAME
  2

  9
$UCSORG
 10
0.0
 20
0.0
 30
0.0
  9
$UCSXDIR
 10
1.0
 20
0.0
 30
0.0
  9
$UCSYDIR
 10
0.0
 20
1.0
 30
0.0
  9
$PUCSNAME
  2

  9
$PUCSORG
 10
0.0
 20
0.0
 30
0.0
  9
$PUCSXDIR
 10
1.0
 20
0.0
 30
0.0
  9
$PUCSYDIR
 10
0.0
 20
1.0
 30
0.0
  9
$USERI1
 70
     0
  9
$USERI2
 70
     1
  9
$USERI3
 70
     0
  9
$USERI4
 70
     0
  9
$USERI5
 70
     0
  9
$USERR1
 40
0.0
  9
$USERR2
 40
0.0
  9
$USERR3
 40
0.0
  9
$USERR4
 40
0.0
  9
$USERR5
 40
0.0
  9
$WORLDVIEW
 70
     1
  9
$SHADEDGE
 70
     3
  9
$SHADEDIF
 70
    70
  9
$TILEMODE
 70
     1
  9
$MAXACTVP
 70
    16
  9
$PLIMCHECK
 70
     0
  9
$PEXTMIN
 10
1.0000000000000000E+020
 20
1.0000000000000000E+020
 30
1.0000000000000000E+020
  9
$PEXTMAX
 10
-1.0000000000000000E+020
 20
-1.0000000000000000E+020
 30
-1.0000000000000000E+020
  9
$PLIMMIN
 10
0.0
 20
0.0
  9
$PLIMMAX
 10
12.0
 20
9.0
  9
$UNITMODE
 70
     0
  9
$VISRETAIN
 70
     0
  9
$PLINEGEN
 70
     0
  9
$PSLTSCALE
 70
     0
  0
ENDSEC
  0
SECTION
  2
TABLES
  0
TABLE
  2
VPORT
 70
     1
  0
VPORT
  2
*ACTIVE
 70
     0
 10
0.0
 20
0.0
 11
1.0
 21
1.0
 12
195.0581083320873
 22
133.5127261426681
 13
0.0
 23
0.0
 14
10.0
 24
10.0
 15
10.0
 25
10.0
 16
0.0
 26
0.0
 36
1.0
 17
0.0
 27
0.0
 37
0.0
 40
275.42274993631997
 41
1.831871345029239
 42
50.0
 43
0.0
 44
0.0
 50
0.0
 51
0.0
 71
     0
 72
   500
 73
     1
 74
     0
 75
     0
 76
     0
 77
     0
 78
     2
  0
ENDTAB
  0
TABLE
  2
LTYPE
 70
     4
  0
LTYPE
  2
CONTINUOUS
 70
     0
  3
Solid Line
 72
    65
 73
     0
 40
0.0
  0
LTYPE
  2
CENTER
 70
     0
  3
____ _ ____ _ ____ _ ____ _ ____ _ ____ _ ____
 72
    65
 73
     4
 40
2.0
 49
1.25
 49
-0.25
 49
0.25
 49
-0.25
  0
LTYPE
  2
HIDDEN
 70
     0
  3
_ _ _ _ _ _ _ _ _ _ _ _ _ _ _ _ _ _ _ _ _ _ _
 72
    65
 73
     2
 40
0.375
 49
0.25
 49
-0.125
  0
LTYPE
  2
PHANTOM2
 70
     0
  3
___ _ _ ___ _ _ ___ _ _ ___ _ _
 72
    65
 73
     6
 40
1.25
 49
0.625
 49
-0.125
 49
0.125
 49
-0.125
 49
0.125
 49
-0.125
  0
ENDTAB
  0
TABLE
  2
LAYER
 70
     4
  0
LAYER
  2
0
 70
     0
 62
     7
  6
CONTINUOUS
  0
LAYER
  2
1
 70
     0
 62
     1
  6
CENTER
  0
LAYER
  2
2
 70
     0
 62
     2
  6
HIDDEN
  0
LAYER
  2
3
 70
     0
 62
     3
  6
CONTINUOUS
  0
ENDTAB
  0
TABLE
  2
STYLE
 70
     2
  0
STYLE
  2
STANDARD
 70
     0
 40
0.0
 41
1.0
 50
0.0
 71
     0
 42
0.2
  3
TXT
  4
BIGFONT
  0
STYLE
  2
STANDARD1
 70
     0
 40
0.0
 41
1.0
 50
0.0
 71
     0
 42
3.0
  3
txt
  4

  0
ENDTAB
  0
TABLE
  2
VIEW
 70
     1
  0
VIEW
  2
ALL
 70
     0
 40
270.0
 10
220.99159663865549
 20
135.0
 41
0.0
 11
0.0
 21
0.0
 31
1.0
 12
0.0
 22
0.0
 32
0.0
 42
0.0
 43
0.0
 44
0.0
 50
0.0
 71
     0
  0
ENDTAB
  0
TABLE
  2
UCS
 70
     0
  0
ENDTAB
  0
TABLE
  2
APPID
 70
     3
  0
APPID
  2
ACAD
 70
     0
  0
APPID
  2
ACAD_MLEADERVER
 70
     0
  0
APPID
  2
ACAD_NAV_VCDISPLAY
 70
     0
  0
ENDTAB
  0
TABLE
  2
DIMSTYLE
 70
     1
  0
DIMSTYLE
  2
STANDARD
 70
     0
  3

  4

  5

  6

  7

 40
1.0
 41
0.18
 42
0.0625
 43
0.38
 44
0.18
 45
0.0
 46
0.0
 47
0.0
 48
0.0
140
0.18
141
0.09
142
0.0
143
25.399999999999999
144
1.0
145
0.0
146
1.0
147
0.09
 71
     0
 72
     0
 73
     1
 74
     1
 75
     0
 76
     0
 77
     0
 78
     0
170
     0
171
     2
172
     0
173
     0
174
     0
175
     0
176
     0
177
     0
178
     0
  0
ENDTAB
  0
ENDSEC
  0
SECTION
  2
BLOCKS
  0
BLOCK
  8
0
  2
$MODEL_SPACE
 70
     0
 10
0.0
 20
0.0
 30
0.0
  3
$MODEL_SPACE
  1

  0
ENDBLK
  5
159
  8
0
  0
BLOCK
 67
     1
  8
0
  2
$PAPER_SPACE
 70
     0
 10
0.0
 20
0.0
 30
0.0
  3
$PAPER_SPACE
  1

  0
ENDBLK
  5
157
 67
     1
  8
0
  0
ENDSEC
  0
SECTION
  2
ENTITIES
  0
LINE
  5
206
  8
1
 10
105.55948287787849
 20
14.260462934541239
 30
0.0
 11
105.5594828778779
 21
115.2604629345412
 31
0.0
  0
LINE
  5
207
  8
1
 10
176.58564359312939
 20
14.260462934541209
 30
0.0
 11
176.58564359312891
 21
115.2604629345412
 31
0.0
  0
LINE
  5
208
  8
1
 10
120.3744374541016
 20
152.43149515680449
 30
0.0
 11
90.74452830165427
 21
152.43149515680449
 31
0.0
  0
LINE
  5
209
  8
1
 10
105.5594828778779
 20
167.24644973302819
 30
0.0
 11
105.5594828778779
 21
137.61654058058079
 31
0.0
  0
LINE
  5
20A
  8
2
 10
100.55948287787869
 20
90.260462934541238
 30
0.0
 11
100.55948287787869
 21
90.260462934541238
 31
0.0
  0
LINE
  5
20B
  8
2
 10
100.55948287787869
 20
90.260462934541238
 30
0.0
 11
110.55948287787869
 21
90.260462934541238
 31
0.0
  0
LINE
  5
20C
  8
2
 10
110.55948287787869
 20
90.260462934541238
 30
0.0
 11
110.55948287787869
 21
90.260462934541238
 31
0.0
  0
LINE
  5
20D
  8
2
 10
110.55948287787869
 20
109.5104629345412
 30
0.0
 11
110.55948287787869
 21
90.260462934541238
 31
0.0
  0
LINE
  5
20E
  8
2
 10
100.55948287787869
 20
90.260462934541238
 30
0.0
 11
100.55948287787869
 21
90.260462934541238
 31
0.0
  0
LINE
  5
20F
  8
2
 10
100.55948287787869
 20
109.5104629345412
 30
0.0
 11
100.55948287787869
 21
90.260462934541238
 31
0.0
  0
LINE
  5
210
  8
0
 10
109.55948287787849
 20
32.260462934541238
 30
0.0
 11
109.55948287787849
 21
32.260462934541238
 31
0.0
  0
LINE
  5
211
  8
0
 10
109.55948287787849
 20
32.260462934541238
 30
0.0
 11
109.55948287787849
 21
32.260462934541238
 31
0.0
  0
LINE
  5
212
  8
0
 10
101.55948287787849
 20
32.260462934541238
 30
0.0
 11
101.55948287787849
 21
32.260462934541238
 31
0.0
  0
LINE
  5
213
  8
3
 10
101.55948287787849
 20
19.760462934541241
 30
0.0
 11
101.55948287787849
 21
32.260462934541238
 31
0.0
  0
LINE
  5
214
  8
0
 10
109.55948287787849
 20
32.260462934541238
 30
0.0
 11
109.55948287787849
 21
32.260462934541238
 31
0.0
  0
LINE
  5
215
  8
3
 10
109.55948287787839
 20
19.760462934541181
 30
0.0
 11
109.55948287787849
 21
32.260462934541238
 31
0.0
  0
LINE
  5
216
  8
2
 10
109.80948287787869
 20
85.260462934541181
 30
0.0
 11
109.80948287787881
 21
108.7604629345412
 31
0.0
  0
LINE
  5
217
  8
2
 10
101.30948287787869
 20
108.7604629345412
 30
0.0
 11
101.30948287787859
 21
85.260462934541238
 31
0.0
  0
LINE
  5
218
  8
2
 10
105.55948287787869
 20
82.706805303674045
 30
0.0
 11
109.80948287787869
 21
85.260462934541181
 31
0.0
  0
LINE
  5
219
  8
2
 10
101.30948287787859
 20
85.260462934541238
 30
0.0
 11
105.55948287787869
 21
82.706805303674045
 31
0.0
  0
LINE
  5
21A
  8
2
 10
109.80948287787881
 20
108.7604629345412
 30
0.0
 11
111.30948287787869
 21
110.2604629345412
 31
0.0
  0
LINE
  5
21B
  8
2
 10
99.80948287787885
 20
110.2604629345412
 30
0.0
 11
101.30948287787869
 21
108.7604629345412
 31
0.0
  0
LINE
  5
21C
  8
2
 10
101.30948287787859
 20
85.260462934541238
 30
0.0
 11
105.55948287787869
 21
85.260462934541238
 31
0.0
  0
LINE
  5
21D
  8
2
 10
105.55948287787869
 20
85.260462934541238
 30
0.0
 11
109.80948287787869
 21
85.260462934541181
 31
0.0
  0
LINE
  5
21E
  8
2
 10
101.30948287787869
 20
108.7604629345412
 30
0.0
 11
105.55948287787869
 21
108.7604629345412
 31
0.0
  0
LINE
  5
21F
  8
2
 10
105.55948287787869
 20
108.7604629345412
 30
0.0
 11
109.80948287787881
 21
108.7604629345412
 31
0.0
  0
LINE
  5
220
  8
0
 10
109.4094828778785
 20
34.860462934541196
 30
0.0
 11
101.7094828778785
 21
34.86046293454126
 31
0.0
  0
LINE
  5
221
  8
0
 10
101.7094828778785
 20
32.660462934541222
 30
0.0
 11
109.4094828778785
 21
32.660462934541222
 31
0.0
  0
LINE
  5
222
  8
0
 10
100.55948287787849
 20
32.260462934541238
 30
0.0
 11
105.55948287787849
 21
32.260462934541238
 31
0.0
  0
LINE
  5
223
  8
0
 10
105.55948287787849
 20
32.260462934541238
 30
0.0
 11
110.55948287787849
 21
32.260462934541238
 31
0.0
  0
LINE
  5
224
  8
0
 10
109.05948287787839
 20
19.260462934541181
 30
0.0
 11
105.55948287787849
 21
19.260462934541241
 31
0.0
  0
LINE
  5
225
  8
0
 10
105.55948287787849
 20
19.260462934541241
 30
0.0
 11
102.05948287787839
 21
19.260462934541241
 31
0.0
  0
LINE
  5
226
  8
0
 10
100.55948287787849
 20
20.760462934541241
 30
0.0
 11
105.55948287787849
 21
20.760462934541241
 31
0.0
  0
LINE
  5
227
  8
0
 10
105.55948287787849
 20
20.760462934541241
 30
0.0
 11
110.55948287787849
 21
20.760462934541181
 31
0.0
  0
LINE
  5
228
  8
0
 10
97.30948287787875
 20
110.2604629345412
 30
0.0
 11
105.55948287787869
 21
110.2604629345412
 31
0.0
  0
LINE
  5
229
  8
0
 10
105.55948287787869
 20
110.2604629345412
 30
0.0
 11
113.80948287787881
 21
110.2604629345412
 31
0.0
  0
POLYLINE
  5
22A
  8
0
 66
     1
 10
0.0
 20
0.0
 30
0.0
 70
   128
  0
VERTEX
  5
400
  8
0
 10
95.744528301655123
 20
109.356935988689
 30
0.0
  0
VERTEX
  5
401
  8
0
 10
96.382616564840646
 20
109.6870033711631
 30
0.0
  0
VERTEX
  5
402
  8
0
 10
97.029833969293691
 20
109.9340400519644
 30
0.0
  0
VERTEX
  5
403
  8
0
 10
97.699403939569507
 20
110.0818852457349
 30
0.0
  0
VERTEX
  5
404
  8
0
 10
98.372752394870403
 20
110.1119912195886
 30
0.0
  0
VERTEX
  5
405
  8
0
 10
99.514176671073869
 20
109.8862728164472
 30
0.0
  0
VERTEX
  5
406
  8
0
 10
100.6520055897669
 20
109.356935988689
 30
0.0
  0
SEQEND
  5
407
  8
0
  0
LINE
  5
22B
  8
0
 10
95.744528301655123
 20
109.356935988689
 30
0.0
 11
95.744528301654896
 21
36.163989880393501
 31
0.0
  0
LINE
  5
22C
  8
0
 10
115.37443745410241
 20
109.356935988689
 30
0.0
 11
115.37443745410209
 21
36.163989880393451
 31
0.0
  0
POLYLINE
  5
22D
  8
0
 66
     1
 10
0.0
 20
0.0
 30
0.0
 70
   128
  0
VERTEX
  5
408
  8
0
 10
110.4669601659906
 20
109.356935988689
 30
0.0
  0
VERTEX
  5
409
  8
0
 10
111.10504842917609
 20
109.687003371163
 30
0.0
  0
VERTEX
  5
40A
  8
0
 10
111.75226583362929
 20
109.9340400519643
 30
0.0
  0
VERTEX
  5
40B
  8
0
 10
112.4218358039051
 20
110.0818852457349
 30
0.0
  0
VERTEX
  5
40C
  8
0
 10
113.09518425920569
 20
110.1119912195885
 30
0.0
  0
VERTEX
  5
40D
  8
0
 10
114.2366085354093
 20
109.8862728164471
 30
0.0
  0
VERTEX
  5
40E
  8
0
 10
115.37443745410241
 20
109.356935988689
 30
0.0
  0
SEQEND
  5
40F
  8
0
  0
LINE
  5
22E
  8
0
 10
97.309482877878509
 20
35.260462934541287
 30
0.0
 11
105.55948287787849
 21
35.260462934541287
 31
0.0
  0
LINE
  5
22F
  8
0
 10
105.55948287787849
 20
35.260462934541287
 30
0.0
 11
113.80948287787849
 21
35.260462934541238
 31
0.0
  0
POLYLINE
  5
230
  8
0
 66
     1
 10
0.0
 20
0.0
 30
0.0
 70
   128
  0
VERTEX
  5
410
  8
0
 10
115.37443745410209
 20
36.163989880393451
 30
0.0
  0
VERTEX
  5
411
  8
0
 10
114.7363491909166
 20
35.833922497919332
 30
0.0
  0
VERTEX
  5
412
  8
0
 10
114.0891317864634
 20
35.586885817118123
 30
0.0
  0
VERTEX
  5
413
  8
0
 10
113.4195618161876
 20
35.43904062334758
 30
0.0
  0
VERTEX
  5
414
  8
0
 10
112.7462133608869
 20
35.408934649493858
 30
0.0
  0
VERTEX
  5
415
  8
0
 10
111.6047890846834
 20
35.634653052635322
 30
0.0
  0
VERTEX
  5
416
  8
0
 10
110.4669601659902
 20
36.163989880393501
 30
0.0
  0
SEQEND
  5
417
  8
0
  0
POLYLINE
  5
231
  8
0
 66
     1
 10
0.0
 20
0.0
 30
0.0
 70
   128
  0
VERTEX
  5
418
  8
0
 10
100.6520055897666
 20
36.163989880393501
 30
0.0
  0
VERTEX
  5
419
  8
0
 10
100.01391732658109
 20
35.833922497919453
 30
0.0
  0
VERTEX
  5
41A
  8
0
 10
99.366699922128078
 20
35.586885817118173
 30
0.0
  0
VERTEX
  5
41B
  8
0
 10
98.697129951852276
 20
35.439040623347637
 30
0.0
  0
VERTEX
  5
41C
  8
0
 10
98.023781496551351
 20
35.408934649493908
 30
0.0
  0
VERTEX
  5
41D
  8
0
 10
96.882357220347885
 20
35.634653052635322
 30
0.0
  0
VERTEX
  5
41E
  8
0
 10
95.744528301654896
 20
36.163989880393501
 30
0.0
  0
SEQEND
  5
41F
  8
0
  0
POLYLINE
  5
232
  8
0
 66
     1
 10
0.0
 20
0.0
 30
0.0
 70
   128
  0
VERTEX
  5
420
  8
0
 10
110.4669601659902
 20
36.163989880393501
 30
0.0
  0
VERTEX
  5
421
  8
0
 10
108.71154350823871
 20
35.73136200537607
 30
0.0
  0
VERTEX
  5
422
  8
0
 10
106.9077958350429
 20
35.466157679020057
 30
0.0
  0
VERTEX
  5
423
  8
0
 10
105.66740102515941
 20
35.405647047576338
 30
0.0
  0
VERTEX
  5
424
  8
0
 10
104.42628165990691
 20
35.44822027050396
 30
0.0
  0
VERTEX
  5
425
  8
0
 10
103.16002251895119
 20
35.596810979292457
 30
0.0
  0
VERTEX
  5
426
  8
0
 10
101.9078438189723
 20
35.838498734044776
 30
0.0
  0
VERTEX
  5
427
  8
0
 10
100.6520055897666
 20
36.163989880393501
 30
0.0
  0
SEQEND
  5
428
  8
0
  0
LINE
  5
233
  8
0
 10
110.4669601659906
 20
109.356935988689
 30
0.0
 11
110.4669601659902
 21
36.163989880393501
 31
0.0
  0
POLYLINE
  5
234
  8
0
 66
     1
 10
0.0
 20
0.0
 30
0.0
 70
   128
  0
VERTEX
  5
429
  8
0
 10
100.6520055897669
 20
109.356935988689
 30
0.0
  0
VERTEX
  5
42A
  8
0
 10
101.90784381897249
 20
109.6824271350378
 30
0.0
  0
VERTEX
  5
42B
  8
0
 10
103.1283827003151
 20
109.9191486322961
 30
0.0
  0
VERTEX
  5
42C
  8
0
 10
104.3624458083533
 20
110.0677005260484
 30
0.0
  0
VERTEX
  5
42D
  8
0
 10
105.6353881908429
 20
110.11543078862429
 30
0.0
  0
VERTEX
  5
42E
  8
0
 10
106.9077958350432
 20
110.0547681900624
 30
0.0
  0
VERTEX
  5
42F
  8
0
 10
108.69524510329801
 20
109.7928281832414
 30
0.0
  0
VERTEX
  5
430
  8
0
 10
110.4669601659906
 20
109.356935988689
 30
0.0
  0
SEQEND
  5
431
  8
0
  0
LINE
  5
235
  8
0
 10
100.6520055897669
 20
109.356935988689
 30
0.0
 11
100.6520055897666
 21
36.163989880393501
 31
0.0
  0
LINE
  5
236
  8
0
 10
109.4094828778785
 20
32.660462934541222
 30
0.0
 11
109.4094828778785
 21
34.860462934541196
 31
0.0
  0
LINE
  5
237
  8
0
 10
101.7094828778785
 20
34.86046293454126
 30
0.0
 11
101.7094828778785
 21
32.660462934541222
 31
0.0
  0
ARC
  5
238
  8
0
 10
101.30948287787849
 20
34.86046293454126
 30
0.0
 40
0.3999999999999772
 50
0.0
 51
90.0
  0
ARC
  5
239
  8
0
 10
109.80948287787849
 20
34.860462934541196
 30
0.0
 40
0.4000000000000341
 50
90.0
 51
180.0
  0
ARC
  5
23A
  8
0
 10
101.30948287787849
 20
32.660462934541222
 30
0.0
 40
0.3999999999999772
 50
270.0
 51
0.0
  0
ARC
  5
23B
  8
0
 10
109.80948287787849
 20
32.660462934541222
 30
0.0
 40
0.3999999999999772
 50
180.0
 51
270.0
  0
LINE
  5
23C
  8
0
 10
110.55948287787849
 20
20.760462934541181
 30
0.0
 11
110.55948287787849
 21
32.260462934541238
 31
0.0
  0
LINE
  5
23D
  8
0
 10
100.55948287787849
 20
32.260462934541238
 30
0.0
 11
100.55948287787849
 21
20.760462934541241
 31
0.0
  0
LINE
  5
23E
  8
0
 10
109.05948287787839
 20
19.260462934541181
 30
0.0
 11
110.55948287787849
 21
20.760462934541181
 31
0.0
  0
LINE
  5
23F
  8
0
 10
100.55948287787849
 20
20.760462934541241
 30
0.0
 11
102.05948287787839
 21
19.260462934541241
 31
0.0
  0
LINE
  5
240
  8
0
 10
97.30948287787875
 20
110.2604629345412
 30
0.0
 11
95.744528301655123
 21
109.356935988689
 31
0.0
  0
LINE
  5
241
  8
0
 10
115.37443745410241
 20
109.356935988689
 30
0.0
 11
113.80948287787881
 21
110.2604629345412
 31
0.0
  0
LINE
  5
242
  8
0
 10
113.80948287787849
 20
35.260462934541238
 30
0.0
 11
115.37443745410209
 21
36.163989880393451
 31
0.0
  0
LINE
  5
243
  8
0
 10
95.744528301654896
 20
36.163989880393501
 30
0.0
 11
97.309482877878509
 21
35.260462934541287
 31
0.0
  0
LINE
  5
244
  8
2
 10
171.58564359312911
 20
90.260462934541181
 30
0.0
 11
171.58564359312911
 21
90.260462934541181
 31
0.0
  0
LINE
  5
245
  8
2
 10
171.58564359312911
 20
90.260462934541181
 30
0.0
 11
181.58564359312899
 21
90.260462934541238
 31
0.0
  0
LINE
  5
246
  8
2
 10
181.58564359312899
 20
90.260462934541238
 30
0.0
 11
181.58564359312899
 21
90.260462934541238
 31
0.0
  0
LINE
  5
247
  8
2
 10
181.58564359312891
 20
109.5104629345412
 30
0.0
 11
181.58564359312899
 21
90.260462934541238
 31
0.0
  0
LINE
  5
248
  8
2
 10
171.58564359312911
 20
90.260462934541181
 30
0.0
 11
171.58564359312911
 21
90.260462934541181
 31
0.0
  0
LINE
  5
249
  8
2
 10
171.58564359312891
 20
109.5104629345411
 30
0.0
 11
171.58564359312911
 21
90.260462934541181
 31
0.0
  0
LINE
  5
24A
  8
0
 10
180.58564359312939
 20
32.260462934541238
 30
0.0
 11
180.58564359312939
 21
32.260462934541238
 31
0.0
  0
LINE
  5
24B
  8
0
 10
180.58564359312939
 20
32.260462934541238
 30
0.0
 11
180.58564359312939
 21
32.260462934541238
 31
0.0
  0
LINE
  5
24C
  8
0
 10
172.5856435931295
 20
32.260462934541238
 30
0.0
 11
172.5856435931295
 21
32.260462934541238
 31
0.0
  0
LINE
  5
24D
  8
3
 10
172.58564359312959
 20
19.760462934541181
 30
0.0
 11
172.5856435931295
 21
32.260462934541238
 31
0.0
  0
LINE
  5
24E
  8
0
 10
180.58564359312939
 20
32.260462934541238
 30
0.0
 11
180.58564359312939
 21
32.260462934541238
 31
0.0
  0
LINE
  5
24F
  8
3
 10
180.58564359312959
 20
19.760462934541241
 30
0.0
 11
180.58564359312939
 21
32.260462934541238
 31
0.0
  0
LINE
  5
250
  8
2
 10
180.83564359312899
 20
85.260462934541238
 30
0.0
 11
180.83564359312891
 21
108.7604629345412
 31
0.0
  0
LINE
  5
251
  8
2
 10
172.33564359312891
 20
108.7604629345412
 30
0.0
 11
172.33564359312911
 21
85.260462934541181
 31
0.0
  0
LINE
  5
252
  8
2
 10
176.58564359312911
 20
82.706805303674045
 30
0.0
 11
180.83564359312899
 21
85.260462934541238
 31
0.0
  0
LINE
  5
253
  8
2
 10
172.33564359312911
 20
85.260462934541181
 30
0.0
 11
176.58564359312911
 21
82.706805303674045
 31
0.0
  0
LINE
  5
254
  8
2
 10
180.83564359312891
 20
108.7604629345412
 30
0.0
 11
182.33564359312891
 21
110.26046293454129
 31
0.0
  0
LINE
  5
255
  8
2
 10
170.83564359312879
 20
110.2604629345412
 30
0.0
 11
172.33564359312891
 21
108.7604629345412
 31
0.0
  0
LINE
  5
256
  8
2
 10
172.33564359312911
 20
85.260462934541181
 30
0.0
 11
180.83564359312899
 21
85.260462934541238
 31
0.0
  0
LINE
  5
257
  8
2
 10
172.33564359312891
 20
108.7604629345412
 30
0.0
 11
180.83564359312891
 21
108.7604629345412
 31
0.0
  0
LINE
  5
258
  8
0
 10
180.4356435931295
 20
34.86046293454126
 30
0.0
 11
172.7356435931294
 21
34.860462934541196
 31
0.0
  0
LINE
  5
259
  8
0
 10
172.7356435931294
 20
32.660462934541158
 30
0.0
 11
180.4356435931295
 21
32.660462934541272
 31
0.0
  0
LINE
  5
25A
  8
0
 10
171.5856435931295
 20
32.260462934541238
 30
0.0
 11
181.58564359312939
 21
32.260462934541302
 31
0.0
  0
LINE
  5
25B
  8
0
 10
180.0856435931295
 20
19.260462934541241
 30
0.0
 11
173.08564359312939
 21
19.260462934541181
 31
0.0
  0
LINE
  5
25C
  8
0
 10
171.58564359312959
 20
20.760462934541181
 30
0.0
 11
181.58564359312959
 21
20.760462934541241
 31
0.0
  0
LINE
  5
25D
  8
0
 10
168.33564359312891
 20
110.2604629345412
 30
0.0
 11
184.83564359312891
 21
110.26046293454129
 31
0.0
  0
LINE
  5
25E
  8
0
 10
185.08564359312891
 20
109.3569359886891
 30
0.0
 11
185.08564359312891
 21
110.11527882150619
 31
0.0
  0
LINE
  5
25F
  8
0
 10
168.08564359312891
 20
109.3569359886889
 30
0.0
 11
168.08564359312891
 21
110.1154307886242
 31
0.0
  0
LINE
  5
260
  8
0
 10
185.08564359312891
 20
109.3569359886891
 30
0.0
 11
185.0856435931293
 21
36.163989880393558
 31
0.0
  0
POLYLINE
  5
261
  8
0
 66
     1
 10
0.0
 20
0.0
 30
0.0
 70
   128
  0
VERTEX
  5
432
  8
0
 10
176.58564359312891
 20
109.356935988689
 30
0.0
  0
VERTEX
  5
433
  8
0
 10
177.69084488467959
 20
109.6870033711631
 30
0.0
  0
VERTEX
  5
434
  8
0
 10
178.81185831273521
 20
109.9340400519644
 30
0.0
  0
VERTEX
  5
435
  8
0
 10
179.9715875204754
 20
110.0818852457349
 30
0.0
  0
VERTEX
  5
436
  8
0
 10
181.13786125625421
 20
110.1119912195887
 30
0.0
  0
VERTEX
  5
437
  8
0
 10
183.1148660956313
 20
109.8862728164472
 30
0.0
  0
VERTEX
  5
438
  8
0
 10
185.08564359312891
 20
109.3569359886891
 30
0.0
  0
SEQEND
  5
439
  8
0
  0
LINE
  5
262
  8
0
 10
168.33564359312939
 20
35.260462934541181
 30
0.0
 11
184.8356435931293
 21
35.260462934541287
 31
0.0
  0
LINE
  5
263
  8
0
 10
168.0856435931293
 20
36.163989880393451
 30
0.0
 11
168.0856435931293
 21
35.405647047576231
 31
0.0
  0
LINE
  5
264
  8
0
 10
185.0856435931293
 20
36.163989880393558
 30
0.0
 11
185.0856435931293
 21
35.405495080458252
 31
0.0
  0
POLYLINE
  5
265
  8
0
 66
     1
 10
0.0
 20
0.0
 30
0.0
 70
   128
  0
VERTEX
  5
43A
  8
0
 10
185.0856435931293
 20
36.163989880393558
 30
0.0
  0
VERTEX
  5
43B
  8
0
 10
183.98044230157871
 20
35.833922497919453
 30
0.0
  0
VERTEX
  5
43C
  8
0
 10
182.85942887352309
 20
35.586885817118173
 30
0.0
  0
VERTEX
  5
43D
  8
0
 10
181.69969966578299
 20
35.439040623347701
 30
0.0
  0
VERTEX
  5
43E
  8
0
 10
180.533425930004
 20
35.408934649493908
 30
0.0
  0
VERTEX
  5
43F
  8
0
 10
178.55642109062691
 20
35.634653052635322
 30
0.0
  0
VERTEX
  5
440
  8
0
 10
176.58564359312939
 20
36.163989880393501
 30
0.0
  0
SEQEND
  5
441
  8
0
  0
POLYLINE
  5
266
  8
0
 66
     1
 10
0.0
 20
0.0
 30
0.0
 70
   128
  0
VERTEX
  5
442
  8
0
 10
176.58564359312939
 20
36.163989880393501
 30
0.0
  0
VERTEX
  5
443
  8
0
 10
175.48044230157871
 20
35.833922497919389
 30
0.0
  0
VERTEX
  5
444
  8
0
 10
174.359428873523
 20
35.586885817118123
 30
0.0
  0
VERTEX
  5
445
  8
0
 10
173.19969966578299
 20
35.439040623347637
 30
0.0
  0
VERTEX
  5
446
  8
0
 10
172.033425930004
 20
35.408934649493858
 30
0.0
  0
VERTEX
  5
447
  8
0
 10
170.05642109062691
 20
35.634653052635258
 30
0.0
  0
VERTEX
  5
448
  8
0
 10
168.0856435931293
 20
36.163989880393451
 30
0.0
  0
SEQEND
  5
449
  8
0
  0
LINE
  5
267
  8
0
 10
176.58564359312891
 20
109.356935988689
 30
0.0
 11
176.58564359312939
 21
36.163989880393501
 31
0.0
  0
POLYLINE
  5
268
  8
0
 66
     1
 10
0.0
 20
0.0
 30
0.0
 70
   128
  0
VERTEX
  5
44A
  8
0
 10
168.08564359312891
 20
109.3569359886889
 30
0.0
  0
VERTEX
  5
44B
  8
0
 10
169.19084488467951
 20
109.687003371163
 30
0.0
  0
VERTEX
  5
44C
  8
0
 10
170.31185831273521
 20
109.9340400519643
 30
0.0
  0
VERTEX
  5
44D
  8
0
 10
171.47158752047531
 20
110.0818852457348
 30
0.0
  0
VERTEX
  5
44E
  8
0
 10
172.63786125625441
 20
110.1119912195886
 30
0.0
  0
VERTEX
  5
44F
  8
0
 10
174.6148660956313
 20
109.8862728164471
 30
0.0
  0
VERTEX
  5
450
  8
0
 10
176.58564359312891
 20
109.356935988689
 30
0.0
  0
SEQEND
  5
451
  8
0
  0
LINE
  5
269
  8
0
 10
168.08564359312891
 20
109.3569359886889
 30
0.0
 11
168.0856435931293
 21
36.163989880393451
 31
0.0
  0
LINE
  5
26A
  8
0
 10
180.4356435931295
 20
32.660462934541272
 30
0.0
 11
180.4356435931295
 21
34.86046293454126
 31
0.0
  0
LINE
  5
26B
  8
0
 10
172.7356435931294
 20
34.860462934541196
 30
0.0
 11
172.7356435931294
 21
32.660462934541158
 31
0.0
  0
ARC
  5
26C
  8
0
 10
172.33564359312939
 20
34.860462934541196
 30
0.0
 40
0.4000000000000341
 50
0.0
 51
90.0
  0
ARC
  5
26D
  8
0
 10
180.8356435931293
 20
34.86046293454126
 30
0.0
 40
0.4000000000000341
 50
90.0
 51
180.0
  0
ARC
  5
26E
  8
0
 10
172.33564359312939
 20
32.660462934541158
 30
0.0
 40
0.3999999999999772
 50
270.0
 51
0.0
  0
ARC
  5
26F
  8
0
 10
180.8356435931293
 20
32.660462934541272
 30
0.0
 40
0.3999999999999772
 50
180.0
 51
270.0
  0
LINE
  5
270
  8
0
 10
181.58564359312959
 20
20.760462934541241
 30
0.0
 11
181.58564359312939
 21
32.260462934541302
 31
0.0
  0
LINE
  5
271
  8
0
 10
171.5856435931295
 20
32.260462934541238
 30
0.0
 11
171.58564359312959
 21
20.760462934541181
 31
0.0
  0
LINE
  5
272
  8
0
 10
180.0856435931295
 20
19.260462934541241
 30
0.0
 11
181.58564359312959
 21
20.760462934541241
 31
0.0
  0
LINE
  5
273
  8
0
 10
171.58564359312959
 20
20.760462934541181
 30
0.0
 11
173.08564359312939
 21
19.260462934541181
 31
0.0
  0
LINE
  5
274
  8
0
 10
168.33564359312891
 20
110.2604629345412
 30
0.0
 11
168.08564359312891
 21
110.1161253672437
 31
0.0
  0
LINE
  5
275
  8
0
 10
185.08564359312891
 20
110.1161253672438
 30
0.0
 11
184.83564359312891
 21
110.26046293454129
 31
0.0
  0
LINE
  5
276
  8
0
 10
184.8356435931293
 20
35.260462934541287
 30
0.0
 11
185.0856435931293
 21
35.404800501838679
 31
0.0
  0
LINE
  5
277
  8
0
 10
168.0856435931293
 20
35.404800501838572
 30
0.0
 11
168.33564359312939
 21
35.260462934541181
 31
0.0
  0
CIRCLE
  5
278
  8
3
 10
105.5594828778779
 20
152.43149515680449
 30
0.0
 40
5.0
  0
CIRCLE
  5
279
  8
0
 10
105.5594828778779
 20
152.43149515680449
 30
0.0
 40
4.2499999999998863
  0
CIRCLE
  5
27A
  8
0
 10
105.5594828778779
 20
152.43149515680449
 30
0.0
 40
5.75
  0
LINE
  5
27B
  8
0
 10
95.74452830165427
 20
152.43149515680449
 30
0.0
 11
100.65200558976611
 21
143.9314951568046
 31
0.0
  0
LINE
  5
27C
  8
0
 10
100.65200558976611
 20
160.93149515680449
 30
0.0
 11
95.74452830165427
 21
152.43149515680449
 31
0.0
  0
LINE
  5
27D
  8
0
 10
110.4669601659897
 20
143.9314951568046
 30
0.0
 11
115.3744374541016
 21
152.43149515680449
 31
0.0
  0
CIRCLE
  5
27E
  8
0
 10
105.5594828778779
 20
152.43149515680449
 30
0.0
 40
8.2499999999998863
  0
LINE
  5
27F
  8
0
 10
115.3744374541016
 20
152.43149515680449
 30
0.0
 11
110.4669601659897
 21
160.93149515680449
 31
0.0
  0
LINE
  5
280
  8
0
 10
110.4669601659897
 20
160.93149515680449
 30
0.0
 11
100.65200558976611
 21
160.93149515680449
 31
0.0
  0
LINE
  5
281
  8
0
 10
100.65200558976611
 20
143.9314951568046
 30
0.0
 11
110.4669601659897
 21
143.9314951568046
 31
0.0
  0
TEXT
  5
3D0
  8
0
 62
     3
 10
0.0
 20
0.0
 30
0.0
 40
10.0
  1
BJ610-10075-SUS
  7
STANDARD1
  0
ENDSEC
  0
EOF
