  0
SECTION
  2
HEADER
  9
$ACADVER
  1
AC1009
  9
$INSBASE
 10
0.0
 20
0.0
 30
0.0
  9
$EXTMIN
 10
0.0
 20
-2.960436562073669
 30
0.0
  9
$EXTMAX
 10
140.1100068010366
 20
126.5551017798531
 30
0.0
  9
$LIMMIN
 10
0.0
 20
0.0
  9
$LIMMAX
 10
375.0
 20
270.0
  9
$ORTHOMODE
 70
     1
  9
$REGENMODE
 70
     1
  9
$FILLMODE
 70
     1
  9
$QTEXTMODE
 70
     0
  9
$MIRRTEXT
 70
     0
  9
$DRAGMODE
 70
     2
  9
$LTSCALE
 40
10.0
  9
$OSMODE
 70
  3071
  9
$ATTMODE
 70
     1
  9
$TEXTSIZE
 40
0.2
  9
$TRACEWID
 40
0.05
  9
$TEXTSTYLE
  7
STANDARD
  9
$CLAYER
  8
0
  9
$CELTYPE
  6
BYLAYER
  9
$CECOLOR
 62
   256
  9
$DIMSCALE
 40
1.0
  9
$DIMASZ
 40
3.0
  9
$DIMEXO
 40
2.0
  9
$DIMDLI
 40
0.38
  9
$DIMRND
 40
0.0
  9
$DIMDLE
 40
0.0
  9
$DIMEXE
 40
2.0
  9
$DIMTP
 40
0.0
  9
$DIMTM
 40
0.0
  9
$DIMTXT
 40
3.2000000000000002
  9
$DIMCEN
 40
0.0
  9
$DIMTSZ
 40
0.0
  9
$DIMTOL
 70
     0
  9
$DIMLIM
 70
     0
  9
$DIMTIH
 70
     0
  9
$DIMTOH
 70
     0
  9
$DIMSE1
 70
     0
  9
$DIMSE2
 70
     0
  9
$DIMTAD
 70
     1
  9
$DIMZIN
 70
     0
  9
$DIMBLK
  1

  9
$DIMASO
 70
     0
  9
$DIMSHO
 70
     0
  9
$DIMPOST
  1

  9
$DIMAPOST
  1

  9
$DIMALT
 70
     0
  9
$DIMALTD
 70
     2
  9
$DIMALTF
 40
25.399999999999999
  9
$DIMLFAC
 40
1.0
  9
$DIMTOFL
 70
     1
  9
$DIMTVP
 40
1.6000000000000001
  9
$DIMTIX
 70
     1
  9
$DIMSOXD
 70
     0
  9
$DIMSAH
 70
     0
  9
$DIMBLK1
  1

  9
$DIMBLK2
  1

  9
$DIMSTYLE
  2
STANDARD
  9
$DIMCLRD
 70
     0
  9
$DIMCLRE
 70
     0
  9
$DIMCLRT
 70
     0
  9
$DIMTFAC
 40
1.0
  9
$DIMGAP
 40
0.09
  9
$LUNITS
 70
     2
  9
$LUPREC
 70
     4
  9
$SKETCHINC
 40
0.1
  9
$FILLETRAD
 40
0.0
  9
$AUNITS
 70
     0
  9
$AUPREC
 70
     4
  9
$MENU
  1
E:\r13\win\SUPPORT\ACAD
  9
$ELEVATION
 40
0.0
  9
$PELEVATION
 40
0.0
  9
$THICKNESS
 40
0.0
  9
$LIMCHECK
 70
     0
  9
$BLIPMODE
 70
     0
  9
$CHAMFERA
 40
0.0
  9
$CHAMFERB
 40
0.0
  9
$SKPOLY
 70
     0
  9
$TDCREATE
 40
2449839.764699074
  9
$TDUPDATE
 40
2456597.6809836109
  9
$TDINDWG
 40
0.0103224074
  9
$TDUSRTIMER
 40
0.0103224074
  9
$USRTIMER
 70
     1
  9
$ANGBASE
 50
0.0
  9
$ANGDIR
 70
     0
  9
$PDMODE
 70
     0
  9
$PDSIZE
 40
0.0
  9
$PLINEWID
 40
0.0
  9
$COORDS
 70
     1
  9
$SPLFRAME
 70
     0
  9
$SPLINETYPE
 70
     6
  9
$SPLINESEGS
 70
     8
  9
$ATTDIA
 70
     0
  9
$ATTREQ
 70
     1
  9
$HANDLING
 70
     1
  9
$HANDSEED
  5
675
  9
$SURFTAB1
 70
     6
  9
$SURFTAB2
 70
     6
  9
$SURFTYPE
 70
     6
  9
$SURFU
 70
     6
  9
$SURFV
 70
     6
  9
$UCSNAME
  2

  9
$UCSORG
 10
0.0
 20
0.0
 30
0.0
  9
$UCSXDIR
 10
1.0
 20
0.0
 30
0.0
  9
$UCSYDIR
 10
0.0
 20
1.0
 30
0.0
  9
$PUCSNAME
  2

  9
$PUCSORG
 10
0.0
 20
0.0
 30
0.0
  9
$PUCSXDIR
 10
1.0
 20
0.0
 30
0.0
  9
$PUCSYDIR
 10
0.0
 20
1.0
 30
0.0
  9
$USERI1
 70
     0
  9
$USERI2
 70
     1
  9
$USERI3
 70
     0
  9
$USERI4
 70
     0
  9
$USERI5
 70
     0
  9
$USERR1
 40
0.0
  9
$USERR2
 40
0.0
  9
$USERR3
 40
0.0
  9
$USERR4
 40
0.0
  9
$USERR5
 40
0.0
  9
$WORLDVIEW
 70
     1
  9
$SHADEDGE
 70
     3
  9
$SHADEDIF
 70
    70
  9
$TILEMODE
 70
     1
  9
$MAXACTVP
 70
    16
  9
$PLIMCHECK
 70
     0
  9
$PEXTMIN
 10
1.0000000000000000E+020
 20
1.0000000000000000E+020
 30
1.0000000000000000E+020
  9
$PEXTMAX
 10
-1.0000000000000000E+020
 20
-1.0000000000000000E+020
 30
-1.0000000000000000E+020
  9
$PLIMMIN
 10
0.0
 20
0.0
  9
$PLIMMAX
 10
12.0
 20
9.0
  9
$UNITMODE
 70
     0
  9
$VISRETAIN
 70
     0
  9
$PLINEGEN
 70
     0
  9
$PSLTSCALE
 70
     0
  0
ENDSEC
  0
SECTION
  2
TABLES
  0
TABLE
  2
VPORT
 70
     1
  0
VPORT
  2
*ACTIVE
 70
     0
 10
0.0
 20
0.0
 11
1.0
 21
1.0
 12
195.0581083320873
 22
133.5127261426681
 13
0.0
 23
0.0
 14
10.0
 24
10.0
 15
10.0
 25
10.0
 16
0.0
 26
0.0
 36
1.0
 17
0.0
 27
0.0
 37
0.0
 40
275.42274993631997
 41
1.831871345029239
 42
50.0
 43
0.0
 44
0.0
 50
0.0
 51
0.0
 71
     0
 72
   500
 73
     1
 74
     0
 75
     0
 76
     0
 77
     0
 78
     2
  0
ENDTAB
  0
TABLE
  2
LTYPE
 70
     4
  0
LTYPE
  2
CONTINUOUS
 70
     0
  3
Solid Line
 72
    65
 73
     0
 40
0.0
  0
LTYPE
  2
CENTER
 70
     0
  3
____ _ ____ _ ____ _ ____ _ ____ _ ____ _ ____
 72
    65
 73
     4
 40
2.0
 49
1.25
 49
-0.25
 49
0.25
 49
-0.25
  0
LTYPE
  2
HIDDEN
 70
     0
  3
_ _ _ _ _ _ _ _ _ _ _ _ _ _ _ _ _ _ _ _ _ _ _
 72
    65
 73
     2
 40
0.375
 49
0.25
 49
-0.125
  0
LTYPE
  2
PHANTOM2
 70
     0
  3
___ _ _ ___ _ _ ___ _ _ ___ _ _
 72
    65
 73
     6
 40
1.25
 49
0.625
 49
-0.125
 49
0.125
 49
-0.125
 49
0.125
 49
-0.125
  0
ENDTAB
  0
TABLE
  2
LAYER
 70
     4
  0
LAYER
  2
0
 70
     0
 62
     7
  6
CONTINUOUS
  0
LAYER
  2
1
 70
     0
 62
     1
  6
CENTER
  0
LAYER
  2
2
 70
     0
 62
     2
  6
HIDDEN
  0
LAYER
  2
3
 70
     0
 62
     3
  6
CONTINUOUS
  0
ENDTAB
  0
TABLE
  2
STYLE
 70
     2
  0
STYLE
  2
STANDARD
 70
     0
 40
0.0
 41
1.0
 50
0.0
 71
     0
 42
0.2
  3
TXT
  4
BIGFONT
  0
STYLE
  2
STANDARD1
 70
     0
 40
0.0
 41
1.0
 50
0.0
 71
     0
 42
3.0
  3
txt
  4

  0
ENDTAB
  0
TABLE
  2
VIEW
 70
     1
  0
VIEW
  2
ALL
 70
     0
 40
270.0
 10
220.99159663865549
 20
135.0
 41
0.0
 11
0.0
 21
0.0
 31
1.0
 12
0.0
 22
0.0
 32
0.0
 42
0.0
 43
0.0
 44
0.0
 50
0.0
 71
     0
  0
ENDTAB
  0
TABLE
  2
UCS
 70
     0
  0
ENDTAB
  0
TABLE
  2
APPID
 70
     4
  0
APPID
  2
ACAD
 70
     0
  0
APPID
  2
ACAD_MLEADERVER
 70
     0
  0
APPID
  2
ACAD_EXEMPT_FROM_CAD_STANDARDS
 70
     0
  0
APPID
  2
ACAD_NAV_VCDISPLAY
 70
     0
  0
ENDTAB
  0
TABLE
  2
DIMSTYLE
 70
     1
  0
DIMSTYLE
  2
STANDARD
 70
     0
  3

  4

  5

  6

  7

 40
1.0
 41
0.18
 42
0.0625
 43
0.38
 44
0.18
 45
0.0
 46
0.0
 47
0.0
 48
0.0
140
0.18
141
0.09
142
0.0
143
25.399999999999999
144
1.0
145
0.0
146
1.0
147
0.09
 71
     0
 72
     0
 73
     1
 74
     1
 75
     0
 76
     0
 77
     0
 78
     0
170
     0
171
     2
172
     0
173
     0
174
     0
175
     0
176
     0
177
     0
178
     0
  0
ENDTAB
  0
ENDSEC
  0
SECTION
  2
BLOCKS
  0
BLOCK
  8
0
  2
$MODEL_SPACE
 70
     0
 10
0.0
 20
0.0
 30
0.0
  3
$MODEL_SPACE
  1

  0
ENDBLK
  5
159
  8
0
  0
BLOCK
 67
     1
  8
0
  2
$PAPER_SPACE
 70
     0
 10
0.0
 20
0.0
 30
0.0
  3
$PAPER_SPACE
  1

  0
ENDBLK
  5
157
 67
     1
  8
0
  0
ENDSEC
  0
SECTION
  2
ENTITIES
  0
LINE
  5
1F4
  8
1
 10
77.896848977994466
 20
27.146614351974449
 30
0.0
 11
77.896848977994154
 21
85.146614351974435
 31
0.0
  0
LINE
  5
1F5
  8
1
 10
131.6100068010366
 20
27.146614351974431
 30
0.0
 11
131.61000680103629
 21
85.146614351974421
 31
0.0
  0
LINE
  5
1F6
  8
1
 10
63.081894401770512
 20
113.0551017798531
 30
0.0
 11
92.711803554217795
 21
113.0551017798531
 31
0.0
  0
LINE
  5
1F7
  8
1
 10
77.896848977994154
 20
99.555101779853118
 30
0.0
 11
77.896848977994154
 21
126.5551017798531
 31
0.0
  0
LINE
  5
1F9
  8
2
 10
72.896848977994594
 20
60.146614351974449
 30
0.0
 11
82.896848977994594
 21
60.146614351974421
 31
0.0
  0
LINE
  5
1FB
  8
2
 10
82.896848977994665
 20
79.396614351974392
 30
0.0
 11
82.896848977994594
 21
60.146614351974421
 31
0.0
  0
LINE
  5
1FD
  8
2
 10
72.896848977994665
 20
79.396614351974449
 30
0.0
 11
72.896848977994594
 21
60.146614351974449
 31
0.0
  0
LINE
  5
201
  8
3
 10
73.646848977994082
 20
32.896614351974861
 30
0.0
 11
73.646848977994125
 21
45.146614351974428
 31
0.0
  0
LINE
  5
203
  8
3
 10
82.146848977994537
 20
32.896614351974492
 30
0.0
 11
82.146848977994566
 21
45.146614351974407
 31
0.0
  0
LINE
  5
204
  8
2
 10
82.146848977994566
 20
55.146614351974421
 30
0.0
 11
82.146848977994665
 21
78.646614351974392
 31
0.0
  0
LINE
  5
205
  8
2
 10
73.646848977994665
 20
78.646614351974421
 30
0.0
 11
73.64684897799458
 21
55.146614351974449
 31
0.0
  0
LINE
  5
206
  8
2
 10
77.89684897799458
 20
52.592956721107271
 30
0.0
 11
82.146848977994566
 21
55.146614351974421
 31
0.0
  0
LINE
  5
207
  8
2
 10
73.64684897799458
 20
55.146614351974449
 30
0.0
 11
77.896848977994551
 21
52.592956721107271
 31
0.0
  0
LINE
  5
208
  8
2
 10
82.146848977994665
 20
78.646614351974392
 30
0.0
 11
83.646848977994665
 21
80.146614351974392
 31
0.0
  0
LINE
  5
209
  8
2
 10
72.146848977994665
 20
80.146614351974435
 30
0.0
 11
73.646848977994665
 21
78.646614351974421
 31
0.0
  0
LINE
  5
20A
  8
2
 10
73.64684897799458
 20
55.146614351974449
 30
0.0
 11
82.146848977994608
 21
55.146614351974449
 31
0.0
  0
LINE
  5
20C
  8
2
 10
73.646848977994665
 20
78.646614351974421
 30
0.0
 11
82.146848977994651
 21
78.646614351974421
 31
0.0
  0
LINE
  5
20E
  8
0
 10
81.746848977994546
 20
47.746614351974408
 30
0.0
 11
74.046848977994543
 21
47.746614351974443
 31
0.0
  0
LINE
  5
20F
  8
0
 10
74.046848977994529
 20
45.546614351974441
 30
0.0
 11
81.746848977994546
 21
45.546614351974412
 31
0.0
  0
LINE
  5
210
  8
0
 10
72.896848977994551
 20
45.146614351974428
 30
0.0
 11
82.896848977994509
 21
45.146614351974442
 31
0.0
  0
LINE
  5
213
  8
0
 10
81.396848977994495
 20
32.146614351974449
 30
0.0
 11
74.396848977994495
 21
32.146614351974449
 31
0.0
  0
LINE
  5
214
  8
0
 10
72.896848977994495
 20
33.646614351974449
 30
0.0
 11
82.896848977994509
 21
33.646614351974449
 31
0.0
  0
LINE
  5
216
  8
0
 10
69.646848977994665
 20
80.146614351974435
 30
0.0
 11
86.146848977994566
 21
80.146614351974463
 31
0.0
  0
POLYLINE
  5
218
  8
0
 66
     1
 10
0.0
 20
0.0
 30
0.0
 70
   128
  0
VERTEX
  5
5DB
  8
0
 10
68.081894401771024
 20
79.243087406122214
 30
0.0
  0
VERTEX
  5
5DC
  8
0
 10
68.719982664956575
 20
79.573154788596298
 30
0.0
  0
VERTEX
  5
5DD
  8
0
 10
69.36720006940962
 20
79.820191469397599
 30
0.0
  0
VERTEX
  5
5DE
  8
0
 10
70.036770039685464
 20
79.968036663168107
 30
0.0
  0
VERTEX
  5
5DF
  8
0
 10
70.710118494986261
 20
79.998142637021829
 30
0.0
  0
VERTEX
  5
5E0
  8
0
 10
71.282836230200076
 20
79.926761767653673
 30
0.0
  0
VERTEX
  5
5E1
  8
0
 10
71.851542771189798
 20
79.7724242338804
 30
0.0
  0
VERTEX
  5
5E2
  8
0
 10
72.424102345951297
 20
79.539595932571046
 30
0.0
  0
VERTEX
  5
5E3
  8
0
 10
72.98937168988283
 20
79.243087406122243
 30
0.0
  0
SEQEND
  5
5E4
  8
0
  0
LINE
  5
219
  8
0
 10
68.081894401771024
 20
79.243087406122214
 30
0.0
 11
68.08189440177091
 21
49.050141297826698
 31
0.0
  0
LINE
  5
21A
  8
0
 10
87.711803554218307
 20
79.243087406122143
 30
0.0
 11
87.711803554218193
 21
49.050141297826613
 31
0.0
  0
POLYLINE
  5
21B
  8
0
 66
     1
 10
0.0
 20
0.0
 30
0.0
 70
   128
  0
VERTEX
  5
5E5
  8
0
 10
82.8043262661065
 20
79.243087406122186
 30
0.0
  0
VERTEX
  5
5E6
  8
0
 10
83.442414529292009
 20
79.573154788596256
 30
0.0
  0
VERTEX
  5
5E7
  8
0
 10
84.089631933745096
 20
79.820191469397543
 30
0.0
  0
VERTEX
  5
5E8
  8
0
 10
84.759201904020927
 20
79.96803666316805
 30
0.0
  0
VERTEX
  5
5E9
  8
0
 10
85.432550359321738
 20
79.998142637021772
 30
0.0
  0
VERTEX
  5
5EA
  8
0
 10
86.005268094535552
 20
79.92676176765363
 30
0.0
  0
VERTEX
  5
5EB
  8
0
 10
86.573974635525246
 20
79.772424233880344
 30
0.0
  0
VERTEX
  5
5EC
  8
0
 10
87.146534210286774
 20
79.539595932570961
 30
0.0
  0
VERTEX
  5
5ED
  8
0
 10
87.711803554218307
 20
79.243087406122143
 30
0.0
  0
SEQEND
  5
5EE
  8
0
  0
LINE
  5
21C
  8
0
 10
69.646848977994551
 20
48.14661435197447
 30
0.0
 11
86.146848977994637
 21
48.14661435197447
 31
0.0
  0
POLYLINE
  5
21E
  8
0
 66
     1
 10
0.0
 20
0.0
 30
0.0
 70
   128
  0
VERTEX
  5
5EF
  8
0
 10
87.711803554218193
 20
49.050141297826613
 30
0.0
  0
VERTEX
  5
5F0
  8
0
 10
87.073715291032642
 20
48.720073915352543
 30
0.0
  0
VERTEX
  5
5F1
  8
0
 10
86.426497886579597
 20
48.473037234551299
 30
0.0
  0
VERTEX
  5
5F2
  8
0
 10
85.756927916303766
 20
48.325192040780792
 30
0.0
  0
VERTEX
  5
5F3
  8
0
 10
85.083579461002955
 20
48.29508606692707
 30
0.0
  0
VERTEX
  5
5F4
  8
0
 10
84.510861725789141
 20
48.366466936295211
 30
0.0
  0
VERTEX
  5
5F5
  8
0
 10
83.942155184799446
 20
48.520804470068477
 30
0.0
  0
VERTEX
  5
5F6
  8
0
 10
83.369595610037919
 20
48.753632771377859
 30
0.0
  0
VERTEX
  5
5F7
  8
0
 10
82.804326266106386
 20
49.05014129782667
 30
0.0
  0
SEQEND
  5
5F8
  8
0
  0
POLYLINE
  5
21F
  8
0
 66
     1
 10
0.0
 20
0.0
 30
0.0
 70
   128
  0
VERTEX
  5
5F9
  8
0
 10
72.989371689882717
 20
49.050141297826698
 30
0.0
  0
VERTEX
  5
5FA
  8
0
 10
72.351283426697194
 20
48.720073915352621
 30
0.0
  0
VERTEX
  5
5FB
  8
0
 10
71.70406602224412
 20
48.473037234551349
 30
0.0
  0
VERTEX
  5
5FC
  8
0
 10
71.034496051968276
 20
48.325192040780848
 30
0.0
  0
VERTEX
  5
5FD
  8
0
 10
70.361147596667507
 20
48.295086066927119
 30
0.0
  0
VERTEX
  5
5FE
  8
0
 10
69.788429861453665
 20
48.366466936295268
 30
0.0
  0
VERTEX
  5
5FF
  8
0
 10
69.21972332046397
 20
48.520804470068512
 30
0.0
  0
VERTEX
  5
600
  8
0
 10
68.647163745702443
 20
48.753632771377902
 30
0.0
  0
VERTEX
  5
601
  8
0
 10
68.08189440177091
 20
49.050141297826698
 30
0.0
  0
SEQEND
  5
602
  8
0
  0
POLYLINE
  5
220
  8
0
 66
     1
 10
0.0
 20
0.0
 30
0.0
 70
   128
  0
VERTEX
  5
603
  8
0
 10
82.804326266106386
 20
49.05014129782667
 30
0.0
  0
VERTEX
  5
604
  8
0
 10
81.048909608354791
 20
48.617513422809267
 30
0.0
  0
VERTEX
  5
605
  8
0
 10
79.245161935159047
 20
48.352309096453268
 30
0.0
  0
VERTEX
  5
606
  8
0
 10
78.004767125275492
 20
48.291798465009506
 30
0.0
  0
VERTEX
  5
607
  8
0
 10
76.763647760022963
 20
48.334371687937143
 30
0.0
  0
VERTEX
  5
608
  8
0
 10
75.497388619067323
 20
48.482962396725632
 30
0.0
  0
VERTEX
  5
609
  8
0
 10
74.245209919088296
 20
48.724650151477952
 30
0.0
  0
VERTEX
  5
60A
  8
0
 10
72.989371689882717
 20
49.050141297826698
 30
0.0
  0
SEQEND
  5
60B
  8
0
  0
LINE
  5
221
  8
0
 10
82.8043262661065
 20
79.243087406122186
 30
0.0
 11
82.804326266106386
 21
49.05014129782667
 31
0.0
  0
POLYLINE
  5
222
  8
0
 66
     1
 10
0.0
 20
0.0
 30
0.0
 70
   128
  0
VERTEX
  5
60C
  8
0
 10
72.98937168988283
 20
79.243087406122243
 30
0.0
  0
VERTEX
  5
60D
  8
0
 10
74.24520991908841
 20
79.568578552470996
 30
0.0
  0
VERTEX
  5
60E
  8
0
 10
75.465748800430944
 20
79.805300049729311
 30
0.0
  0
VERTEX
  5
60F
  8
0
 10
76.699811908469115
 20
79.953851943481567
 30
0.0
  0
VERTEX
  5
610
  8
0
 10
77.972754290958846
 20
80.001582206057492
 30
0.0
  0
VERTEX
  5
611
  8
0
 10
79.24516193515916
 20
79.94091960749563
 30
0.0
  0
VERTEX
  5
612
  8
0
 10
81.032611203413978
 20
79.678979600674595
 30
0.0
  0
VERTEX
  5
613
  8
0
 10
82.8043262661065
 20
79.243087406122186
 30
0.0
  0
SEQEND
  5
614
  8
0
  0
LINE
  5
223
  8
0
 10
72.98937168988283
 20
79.243087406122243
 30
0.0
 11
72.989371689882717
 21
49.050141297826698
 31
0.0
  0
LINE
  5
224
  8
0
 10
81.746848977994546
 20
45.546614351974412
 30
0.0
 11
81.746848977994546
 21
47.746614351974408
 31
0.0
  0
LINE
  5
225
  8
0
 10
74.046848977994543
 20
47.746614351974443
 30
0.0
 11
74.046848977994529
 21
45.546614351974441
 31
0.0
  0
ARC
  5
226
  8
0
 10
73.646848977994551
 20
47.746614351974443
 30
0.0
 40
0.4000000000000057
 50
0.0
 51
90.0
  0
ARC
  5
227
  8
0
 10
82.146848977994566
 20
47.746614351974408
 30
0.0
 40
0.4000000000000057
 50
90.0
 51
180.0
  0
ARC
  5
228
  8
0
 10
73.646848977994551
 20
45.546614351974441
 30
0.0
 40
0.4000000000000057
 50
270.0
 51
0.0
  0
ARC
  5
229
  8
0
 10
82.146848977994566
 20
45.546614351974412
 30
0.0
 40
0.4000000000000057
 50
180.0
 51
269.99999999999682
  0
LINE
  5
22A
  8
0
 10
82.896848977994495
 20
33.646614351974421
 30
0.0
 11
82.896848977994509
 21
45.146614351974392
 31
0.0
  0
LINE
  5
22B
  8
0
 10
72.896848977994551
 20
45.146614351974428
 30
0.0
 11
72.896848977994495
 21
33.646614351974449
 31
0.0
  0
LINE
  5
22C
  8
0
 10
81.396848977994466
 20
32.146614351974421
 30
0.0
 11
82.896848977994495
 21
33.646614351974421
 31
0.0
  0
LINE
  5
22D
  8
0
 10
72.896848977994495
 20
33.646614351974449
 30
0.0
 11
74.396848977994495
 21
32.146614351974449
 31
0.0
  0
LINE
  5
22E
  8
0
 10
69.646848977994665
 20
80.146614351974435
 30
0.0
 11
68.081894401771024
 21
79.243087406122214
 31
0.0
  0
LINE
  5
22F
  8
0
 10
87.711803554218307
 20
79.243087406122143
 30
0.0
 11
86.146848977994665
 21
80.146614351974392
 31
0.0
  0
LINE
  5
230
  8
0
 10
86.146848977994537
 20
48.146614351974399
 30
0.0
 11
87.711803554218193
 21
49.050141297826613
 31
0.0
  0
LINE
  5
231
  8
0
 10
68.08189440177091
 20
49.050141297826698
 30
0.0
 11
69.646848977994551
 21
48.14661435197447
 31
0.0
  0
LINE
  5
233
  8
2
 10
126.6100068010365
 20
60.146614351974392
 30
0.0
 11
136.61000680103649
 21
60.146614351974478
 31
0.0
  0
LINE
  5
235
  8
2
 10
136.61000680103641
 20
79.396614351974449
 30
0.0
 11
136.61000680103649
 21
60.146614351974478
 31
0.0
  0
LINE
  5
237
  8
2
 10
126.61000680103631
 20
79.396614351974392
 30
0.0
 11
126.6100068010365
 21
60.146614351974392
 31
0.0
  0
LINE
  5
23B
  8
3
 10
127.3600068010367
 20
32.896614351974407
 30
0.0
 11
127.3600068010366
 21
45.146614351974378
 31
0.0
  0
LINE
  5
23D
  8
3
 10
135.86000680103641
 20
32.896614351974208
 30
0.0
 11
135.86000680103641
 21
45.146614351974449
 31
0.0
  0
LINE
  5
23E
  8
2
 10
135.86000680103649
 20
55.146614351974478
 30
0.0
 11
135.86000680103641
 21
78.646614351974449
 31
0.0
  0
LINE
  5
23F
  8
2
 10
127.36000680103641
 20
78.646614351974392
 30
0.0
 11
127.3600068010365
 21
55.146614351974421
 31
0.0
  0
LINE
  5
240
  8
2
 10
131.61000680103649
 20
52.592956721107271
 30
0.0
 11
135.86000680103649
 21
55.146614351974478
 31
0.0
  0
LINE
  5
241
  8
2
 10
127.3600068010365
 20
55.146614351974421
 30
0.0
 11
131.61000680103649
 21
52.592956721107271
 31
0.0
  0
LINE
  5
242
  8
2
 10
135.86000680103641
 20
78.646614351974449
 30
0.0
 11
137.36000680103629
 21
80.146614351974435
 31
0.0
  0
LINE
  5
243
  8
2
 10
125.86000680103631
 20
80.146614351974364
 30
0.0
 11
127.36000680103641
 21
78.646614351974392
 31
0.0
  0
LINE
  5
244
  8
2
 10
127.3600068010365
 20
55.146614351974421
 30
0.0
 11
135.86000680103649
 21
55.146614351974478
 31
0.0
  0
LINE
  5
245
  8
2
 10
127.36000680103641
 20
78.646614351974392
 30
0.0
 11
135.86000680103641
 21
78.646614351974449
 31
0.0
  0
LINE
  5
246
  8
0
 10
135.4600068010366
 20
47.746614351974443
 30
0.0
 11
127.7600068010366
 21
47.746614351974387
 31
0.0
  0
LINE
  5
247
  8
0
 10
127.7600068010366
 20
45.546614351974398
 30
0.0
 11
135.4600068010366
 21
45.546614351974448
 31
0.0
  0
LINE
  5
248
  8
0
 10
126.6100068010366
 20
45.146614351974392
 30
0.0
 11
136.6100068010366
 21
45.146614351974449
 31
0.0
  0
LINE
  5
249
  8
0
 10
135.11000680103669
 20
32.146614351974449
 30
0.0
 11
128.11000680103669
 21
32.146614351974407
 31
0.0
  0
LINE
  5
24A
  8
0
 10
126.6100068010367
 20
33.646614351974392
 30
0.0
 11
136.6100068010366
 21
33.646614351974463
 31
0.0
  0
LINE
  5
24B
  8
0
 10
123.36000680103631
 20
80.146614351974364
 30
0.0
 11
139.86000680103641
 21
80.146614351974478
 31
0.0
  0
LINE
  5
24C
  8
0
 10
140.11000680103641
 20
79.243087406122271
 30
0.0
 11
140.11000680103641
 21
80.001430238939435
 31
0.0
  0
LINE
  5
24D
  8
0
 10
123.11000680103631
 20
79.243087406122129
 30
0.0
 11
123.11000680103631
 21
80.001582206057378
 31
0.0
  0
LINE
  5
24E
  8
0
 10
140.11000680103641
 20
79.243087406122271
 30
0.0
 11
140.1100068010366
 21
49.050141297826727
 31
0.0
  0
POLYLINE
  5
24F
  8
0
 66
     1
 10
0.0
 20
0.0
 30
0.0
 70
   128
  0
VERTEX
  5
615
  8
0
 10
131.61000680103641
 20
79.243087406122214
 30
0.0
  0
VERTEX
  5
616
  8
0
 10
132.71520809258709
 20
79.573154788596298
 30
0.0
  0
VERTEX
  5
617
  8
0
 10
133.8362215206426
 20
79.820191469397599
 30
0.0
  0
VERTEX
  5
618
  8
0
 10
134.9959507283827
 20
79.968036663168107
 30
0.0
  0
VERTEX
  5
619
  8
0
 10
136.16222446416171
 20
79.998142637021829
 30
0.0
  0
VERTEX
  5
61A
  8
0
 10
137.15420067994791
 20
79.926761767653716
 30
0.0
  0
VERTEX
  5
61B
  8
0
 10
138.1392293035388
 20
79.772424233880429
 30
0.0
  0
VERTEX
  5
61C
  8
0
 10
139.13093157738581
 20
79.539595932571046
 30
0.0
  0
VERTEX
  5
61D
  8
0
 10
140.11000680103641
 20
79.243087406122271
 30
0.0
  0
SEQEND
  5
61E
  8
0
  0
LINE
  5
250
  8
0
 10
123.3600068010366
 20
48.146614351974378
 30
0.0
 11
139.8600068010366
 21
48.146614351974492
 31
0.0
  0
LINE
  5
251
  8
0
 10
123.1100068010366
 20
49.050141297826613
 30
0.0
 11
123.1100068010366
 21
48.291798465009421
 31
0.0
  0
LINE
  5
252
  8
0
 10
140.1100068010366
 20
49.050141297826727
 30
0.0
 11
140.1100068010366
 21
48.291646497891449
 31
0.0
  0
POLYLINE
  5
253
  8
0
 66
     1
 10
0.0
 20
0.0
 30
0.0
 70
   128
  0
VERTEX
  5
61F
  8
0
 10
140.1100068010366
 20
49.050141297826727
 30
0.0
  0
VERTEX
  5
620
  8
0
 10
139.00480550948581
 20
48.720073915352657
 30
0.0
  0
VERTEX
  5
621
  8
0
 10
137.88379208143019
 20
48.473037234551377
 30
0.0
  0
VERTEX
  5
622
  8
0
 10
136.72406287369009
 20
48.325192040780877
 30
0.0
  0
VERTEX
  5
623
  8
0
 10
135.55778913791119
 20
48.295086066927119
 30
0.0
  0
VERTEX
  5
624
  8
0
 10
134.56581292212499
 20
48.366466936295268
 30
0.0
  0
VERTEX
  5
625
  8
0
 10
133.5807842985341
 20
48.520804470068512
 30
0.0
  0
VERTEX
  5
626
  8
0
 10
132.58908202468709
 20
48.753632771377902
 30
0.0
  0
VERTEX
  5
627
  8
0
 10
131.6100068010366
 20
49.050141297826698
 30
0.0
  0
SEQEND
  5
628
  8
0
  0
POLYLINE
  5
254
  8
0
 66
     1
 10
0.0
 20
0.0
 30
0.0
 70
   128
  0
VERTEX
  5
629
  8
0
 10
131.6100068010366
 20
49.050141297826698
 30
0.0
  0
VERTEX
  5
62A
  8
0
 10
130.50480550948581
 20
48.7200739153526
 30
0.0
  0
VERTEX
  5
62B
  8
0
 10
129.38379208143019
 20
48.473037234551327
 30
0.0
  0
VERTEX
  5
62C
  8
0
 10
128.22406287369009
 20
48.325192040780813
 30
0.0
  0
VERTEX
  5
62D
  8
0
 10
127.0577891379112
 20
48.29508606692707
 30
0.0
  0
VERTEX
  5
62E
  8
0
 10
126.06581292212501
 20
48.366466936295211
 30
0.0
  0
VERTEX
  5
62F
  8
0
 10
125.0807842985341
 20
48.520804470068448
 30
0.0
  0
VERTEX
  5
630
  8
0
 10
124.0890820246871
 20
48.753632771377852
 30
0.0
  0
VERTEX
  5
631
  8
0
 10
123.1100068010366
 20
49.050141297826613
 30
0.0
  0
SEQEND
  5
632
  8
0
  0
LINE
  5
255
  8
0
 10
131.61000680103641
 20
79.243087406122214
 30
0.0
 11
131.6100068010366
 21
49.050141297826698
 31
0.0
  0
POLYLINE
  5
256
  8
0
 66
     1
 10
0.0
 20
0.0
 30
0.0
 70
   128
  0
VERTEX
  5
633
  8
0
 10
123.11000680103631
 20
79.243087406122129
 30
0.0
  0
VERTEX
  5
634
  8
0
 10
124.2152080925871
 20
79.573154788596213
 30
0.0
  0
VERTEX
  5
635
  8
0
 10
125.3362215206426
 20
79.820191469397543
 30
0.0
  0
VERTEX
  5
636
  8
0
 10
126.49595072838279
 20
79.96803666316805
 30
0.0
  0
VERTEX
  5
637
  8
0
 10
127.6622244641617
 20
79.998142637021772
 30
0.0
  0
VERTEX
  5
638
  8
0
 10
128.65420067994791
 20
79.926761767653659
 30
0.0
  0
VERTEX
  5
639
  8
0
 10
129.6392293035388
 20
79.772424233880372
 30
0.0
  0
VERTEX
  5
63A
  8
0
 10
130.63093157738581
 20
79.539595932571018
 30
0.0
  0
VERTEX
  5
63B
  8
0
 10
131.61000680103641
 20
79.243087406122214
 30
0.0
  0
SEQEND
  5
63C
  8
0
  0
LINE
  5
257
  8
0
 10
123.11000680103631
 20
79.243087406122129
 30
0.0
 11
123.1100068010366
 21
49.050141297826613
 31
0.0
  0
LINE
  5
258
  8
0
 10
135.4600068010366
 20
45.546614351974448
 30
0.0
 11
135.4600068010366
 21
47.746614351974443
 31
0.0
  0
LINE
  5
259
  8
0
 10
127.7600068010366
 20
47.746614351974387
 30
0.0
 11
127.7600068010366
 21
45.546614351974398
 31
0.0
  0
ARC
  5
25A
  8
0
 10
127.3600068010366
 20
47.746614351974387
 30
0.0
 40
0.4000000000000199
 50
0.0
 51
90.0
  0
ARC
  5
25B
  8
0
 10
135.8600068010366
 20
47.746614351974443
 30
0.0
 40
0.4000000000000341
 50
90.0
 51
180.0
  0
ARC
  5
25C
  8
0
 10
127.3600068010366
 20
45.546614351974398
 30
0.0
 40
0.4000000000000057
 50
270.0
 51
0.0
  0
ARC
  5
25D
  8
0
 10
135.8600068010366
 20
45.546614351974448
 30
0.0
 40
0.4000000000000341
 50
180.0
 51
270.0
  0
LINE
  5
25E
  8
0
 10
136.6100068010366
 20
33.646614351974463
 30
0.0
 11
136.6100068010366
 21
45.146614351974449
 31
0.0
  0
LINE
  5
25F
  8
0
 10
126.6100068010366
 20
45.146614351974392
 30
0.0
 11
126.6100068010367
 21
33.646614351974392
 31
0.0
  0
LINE
  5
260
  8
0
 10
135.11000680103669
 20
32.146614351974449
 30
0.0
 11
136.6100068010366
 21
33.646614351974463
 31
0.0
  0
LINE
  5
261
  8
0
 10
126.6100068010367
 20
33.646614351974392
 30
0.0
 11
128.11000680103669
 21
32.146614351974407
 31
0.0
  0
LINE
  5
262
  8
0
 10
123.36000680103631
 20
80.146614351974364
 30
0.0
 11
123.11000680103631
 21
80.002276784676951
 31
0.0
  0
LINE
  5
263
  8
0
 10
140.11000680103641
 20
80.002276784677093
 30
0.0
 11
139.86000680103641
 21
80.146614351974478
 31
0.0
  0
LINE
  5
264
  8
0
 10
139.8600068010366
 20
48.146614351974492
 30
0.0
 11
140.1100068010366
 21
48.290951919271869
 31
0.0
  0
LINE
  5
265
  8
0
 10
123.1100068010366
 20
48.29095191927177
 30
0.0
 11
123.3600068010366
 21
48.146614351974378
 31
0.0
  0
CIRCLE
  5
266
  8
3
 10
77.896848977994154
 20
113.0551017798531
 30
0.0
 40
5.0
  0
CIRCLE
  5
267
  8
0
 10
77.896848977994154
 20
113.0551017798531
 30
0.0
 40
4.2500000000000284
  0
CIRCLE
  5
268
  8
0
 10
77.896848977994154
 20
113.0551017798531
 30
0.0
 40
5.7500000000000284
  0
LINE
  5
269
  8
0
 10
72.989371689882304
 20
121.5551017798531
 30
0.0
 11
68.081894401770512
 21
113.0551017798531
 31
0.0
  0
CIRCLE
  5
26A
  8
0
 10
77.896848977994154
 20
113.0551017798531
 30
0.0
 40
8.2500000000000284
  0
LINE
  5
26B
  8
0
 10
68.081894401770512
 20
113.0551017798531
 30
0.0
 11
72.989371689882304
 21
104.5551017798531
 31
0.0
  0
LINE
  5
26C
  8
0
 10
72.989371689882304
 20
104.5551017798531
 30
0.0
 11
82.804326266105946
 21
104.5551017798531
 31
0.0
  0
LINE
  5
26D
  8
0
 10
82.804326266105946
 20
104.5551017798531
 30
0.0
 11
87.711803554217795
 21
113.0551017798531
 31
0.0
  0
LINE
  5
26E
  8
0
 10
87.711803554217795
 20
113.0551017798531
 30
0.0
 11
82.804326266105988
 21
121.5551017798531
 31
0.0
  0
LINE
  5
26F
  8
0
 10
82.804326266105988
 20
121.5551017798531
 30
0.0
 11
72.989371689882304
 21
121.5551017798531
 31
0.0
  0
TEXT
  5
5AE
  8
0
 62
     3
 10
0.0
 20
0.0
 30
0.0
 40
10.0
  1
BJ610-10032-SUS
  7
STANDARD1
  0
ENDSEC
  0
EOF
