  0
SECTION
  2
HEADER
  9
$ACADVER
  1
AC1009
  9
$INSBASE
 10
0.0
 20
0.0
 30
0.0
  9
$EXTMIN
 10
0.0
 20
-2.960436562073669
 30
0.0
  9
$EXTMAX
 10
210.0
 20
275.35989687325662
 30
0.0
  9
$LIMMIN
 10
0.0
 20
0.0
  9
$LIMMAX
 10
375.0
 20
270.0
  9
$ORTHOMODE
 70
     1
  9
$REGENMODE
 70
     1
  9
$FILLMODE
 70
     1
  9
$QTEXTMODE
 70
     0
  9
$MIRRTEXT
 70
     0
  9
$DRAGMODE
 70
     2
  9
$LTSCALE
 40
10.0
  9
$OSMODE
 70
  3071
  9
$ATTMODE
 70
     1
  9
$TEXTSIZE
 40
0.2
  9
$TRACEWID
 40
0.05
  9
$TEXTSTYLE
  7
STANDARD
  9
$CLAYER
  8
0
  9
$CELTYPE
  6
BYLAYER
  9
$CECOLOR
 62
   256
  9
$DIMSCALE
 40
1.0
  9
$DIMASZ
 40
3.0
  9
$DIMEXO
 40
2.0
  9
$DIMDLI
 40
0.38
  9
$DIMRND
 40
0.0
  9
$DIMDLE
 40
0.0
  9
$DIMEXE
 40
2.0
  9
$DIMTP
 40
0.0
  9
$DIMTM
 40
0.0
  9
$DIMTXT
 40
3.2000000000000002
  9
$DIMCEN
 40
0.0
  9
$DIMTSZ
 40
0.0
  9
$DIMTOL
 70
     0
  9
$DIMLIM
 70
     0
  9
$DIMTIH
 70
     0
  9
$DIMTOH
 70
     0
  9
$DIMSE1
 70
     0
  9
$DIMSE2
 70
     0
  9
$DIMTAD
 70
     1
  9
$DIMZIN
 70
     0
  9
$DIMBLK
  1

  9
$DIMASO
 70
     0
  9
$DIMSHO
 70
     0
  9
$DIMPOST
  1

  9
$DIMAPOST
  1

  9
$DIMALT
 70
     0
  9
$DIMALTD
 70
     2
  9
$DIMALTF
 40
25.399999999999999
  9
$DIMLFAC
 40
1.0
  9
$DIMTOFL
 70
     1
  9
$DIMTVP
 40
1.6000000000000001
  9
$DIMTIX
 70
     1
  9
$DIMSOXD
 70
     0
  9
$DIMSAH
 70
     0
  9
$DIMBLK1
  1

  9
$DIMBLK2
  1

  9
$DIMSTYLE
  2
STANDARD
  9
$DIMCLRD
 70
     0
  9
$DIMCLRE
 70
     0
  9
$DIMCLRT
 70
     0
  9
$DIMTFAC
 40
1.0
  9
$DIMGAP
 40
0.09
  9
$LUNITS
 70
     2
  9
$LUPREC
 70
     4
  9
$SKETCHINC
 40
0.1
  9
$FILLETRAD
 40
0.0
  9
$AUNITS
 70
     0
  9
$AUPREC
 70
     4
  9
$MENU
  1
E:\r13\win\SUPPORT\ACAD
  9
$ELEVATION
 40
0.0
  9
$PELEVATION
 40
0.0
  9
$THICKNESS
 40
0.0
  9
$LIMCHECK
 70
     0
  9
$BLIPMODE
 70
     0
  9
$CHAMFERA
 40
0.0
  9
$CHAMFERB
 40
0.0
  9
$SKPOLY
 70
     0
  9
$TDCREATE
 40
2449839.7643634258
  9
$TDUPDATE
 40
2456597.6791755902
  9
$TDINDWG
 40
0.0005316782
  9
$TDUSRTIMER
 40
0.0005316782
  9
$USRTIMER
 70
     1
  9
$ANGBASE
 50
0.0
  9
$ANGDIR
 70
     0
  9
$PDMODE
 70
     0
  9
$PDSIZE
 40
0.0
  9
$PLINEWID
 40
0.0
  9
$COORDS
 70
     1
  9
$SPLFRAME
 70
     0
  9
$SPLINETYPE
 70
     6
  9
$SPLINESEGS
 70
     8
  9
$ATTDIA
 70
     0
  9
$ATTREQ
 70
     1
  9
$HANDLING
 70
     1
  9
$HANDSEED
  5
27E
  9
$SURFTAB1
 70
     6
  9
$SURFTAB2
 70
     6
  9
$SURFTYPE
 70
     6
  9
$SURFU
 70
     6
  9
$SURFV
 70
     6
  9
$UCSNAME
  2

  9
$UCSORG
 10
0.0
 20
0.0
 30
0.0
  9
$UCSXDIR
 10
1.0
 20
0.0
 30
0.0
  9
$UCSYDIR
 10
0.0
 20
1.0
 30
0.0
  9
$PUCSNAME
  2

  9
$PUCSORG
 10
0.0
 20
0.0
 30
0.0
  9
$PUCSXDIR
 10
1.0
 20
0.0
 30
0.0
  9
$PUCSYDIR
 10
0.0
 20
1.0
 30
0.0
  9
$USERI1
 70
     0
  9
$USERI2
 70
     1
  9
$USERI3
 70
     0
  9
$USERI4
 70
     0
  9
$USERI5
 70
     0
  9
$USERR1
 40
0.0
  9
$USERR2
 40
0.0
  9
$USERR3
 40
0.0
  9
$USERR4
 40
0.0
  9
$USERR5
 40
0.0
  9
$WORLDVIEW
 70
     1
  9
$SHADEDGE
 70
     3
  9
$SHADEDIF
 70
    70
  9
$TILEMODE
 70
     1
  9
$MAXACTVP
 70
    16
  9
$PLIMCHECK
 70
     0
  9
$PEXTMIN
 10
1.0000000000000000E+020
 20
1.0000000000000000E+020
 30
1.0000000000000000E+020
  9
$PEXTMAX
 10
-1.0000000000000000E+020
 20
-1.0000000000000000E+020
 30
-1.0000000000000000E+020
  9
$PLIMMIN
 10
0.0
 20
0.0
  9
$PLIMMAX
 10
12.0
 20
9.0
  9
$UNITMODE
 70
     0
  9
$VISRETAIN
 70
     0
  9
$PLINEGEN
 70
     0
  9
$PSLTSCALE
 70
     0
  0
ENDSEC
  0
SECTION
  2
TABLES
  0
TABLE
  2
VPORT
 70
     1
  0
VPORT
  2
*ACTIVE
 70
     0
 10
0.0
 20
0.0
 11
1.0
 21
1.0
 12
195.20674798778131
 22
136.19886442563839
 13
0.0
 23
0.0
 14
10.0
 24
10.0
 15
10.0
 25
10.0
 16
0.0
 26
0.0
 36
1.0
 17
0.0
 27
0.0
 37
0.0
 40
280.83518557247532
 41
1.8318713450292401
 42
50.0
 43
0.0
 44
0.0
 50
0.0
 51
0.0
 71
     0
 72
   500
 73
     1
 74
     0
 75
     0
 76
     0
 77
     0
 78
     2
  0
ENDTAB
  0
TABLE
  2
LTYPE
 70
     4
  0
LTYPE
  2
CONTINUOUS
 70
     0
  3
Solid Line
 72
    65
 73
     0
 40
0.0
  0
LTYPE
  2
CENTER
 70
     0
  3
____ _ ____ _ ____ _ ____ _ ____ _ ____ _ ____
 72
    65
 73
     4
 40
2.0
 49
1.25
 49
-0.25
 49
0.25
 49
-0.25
  0
LTYPE
  2
HIDDEN
 70
     0
  3
_ _ _ _ _ _ _ _ _ _ _ _ _ _ _ _ _ _ _ _ _ _ _
 72
    65
 73
     2
 40
0.375
 49
0.25
 49
-0.125
  0
LTYPE
  2
PHANTOM2
 70
     0
  3
___ _ _ ___ _ _ ___ _ _ ___ _ _
 72
    65
 73
     6
 40
1.25
 49
0.625
 49
-0.125
 49
0.125
 49
-0.125
 49
0.125
 49
-0.125
  0
ENDTAB
  0
TABLE
  2
LAYER
 70
     5
  0
LAYER
  2
0
 70
     0
 62
     7
  6
CONTINUOUS
  0
LAYER
  2
1
 70
     0
 62
     1
  6
CENTER
  0
LAYER
  2
3
 70
     0
 62
     3
  6
CONTINUOUS
  0
LAYER
  2
4
 70
     0
 62
     4
  6
CONTINUOUS
  0
LAYER
  2
2
 70
     0
 62
     2
  6
HIDDEN
  0
ENDTAB
  0
TABLE
  2
STYLE
 70
     3
  0
STYLE
  2
STANDARD
 70
     0
 40
0.0
 41
1.0
 50
0.0
 71
     0
 42
0.2
  3
TXT
  4
BIGFONT
  0
STYLE
  2
07500
 70
     0
 40
0.0
 41
0.75
 50
0.0
 71
     0
 42
2.0
  3
ROMANS
  4
EXTFONT
  0
STYLE
  2
STANDARD1
 70
     0
 40
0.0
 41
1.0
 50
0.0
 71
     0
 42
3.0
  3
txt
  4

  0
ENDTAB
  0
TABLE
  2
VIEW
 70
     1
  0
VIEW
  2
ALL
 70
     0
 40
270.0
 10
220.99159663865549
 20
135.0
 41
0.0
 11
0.0
 21
0.0
 31
1.0
 12
0.0
 22
0.0
 32
0.0
 42
0.0
 43
0.0
 44
0.0
 50
0.0
 71
     0
  0
ENDTAB
  0
TABLE
  2
UCS
 70
     0
  0
ENDTAB
  0
TABLE
  2
APPID
 70
     3
  0
APPID
  2
ACAD
 70
     0
  0
APPID
  2
ACAD_MLEADERVER
 70
     0
  0
APPID
  2
ACAD_NAV_VCDISPLAY
 70
     0
  0
ENDTAB
  0
TABLE
  2
DIMSTYLE
 70
     1
  0
DIMSTYLE
  2
STANDARD
 70
     0
  3

  4

  5

  6

  7

 40
1.0
 41
0.18
 42
0.0625
 43
0.38
 44
0.18
 45
0.0
 46
0.0
 47
0.0
 48
0.0
140
0.18
141
0.09
142
0.0
143
25.399999999999999
144
1.0
145
0.0
146
1.0
147
0.09
 71
     0
 72
     0
 73
     1
 74
     1
 75
     0
 76
     0
 77
     0
 78
     0
170
     0
171
     2
172
     0
173
     0
174
     0
175
     0
176
     0
177
     0
178
     0
  0
ENDTAB
  0
ENDSEC
  0
SECTION
  2
BLOCKS
  0
BLOCK
  8
0
  2
$MODEL_SPACE
 70
     0
 10
0.0
 20
0.0
 30
0.0
  3
$MODEL_SPACE
  1

  0
ENDBLK
  5
DE
  8
0
  0
BLOCK
 67
     1
  8
0
  2
$PAPER_SPACE
 70
     0
 10
0.0
 20
0.0
 30
0.0
  3
$PAPER_SPACE
  1

  0
ENDBLK
  5
DC
 67
     1
  8
0
  0
ENDSEC
  0
SECTION
  2
ENTITIES
  0
LINE
  5
43
  8
1
 10
150.0
 20
245.35989687325659
 30
0.0
 11
210.0
 21
245.35989687325659
 31
0.0
  0
LINE
  5
44
  8
1
 10
180.0
 20
215.35989687325659
 30
0.0
 11
180.0
 21
275.35989687325662
 31
0.0
  0
CIRCLE
  5
45
  8
0
 10
180.0
 20
245.35989687325659
 30
0.0
 40
5.052999999999999
  0
CIRCLE
  5
46
  8
3
 10
180.0
 20
245.35989687325659
 30
0.0
 40
6.0
  0
CIRCLE
  5
47
  8
0
 10
180.0
 20
245.35989687325659
 30
0.0
 40
20.0
  0
LINE
  5
48
  8
1
 10
180.0
 20
184.99999999999989
 30
0.0
 11
179.99999999999989
 21
9.9999999999998863
 31
0.0
  0
LINE
  5
49
  8
0
 10
198.99999999999989
 20
49.999999999999893
 30
0.0
 11
161.0000000000002
 21
49.999999999999893
 31
0.0
  0
LINE
  5
4A
  8
3
 10
174.95000190734279
 20
46.499999999995573
 30
0.0
 11
174.95000190734279
 21
21.099998092657071
 31
0.0
  0
LINE
  5
4B
  8
0
 10
181.45016556471819
 20
79.999999999999886
 30
0.0
 11
181.45016556471819
 21
59.999999999999893
 31
0.0
  0
LINE
  5
4C
  8
0
 10
181.45016556471819
 20
59.999999999999893
 30
0.0
 11
196.5498344352817
 21
59.999999999999893
 31
0.0
  0
LINE
  5
4D
  8
0
 10
196.5498344352817
 20
59.999999999999893
 30
0.0
 11
196.5498344352817
 21
79.999999999999886
 31
0.0
  0
LINE
  5
4E
  8
0
 10
196.5498344352817
 20
79.999999999999886
 30
0.0
 11
181.45016556471819
 21
79.999999999999886
 31
0.0
  0
ARC
  5
4F
  8
0
 10
189.0
 20
56.999999999999879
 30
0.0
 40
24.207436873823848
 50
71.827388008028734
 51
108.17261199197149
  0
ARC
  5
50
  8
0
 10
189.0
 20
84.104373738739127
 30
0.0
 40
25.259074277118501
 50
252.60869795399779
 51
287.39130204600229
  0
ARC
  5
51
  8
0
 10
171.0
 20
84.104373738739127
 30
0.0
 40
25.259074277118501
 50
252.60869795399771
 51
287.39130204600229
  0
ARC
  5
52
  8
0
 10
171.0
 20
56.999999999999879
 30
0.0
 40
24.207436873823848
 50
71.827388008028436
 51
108.17261199197119
  0
LINE
  5
53
  8
0
 10
163.45016556471819
 20
79.999999999999886
 30
0.0
 11
178.54983443528181
 21
79.999999999999886
 31
0.0
  0
LINE
  5
54
  8
0
 10
163.45016556471819
 20
59.999999999999893
 30
0.0
 11
163.45016556471819
 21
79.999999999999886
 31
0.0
  0
LINE
  5
55
  8
0
 10
178.54983443528181
 20
59.999999999999893
 30
0.0
 11
163.45016556471819
 21
59.999999999999893
 31
0.0
  0
LINE
  5
56
  8
0
 10
178.54983443528181
 20
79.999999999999886
 30
0.0
 11
178.54983443528181
 21
59.999999999999893
 31
0.0
  0
LINE
  5
57
  8
0
 10
160.0
 20
173.99999999999989
 30
0.0
 11
160.0
 21
81.154700538379188
 31
0.0
  0
LINE
  5
58
  8
0
 10
162.0
 20
79.999999999999886
 30
0.0
 11
162.0
 21
59.999999999999893
 31
0.0
  0
LINE
  5
59
  8
0
 10
175.2999999999999
 20
49.600000000000023
 30
0.0
 11
175.2999999999999
 21
46.89999999999997
 31
0.0
  0
LINE
  5
5A
  8
0
 10
174.89999999999981
 20
46.499999999999879
 30
0.0
 11
174.0
 21
46.499999999999879
 31
0.0
  0
LINE
  5
5B
  8
0
 10
174.0
 20
46.499999999999879
 30
0.0
 11
174.0000000000002
 21
21.99999999999989
 31
0.0
  0
LINE
  5
5C
  8
0
 10
161.0
 20
174.99999999999989
 30
0.0
 11
160.0
 21
173.99999999999989
 31
0.0
  0
LINE
  5
5D
  8
0
 10
160.0
 20
50.999999999999879
 30
0.0
 11
161.0000000000002
 21
49.999999999999893
 31
0.0
  0
LINE
  5
5E
  8
0
 10
174.0
 20
21.99999999999989
 30
0.0
 11
176.0000000000002
 21
19.999999999999879
 31
0.0
  0
ARC
  5
5F
  8
0
 10
174.89999999999981
 20
49.600000000000023
 30
0.0
 40
0.4
 50
0.0000000000000368
 51
89.999999999999986
  0
ARC
  5
60
  8
0
 10
174.89999999999981
 20
46.89999999999997
 30
0.0
 40
0.4
 50
270.0
 51
360.0
  0
LINE
  5
61
  8
0
 10
162.0
 20
79.999999999999886
 30
0.0
 11
160.0
 21
81.154700538379188
 31
0.0
  0
LINE
  5
62
  8
0
 10
162.0
 20
59.999999999999893
 30
0.0
 11
160.0
 21
58.845299461620812
 31
0.0
  0
LINE
  5
63
  8
0
 10
160.0
 20
58.845299461620812
 30
0.0
 11
160.0
 21
50.999999999999879
 31
0.0
  0
LINE
  5
64
  8
3
 10
185.04999809265701
 20
46.499999999995573
 30
0.0
 11
185.04999809265701
 21
21.099998092657071
 31
0.0
  0
LINE
  5
65
  8
0
 10
186.0
 20
21.99999999999989
 30
0.0
 11
174.0000000000002
 21
21.99999999999989
 31
0.0
  0
LINE
  5
66
  8
0
 10
186.0
 20
46.499999999999879
 30
0.0
 11
174.0
 21
46.499999999999879
 31
0.0
  0
LINE
  5
67
  8
0
 10
199.99999999999989
 20
58.845299461620812
 30
0.0
 11
199.99999999999989
 21
50.999999999999879
 31
0.0
  0
LINE
  5
68
  8
0
 10
197.99999999999989
 20
59.999999999999893
 30
0.0
 11
199.99999999999989
 21
58.845299461620812
 31
0.0
  0
LINE
  5
69
  8
0
 10
197.99999999999989
 20
79.999999999999886
 30
0.0
 11
199.99999999999989
 21
81.154700538379188
 31
0.0
  0
ARC
  5
6A
  8
0
 10
185.09999999999991
 20
46.89999999999997
 30
0.0
 40
0.4
 50
180.0
 51
270.0
  0
ARC
  5
6B
  8
0
 10
185.09999999999991
 20
49.600000000000023
 30
0.0
 40
0.4
 50
89.999999999999986
 51
180.0
  0
LINE
  5
6C
  8
0
 10
186.0
 20
21.99999999999989
 30
0.0
 11
184.0
 21
19.999999999999879
 31
0.0
  0
LINE
  5
6D
  8
0
 10
199.99999999999989
 20
50.999999999999879
 30
0.0
 11
198.99999999999989
 21
49.999999999999893
 31
0.0
  0
LINE
  5
6E
  8
0
 10
199.0
 20
174.99999999999989
 30
0.0
 11
200.0
 21
173.99999999999989
 31
0.0
  0
LINE
  5
6F
  8
0
 10
184.0
 20
19.999999999999879
 30
0.0
 11
176.0000000000002
 21
19.999999999999879
 31
0.0
  0
LINE
  5
70
  8
0
 10
186.0
 20
46.499999999999879
 30
0.0
 11
186.0
 21
21.99999999999989
 31
0.0
  0
LINE
  5
71
  8
0
 10
185.09999999999991
 20
46.499999999999879
 30
0.0
 11
186.0
 21
46.499999999999879
 31
0.0
  0
LINE
  5
72
  8
0
 10
184.69999999999979
 20
49.600000000000023
 30
0.0
 11
184.69999999999979
 21
46.89999999999997
 31
0.0
  0
LINE
  5
73
  8
0
 10
197.99999999999989
 20
79.999999999999886
 30
0.0
 11
197.99999999999989
 21
59.999999999999893
 31
0.0
  0
LINE
  5
74
  8
0
 10
200.0
 20
173.99999999999989
 30
0.0
 11
199.99999999999989
 21
81.154700538379188
 31
0.0
  0
LINE
  5
75
  8
0
 10
161.0
 20
174.99999999999989
 30
0.0
 11
199.0
 21
174.99999999999989
 31
0.0
  0
LINE
  5
142
  8
0
 10
163.45016556471819
 20
79.999999999999886
 30
0.0
 11
178.54983443528181
 21
59.999999999999893
 31
0.0
  0
LINE
  5
143
  8
0
 10
178.54983443528181
 20
79.999999999999886
 30
0.0
 11
163.45016556471819
 21
59.999999999999893
 31
0.0
  0
LINE
  5
144
  8
0
 10
181.45016556471811
 20
79.999999999999844
 30
0.0
 11
196.54983443528181
 21
59.999999999999893
 31
0.0
  0
LINE
  5
145
  8
0
 10
196.54983443528181
 20
79.999999999999886
 30
0.0
 11
181.45016556471819
 21
59.999999999999893
 31
0.0
  0
LINE
  5
1AB
  8
2
 10
186.1524154589373
 20
139.9999999999998
 30
0.0
 11
173.84758454106259
 21
139.9999999999998
 31
0.0
  0
LINE
  5
1AC
  8
2
 10
185.30241545893739
 20
133.9999999999996
 30
0.0
 11
174.69758454106261
 21
133.9999999999996
 31
0.0
  0
LINE
  5
1AD
  8
2
 10
174.69758454106261
 20
174.99999999999989
 30
0.0
 11
174.69758454106261
 21
133.9999999999996
 31
0.0
  0
LINE
  5
1AE
  8
2
 10
173.8475845410627
 20
174.9999999999998
 30
0.0
 11
173.84758454106259
 21
139.9999999999998
 31
0.0
  0
LINE
  5
1AF
  8
2
 10
174.69758454106261
 20
133.9999999999996
 30
0.0
 11
180.0
 21
130.9386490074269
 31
0.0
  0
LINE
  5
1B0
  8
2
 10
185.3024154589373
 20
174.99999999999989
 30
0.0
 11
185.3024154589373
 21
133.9999999999996
 31
0.0
  0
LINE
  5
1B1
  8
2
 10
186.1524154589373
 20
174.9999999999998
 30
0.0
 11
186.1524154589373
 21
139.9999999999998
 31
0.0
  0
LINE
  5
1B2
  8
2
 10
185.30241545893739
 20
133.9999999999996
 30
0.0
 11
180.0
 21
130.93864900742679
 31
0.0
  0
TEXT
  5
214
  8
0
 62
     3
 10
0.0
 20
0.0
 30
0.0
 40
10.0
  1
BJ600-12125
  7
STANDARD1
  0
ENDSEC
  0
EOF
