  0
SECTION
  2
HEADER
  9
$ACADVER
  1
AC1009
  9
$INSBASE
 10
0.0
 20
0.0
 30
0.0
  9
$EXTMIN
 10
0.0
 20
-2.960436562073669
 30
0.0
  9
$EXTMAX
 10
214.9820031539289
 20
157.52769686454641
 30
0.0
  9
$LIMMIN
 10
0.0
 20
0.0
  9
$LIMMAX
 10
390.0
 20
270.0
  9
$ORTHOMODE
 70
     1
  9
$REGENMODE
 70
     1
  9
$FILLMODE
 70
     1
  9
$QTEXTMODE
 70
     0
  9
$MIRRTEXT
 70
     0
  9
$DRAGMODE
 70
     2
  9
$LTSCALE
 40
5.0
  9
$OSMODE
 70
  3071
  9
$ATTMODE
 70
     1
  9
$TEXTSIZE
 40
2.5
  9
$TRACEWID
 40
1.0
  9
$TEXTSTYLE
  7
STANDARD
  9
$CLAYER
  8
4
  9
$CELTYPE
  6
BYLAYER
  9
$CECOLOR
 62
   256
  9
$DIMSCALE
 40
1.5
  9
$DIMASZ
 40
3.0
  9
$DIMEXO
 40
1.0
  9
$DIMDLI
 40
6.0
  9
$DIMRND
 40
0.0
  9
$DIMDLE
 40
0.0
  9
$DIMEXE
 40
1.0
  9
$DIMTP
 40
495.0
  9
$DIMTM
 40
0.0
  9
$DIMTXT
 40
3.2000000000000002
  9
$DIMCEN
 40
0.0
  9
$DIMTSZ
 40
0.0
  9
$DIMTOL
 70
     0
  9
$DIMLIM
 70
     0
  9
$DIMTIH
 70
     0
  9
$DIMTOH
 70
     0
  9
$DIMSE1
 70
     0
  9
$DIMSE2
 70
     0
  9
$DIMTAD
 70
     1
  9
$DIMZIN
 70
     0
  9
$DIMBLK
  1

  9
$DIMASO
 70
     0
  9
$DIMSHO
 70
     1
  9
$DIMPOST
  1

  9
$DIMAPOST
  1

  9
$DIMALT
 70
     0
  9
$DIMALTD
 70
     2
  9
$DIMALTF
 40
25.399999999999999
  9
$DIMLFAC
 40
1.0
  9
$DIMTOFL
 70
     1
  9
$DIMTVP
 40
0.0
  9
$DIMTIX
 70
     1
  9
$DIMSOXD
 70
     0
  9
$DIMSAH
 70
     0
  9
$DIMBLK1
  1

  9
$DIMBLK2
  1

  9
$DIMSTYLE
  2
ITM
  9
$DIMCLRD
 70
   256
  9
$DIMCLRE
 70
   256
  9
$DIMCLRT
 70
   256
  9
$DIMTFAC
 40
1.0
  9
$DIMGAP
 40
1.0
  9
$LUNITS
 70
     2
  9
$LUPREC
 70
     2
  9
$SKETCHINC
 40
1.0
  9
$FILLETRAD
 40
0.4
  9
$AUNITS
 70
     0
  9
$AUPREC
 70
     0
  9
$MENU
  1
.
  9
$ELEVATION
 40
0.0
  9
$PELEVATION
 40
0.0
  9
$THICKNESS
 40
0.0
  9
$LIMCHECK
 70
     0
  9
$BLIPMODE
 70
     0
  9
$CHAMFERA
 40
1.1999999999999991
  9
$CHAMFERB
 40
1.1999999999999991
  9
$SKPOLY
 70
     0
  9
$TDCREATE
 40
2453354.0921258219
  9
$TDUPDATE
 40
2456597.6788569218
  9
$TDINDWG
 40
513.53544127309999
  9
$TDUSRTIMER
 40
513.53516329859997
  9
$USRTIMER
 70
     1
  9
$ANGBASE
 50
0.0
  9
$ANGDIR
 70
     0
  9
$PDMODE
 70
     0
  9
$PDSIZE
 40
0.0
  9
$PLINEWID
 40
0.0
  9
$COORDS
 70
     1
  9
$SPLFRAME
 70
     0
  9
$SPLINETYPE
 70
     6
  9
$SPLINESEGS
 70
     8
  9
$ATTDIA
 70
     0
  9
$ATTREQ
 70
     1
  9
$HANDLING
 70
     1
  9
$HANDSEED
  5
306
  9
$SURFTAB1
 70
     6
  9
$SURFTAB2
 70
     6
  9
$SURFTYPE
 70
     6
  9
$SURFU
 70
     6
  9
$SURFV
 70
     6
  9
$UCSNAME
  2

  9
$UCSORG
 10
0.0
 20
0.0
 30
0.0
  9
$UCSXDIR
 10
1.0
 20
0.0
 30
0.0
  9
$UCSYDIR
 10
0.0
 20
1.0
 30
0.0
  9
$PUCSNAME
  2

  9
$PUCSORG
 10
0.0
 20
0.0
 30
0.0
  9
$PUCSXDIR
 10
1.0
 20
0.0
 30
0.0
  9
$PUCSYDIR
 10
0.0
 20
1.0
 30
0.0
  9
$USERI1
 70
     4
  9
$USERI2
 70
     1
  9
$USERI3
 70
     1
  9
$USERI4
 70
     0
  9
$USERI5
 70
     0
  9
$USERR1
 40
1.0
  9
$USERR2
 40
3.0
  9
$USERR3
 40
3.2000000000000002
  9
$USERR4
 40
3.0
  9
$USERR5
 40
10.0
  9
$WORLDVIEW
 70
     1
  9
$SHADEDGE
 70
     3
  9
$SHADEDIF
 70
    70
  9
$TILEMODE
 70
     1
  9
$MAXACTVP
 70
    16
  9
$PLIMCHECK
 70
     0
  9
$PEXTMIN
 10
0.0
 20
0.0
 30
0.0
  9
$PEXTMAX
 10
0.0
 20
0.0
 30
0.0
  9
$PLIMMIN
 10
0.0
 20
0.0
  9
$PLIMMAX
 10
12.0
 20
9.0
  9
$UNITMODE
 70
     0
  9
$VISRETAIN
 70
     0
  9
$PLINEGEN
 70
     0
  9
$PSLTSCALE
 70
     1
  0
ENDSEC
  0
SECTION
  2
TABLES
  0
TABLE
  2
VPORT
 70
     1
  0
VPORT
  2
*ACTIVE
 70
     0
 10
0.0
 20
0.0
 11
1.0
 21
1.0
 12
202.55787946771341
 22
133.5127261426681
 13
0.0
 23
0.0
 14
5.0
 24
5.0
 15
10.0
 25
10.0
 16
0.0
 26
0.0
 36
1.0
 17
0.0
 27
0.0
 37
0.0
 40
275.42274993631997
 41
1.831871345029239
 42
50.0
 43
0.0
 44
0.0
 50
0.0
 51
0.0
 71
    16
 72
   500
 73
     1
 74
     0
 75
     0
 76
     0
 77
     0
 78
     1
  0
ENDTAB
  0
TABLE
  2
LTYPE
 70
     4
  0
LTYPE
  2
CONTINUOUS
 70
     0
  3
Solid line
 72
    65
 73
     0
 40
0.0
  0
LTYPE
  2
CENTER
 70
     0
  3
____ _ ____ _ ____ _ ____ _ ____ _ ____ _ ____
 72
    65
 73
     4
 40
2.0
 49
1.25
 49
-0.25
 49
0.25
 49
-0.25
  0
LTYPE
  2
HIDDEN
 70
     0
  3
_ _ _ _ _ _ _ _ _ _ _ _ _ _ _ _ _ _ _ _ _ _ _
 72
    65
 73
     2
 40
0.375
 49
0.25
 49
-0.125
  0
LTYPE
  2
PHANTOM2
 70
     0
  3
___ _ _ ___ _ _ ___ _ _ ___ _ _
 72
    65
 73
     6
 40
1.25
 49
0.625
 49
-0.125
 49
0.125
 49
-0.125
 49
0.125
 49
-0.125
  0
ENDTAB
  0
TABLE
  2
LAYER
 70
     5
  0
LAYER
  2
0
 70
     0
 62
     7
  6
CONTINUOUS
  0
LAYER
  2
1
 70
     0
 62
     1
  6
CENTER
  0
LAYER
  2
WAKU
 70
     0
 62
     5
  6
CONTINUOUS
  0
LAYER
  2
4
 70
     0
 62
     4
  6
CONTINUOUS
  0
LAYER
  2
2
 70
     0
 62
     2
  6
HIDDEN
  0
ENDTAB
  0
TABLE
  2
STYLE
 70
     3
  0
STYLE
  2
STANDARD
 70
     0
 40
0.0
 41
1.0
 50
0.0
 71
     0
 42
2.5
  3
ROMANS
  4
EXTFONT
  0
STYLE
  2
K
 70
     0
 40
0.0
 41
0.75
 50
0.0
 71
     0
 42
3.2000000000000002
  3
ROMANS.shx
  4
EXTFONT.shx
  0
STYLE
  2
STANDARD1
 70
     0
 40
0.0
 41
1.0
 50
0.0
 71
     0
 42
3.0
  3
txt
  4

  0
ENDTAB
  0
TABLE
  2
VIEW
 70
     0
  0
ENDTAB
  0
TABLE
  2
UCS
 70
     0
  0
ENDTAB
  0
TABLE
  2
APPID
 70
     3
  0
APPID
  2
ACAD
 70
     0
  0
APPID
  2
ACAD_MLEADERVER
 70
     0
  0
APPID
  2
ACAD_NAV_VCDISPLAY
 70
     0
  0
ENDTAB
  0
TABLE
  2
DIMSTYLE
 70
     2
  0
DIMSTYLE
  2
ITM
 70
     0
  3

  4

  5

  6

  7

 40
0.0
 41
2.5
 42
1.0
 43
6.0
 44
1.0
 45
0.0
 46
0.0
 47
495.0
 48
0.0
140
3.0
141
0.0
142
0.0
143
25.399999999999999
144
1.0
145
0.0
146
1.0
147
1.0
 71
     0
 72
     0
 73
     0
 74
     0
 75
     0
 76
     0
 77
     3
 78
     8
170
     0
171
     2
172
     1
173
     0
174
     0
175
     0
176
     0
177
     0
178
     0
  0
DIMSTYLE
  2
STANDARD
 70
     0
  3

  4

  5

  6

  7

 40
1.0
 41
0.18
 42
0.0625
 43
0.38
 44
0.18
 45
0.0
 46
0.0
 47
0.0
 48
0.0
140
0.18
141
0.09
142
0.0
143
25.399999999999999
144
1.0
145
0.0
146
1.0
147
0.09
 71
     0
 72
     0
 73
     1
 74
     1
 75
     0
 76
     0
 77
     0
 78
     0
170
     0
171
     2
172
     0
173
     0
174
     0
175
     0
176
     0
177
     0
178
     0
  0
ENDTAB
  0
ENDSEC
  0
SECTION
  2
BLOCKS
  0
BLOCK
  8
0
  2
$MODEL_SPACE
 70
     0
 10
0.0
 20
0.0
 30
0.0
  3
$MODEL_SPACE
  1

  0
ENDBLK
  5
12
  8
0
  0
BLOCK
 67
     1
  8
0
  2
$PAPER_SPACE
 70
     0
 10
0.0
 20
0.0
 30
0.0
  3
$PAPER_SPACE
  1

  0
ENDBLK
  5
19
 67
     1
  8
0
  0
BLOCK
  8
0
  2
ARROW1
 70
     0
 10
0.0
 20
0.0
 30
0.0
  3
ARROW1
  1

  0
SOLID
  5
4B
  8
WAKU
  6
CONTINUOUS
 62
     4
 10
-1.0
 20
0.1666666666666714
 30
0.0
 11
-1.0
 21
-0.1666666666666714
 31
0.0
 12
0.0
 22
0.0
 32
0.0
 13
0.0
 23
0.0
 33
0.0
  0
ENDBLK
  5
4D
  8
0
  0
ENDSEC
  0
SECTION
  2
ENTITIES
  0
CIRCLE
  5
74
  8
0
 10
39.271778353858707
 20
131.72491758454979
 30
0.0
 40
6.5
  0
CIRCLE
  5
75
  8
0
 10
104.27177835385871
 20
131.72491758455001
 30
0.0
 40
6.4999999999999707
  0
LINE
  5
76
  8
0
 10
114.2717788008935
 20
141.8058101772186
 30
0.0
 11
84.271776234895825
 21
152.72491730142789
 31
0.0
  0
LINE
  5
77
  8
0
 10
84.271776234895938
 20
110.724917867672
 30
0.0
 11
114.2717788008936
 21
121.64402499188149
 31
0.0
  0
CIRCLE
  5
78
  8
0
 10
104.27177835385871
 20
131.72491758455001
 30
0.0
 40
6.9999999999999707
  0
LINE
  5
79
  8
0
 10
114.2717788008936
 20
121.64402499188149
 30
0.0
 11
114.2717788008935
 21
141.8058101772186
 31
0.0
  0
LINE
  5
7A
  8
0
 10
59.27178047282149
 20
152.72491730142781
 30
0.0
 11
29.271777906823839
 21
141.80581017721829
 31
0.0
  0
LINE
  5
7B
  8
0
 10
29.2717779068239
 20
121.6440249918812
 30
0.0
 11
59.271780472821582
 21
110.72491786767191
 31
0.0
  0
CIRCLE
  5
7C
  8
0
 10
39.271778353858707
 20
131.72491758454979
 30
0.0
 40
7.0
  0
LINE
  5
7D
  8
0
 10
29.271777906823839
 20
141.80581017721829
 30
0.0
 11
29.2717779068239
 21
121.6440249918812
 31
0.0
  0
LINE
  5
7E
  8
0
 10
50.771778636980699
 20
149.63116987932861
 30
0.0
 11
50.771778636980819
 21
113.818665289771
 31
0.0
  0
LINE
  5
7F
  8
0
 10
92.771778070736701
 20
113.8186652897711
 30
0.0
 11
92.771778070736573
 21
149.63116987932881
 31
0.0
  0
LINE
  5
80
  8
0
 10
59.271778167594242
 20
110.72491786767191
 30
0.0
 11
84.271778540123265
 21
110.724917867672
 31
0.0
  0
LINE
  5
81
  8
0
 10
84.271778540123151
 20
152.72491730142789
 30
0.0
 11
59.271778167594121
 21
152.72491730142781
 31
0.0
  0
CIRCLE
  5
82
  8
0
 10
71.771778353858707
 20
131.7249175845499
 30
0.0
 40
15.99999999999998
  0
CIRCLE
  5
83
  8
0
 10
71.771778353858707
 20
131.7249175845499
 30
0.0
 40
17.0
  0
LINE
  5
84
  8
1
 10
118.2253254306595
 20
131.72613197970489
 30
0.0
 11
25.31835250126494
 21
131.7237031925639
 31
0.0
  0
LINE
  5
87
  8
1
 10
71.771838965962303
 20
157.52769686454641
 30
0.0
 11
71.77183896596226
 21
105.92213830772241
 31
0.0
  0
LINE
  5
88
  8
1
 10
39.271778353858707
 20
143.24219758410069
 30
0.0
 11
39.271778353858707
 21
120.20763758499891
 31
0.0
  0
LINE
  5
89
  8
1
 10
104.2718995780658
 20
143.24219758410061
 30
0.0
 11
104.2718995780658
 21
120.20763758499891
 31
0.0
  0
LINE
  5
12D
  8
1
 10
71.771838965962331
 20
14.67118895053529
 30
0.0
 11
71.771838965962161
 21
65.576817836058353
 31
0.0
  0
LINE
  5
12E
  8
1
 10
104.2718389659623
 20
18.66158478006269
 30
0.0
 11
104.2718389659622
 21
37.66158478006269
 31
0.0
  0
LINE
  5
13B
  8
0
 10
50.771839249084238
 20
60.161583885992847
 30
0.0
 11
50.771839249084323
 21
36.16158554002174
 31
0.0
  0
LINE
  5
13D
  8
0
 10
29.271838518927261
 20
20.161584780062721
 30
0.0
 11
114.2718394129971
 21
20.16158478006275
 31
0.0
  0
LINE
  5
13E
  8
2
 10
55.771838206003103
 20
20.161584780062551
 30
0.0
 11
55.771838206002947
 21
60.161583885992833
 31
0.0
  0
LINE
  5
140
  8
0
 10
50.771839249084238
 20
60.161583885992847
 30
0.0
 11
92.771838682840141
 21
60.161583885992961
 31
0.0
  0
LINE
  5
146
  8
0
 10
114.2718394129971
 20
20.161584780062721
 30
0.0
 11
114.2718394129971
 21
36.161585540021939
 31
0.0
  0
LINE
  5
148
  8
2
 10
110.77183977062499
 20
36.161585540021932
 30
0.0
 11
110.77183977062511
 21
20.161584780062739
 31
0.0
  0
LINE
  5
152
  8
0
 10
92.771838682840183
 20
36.16158554002191
 30
0.0
 11
114.2718394129971
 21
36.161585540021939
 31
0.0
  0
LINE
  5
153
  8
0
 10
92.771838682840183
 20
36.16158554002191
 30
0.0
 11
92.771838682840141
 21
60.161583885993011
 31
0.0
  0
LINE
  5
157
  8
2
 10
87.771839725921424
 20
60.16158388599294
 30
0.0
 11
87.771839725921524
 21
20.161584780062661
 31
0.0
  0
LINE
  5
159
  8
2
 10
97.771839502404177
 20
20.1615847800627
 30
0.0
 11
97.771839502404092
 21
36.161585540021903
 31
0.0
  0
LINE
  5
16B
  8
2
 10
45.77183842952023
 20
20.1615847800627
 30
0.0
 11
45.771838429520308
 21
36.161585540021903
 31
0.0
  0
LINE
  5
16C
  8
0
 10
50.771839249084209
 20
36.16158554002191
 30
0.0
 11
29.271838518927311
 21
36.161585540021939
 31
0.0
  0
LINE
  5
16D
  8
2
 10
32.771838161299407
 20
36.161585540021932
 30
0.0
 11
32.771838161299328
 21
20.161584780062739
 31
0.0
  0
LINE
  5
16E
  8
0
 10
29.271838518927261
 20
20.161584780062721
 30
0.0
 11
29.271838518927311
 21
36.161585540021939
 31
0.0
  0
LINE
  5
16F
  8
1
 10
39.27183896596209
 20
18.66158478006269
 30
0.0
 11
39.271838965962147
 21
37.66158478006269
 31
0.0
  0
LINE
  5
185
  8
0
 10
84.271778540123293
 20
60.161583885992933
 30
0.0
 11
84.271778540123307
 21
20.161584780062739
 31
0.0
  0
LINE
  5
186
  8
0
 10
59.271899391801092
 20
60.161583885992812
 30
0.0
 11
59.27189939180149
 21
20.161584780062611
 31
0.0
  0
LINE
  5
194
  8
0
 10
171.02845741823259
 20
152.72491730142789
 30
0.0
 11
211.02845652416289
 21
152.72491730142781
 31
0.0
  0
LINE
  5
196
  8
0
 10
211.02845652416289
 20
110.727346657982
 30
0.0
 11
211.02845652416289
 21
152.72491730142781
 31
0.0
  0
LINE
  5
197
  8
0
 10
171.02861917259349
 20
110.72525526654179
 30
0.0
 11
171.02845741823259
 21
152.72491730142789
 31
0.0
  0
LINE
  5
198
  8
0
 10
195.02845576420381
 20
113.8190027088867
 30
0.0
 11
195.02845576420381
 21
149.63116987932881
 31
0.0
  0
LINE
  5
199
  8
0
 10
171.02845741823259
 20
149.63116987932881
 30
0.0
 11
195.02845576420381
 21
149.63116987932881
 31
0.0
  0
LINE
  5
19B
  8
0
 10
195.02845576420381
 20
141.8058101772186
 30
0.0
 11
211.02845652416289
 21
141.8058101772186
 31
0.0
  0
LINE
  5
19C
  8
0
 10
195.02845576420381
 20
121.6464537821913
 30
0.0
 11
211.02845652416289
 21
121.6464537821913
 31
0.0
  0
LINE
  5
1A9
  8
1
 10
214.9820031539289
 20
131.7262353338765
 30
0.0
 11
167.0749107871157
 21
131.72498293993621
 31
0.0
  0
LINE
  5
1F5
  8
0
 10
171.02845741823259
 20
113.8190027088867
 30
0.0
 11
195.02845576420381
 21
113.8190027088867
 31
0.0
  0
LINE
  5
1F6
  8
0
 10
171.02955537929779
 20
110.7252553154907
 30
0.0
 11
211.02955443055521
 21
110.7273466866836
 31
0.0
  0
LINE
  5
210
  8
2
 10
171.02847667485801
 20
147.72491758454979
 30
0.0
 11
211.02845652416289
 21
147.72491758454979
 31
0.0
  0
LINE
  5
213
  8
2
 10
195.02845576420381
 20
138.22491758341951
 30
0.0
 11
211.02845652416289
 21
138.22491758341951
 31
0.0
  0
LINE
  5
214
  8
2
 10
195.02845576420381
 20
125.22525500902449
 30
0.0
 11
211.02845652416289
 21
125.22525500902449
 31
0.0
  0
LINE
  5
215
  8
2
 10
171.02847667485801
 20
115.72525500789421
 30
0.0
 11
211.02845652416289
 21
115.72525500789421
 31
0.0
  0
TEXT
  5
279
  8
0
 62
     3
 10
0.0
 20
0.0
 30
0.0
 40
10.0
  1
BJ531-16040
  7
STANDARD1
  0
ENDSEC
  0
EOF
