  0
SECTION
  2
HEADER
  9
$ACADVER
  1
AC1009
  9
$INSBASE
 10
0.0
 20
0.0
 30
0.0
  9
$EXTMIN
 10
0.0
 20
-2.960436562073669
 30
0.0
  9
$EXTMAX
 10
244.46108125416561
 20
212.48653701237299
 30
0.0
  9
$LIMMIN
 10
0.0
 20
0.0
  9
$LIMMAX
 10
375.0
 20
270.0
  9
$ORTHOMODE
 70
     1
  9
$REGENMODE
 70
     1
  9
$FILLMODE
 70
     1
  9
$QTEXTMODE
 70
     0
  9
$MIRRTEXT
 70
     0
  9
$DRAGMODE
 70
     2
  9
$LTSCALE
 40
10.0
  9
$OSMODE
 70
  3071
  9
$ATTMODE
 70
     1
  9
$TEXTSIZE
 40
4.000000000000048
  9
$TRACEWID
 40
0.05
  9
$TEXTSTYLE
  7
STANDARD
  9
$CLAYER
  8
0
  9
$CELTYPE
  6
BYLAYER
  9
$CECOLOR
 62
   256
  9
$DIMSCALE
 40
1.0
  9
$DIMASZ
 40
3.0
  9
$DIMEXO
 40
2.0
  9
$DIMDLI
 40
0.38
  9
$DIMRND
 40
0.0
  9
$DIMDLE
 40
0.0
  9
$DIMEXE
 40
2.0
  9
$DIMTP
 40
0.0
  9
$DIMTM
 40
0.0
  9
$DIMTXT
 40
3.2000000000000002
  9
$DIMCEN
 40
0.0
  9
$DIMTSZ
 40
0.0
  9
$DIMTOL
 70
     0
  9
$DIMLIM
 70
     0
  9
$DIMTIH
 70
     0
  9
$DIMTOH
 70
     0
  9
$DIMSE1
 70
     0
  9
$DIMSE2
 70
     0
  9
$DIMTAD
 70
     1
  9
$DIMZIN
 70
     0
  9
$DIMBLK
  1

  9
$DIMASO
 70
     0
  9
$DIMSHO
 70
     0
  9
$DIMPOST
  1

  9
$DIMAPOST
  1

  9
$DIMALT
 70
     0
  9
$DIMALTD
 70
     2
  9
$DIMALTF
 40
25.399999999999999
  9
$DIMLFAC
 40
1.0
  9
$DIMTOFL
 70
     0
  9
$DIMTVP
 40
1.6000000000000001
  9
$DIMTIX
 70
     1
  9
$DIMSOXD
 70
     0
  9
$DIMSAH
 70
     0
  9
$DIMBLK1
  1

  9
$DIMBLK2
  1

  9
$DIMSTYLE
  2
STANDARD
  9
$DIMCLRD
 70
     4
  9
$DIMCLRE
 70
     4
  9
$DIMCLRT
 70
     4
  9
$DIMTFAC
 40
1.0
  9
$DIMGAP
 40
0.09
  9
$LUNITS
 70
     2
  9
$LUPREC
 70
     1
  9
$SKETCHINC
 40
0.1
  9
$FILLETRAD
 40
0.0
  9
$AUNITS
 70
     0
  9
$AUPREC
 70
     0
  9
$MENU
  1
E:\r13\win\SUPPORT\ACAD
  9
$ELEVATION
 40
0.0
  9
$PELEVATION
 40
0.0
  9
$THICKNESS
 40
0.0
  9
$LIMCHECK
 70
     0
  9
$BLIPMODE
 70
     0
  9
$CHAMFERA
 40
1.1999999999999991
  9
$CHAMFERB
 40
1.1999999999999991
  9
$SKPOLY
 70
     0
  9
$TDCREATE
 40
2450136.5988775459
  9
$TDUPDATE
 40
2456597.6781061809
  9
$TDINDWG
 40
0.0003307755
  9
$TDUSRTIMER
 40
0.0003307755
  9
$USRTIMER
 70
     1
  9
$ANGBASE
 50
0.0
  9
$ANGDIR
 70
     0
  9
$PDMODE
 70
     0
  9
$PDSIZE
 40
0.0
  9
$PLINEWID
 40
0.0
  9
$COORDS
 70
     1
  9
$SPLFRAME
 70
     0
  9
$SPLINETYPE
 70
     6
  9
$SPLINESEGS
 70
     8
  9
$ATTDIA
 70
     0
  9
$ATTREQ
 70
     1
  9
$HANDLING
 70
     1
  9
$HANDSEED
  5
2C6
  9
$SURFTAB1
 70
     6
  9
$SURFTAB2
 70
     6
  9
$SURFTYPE
 70
     6
  9
$SURFU
 70
     6
  9
$SURFV
 70
     6
  9
$UCSNAME
  2

  9
$UCSORG
 10
0.0
 20
0.0
 30
0.0
  9
$UCSXDIR
 10
1.0
 20
0.0
 30
0.0
  9
$UCSYDIR
 10
0.0
 20
1.0
 30
0.0
  9
$PUCSNAME
  2

  9
$PUCSORG
 10
0.0
 20
0.0
 30
0.0
  9
$PUCSXDIR
 10
1.0
 20
0.0
 30
0.0
  9
$PUCSYDIR
 10
0.0
 20
1.0
 30
0.0
  9
$USERI1
 70
     0
  9
$USERI2
 70
     1
  9
$USERI3
 70
     0
  9
$USERI4
 70
     0
  9
$USERI5
 70
     0
  9
$USERR1
 40
0.0
  9
$USERR2
 40
0.0
  9
$USERR3
 40
0.0
  9
$USERR4
 40
0.0
  9
$USERR5
 40
0.0
  9
$WORLDVIEW
 70
     1
  9
$SHADEDGE
 70
     3
  9
$SHADEDIF
 70
    70
  9
$TILEMODE
 70
     1
  9
$MAXACTVP
 70
    16
  9
$PLIMCHECK
 70
     0
  9
$PEXTMIN
 10
1.0000000000000000E+020
 20
1.0000000000000000E+020
 30
1.0000000000000000E+020
  9
$PEXTMAX
 10
-1.0000000000000000E+020
 20
-1.0000000000000000E+020
 30
-1.0000000000000000E+020
  9
$PLIMMIN
 10
0.0
 20
0.0
  9
$PLIMMAX
 10
12.0
 20
9.0
  9
$UNITMODE
 70
     0
  9
$VISRETAIN
 70
     0
  9
$PLINEGEN
 70
     0
  9
$PSLTSCALE
 70
     0
  0
ENDSEC
  0
SECTION
  2
TABLES
  0
TABLE
  2
VPORT
 70
     1
  0
VPORT
  2
*ACTIVE
 70
     0
 10
0.0
 20
0.0
 11
1.0
 21
1.0
 12
195.0581083320873
 22
133.5127261426681
 13
0.0
 23
0.0
 14
10.0
 24
10.0
 15
10.0
 25
10.0
 16
0.0
 26
0.0
 36
1.0
 17
0.0
 27
0.0
 37
0.0
 40
275.42274993631997
 41
1.831871345029239
 42
50.0
 43
0.0
 44
0.0
 50
0.0
 51
0.0
 71
     0
 72
   500
 73
     1
 74
     0
 75
     0
 76
     0
 77
     0
 78
     2
  0
ENDTAB
  0
TABLE
  2
LTYPE
 70
     4
  0
LTYPE
  2
CONTINUOUS
 70
     0
  3
Solid Line
 72
    65
 73
     0
 40
0.0
  0
LTYPE
  2
CENTER
 70
     0
  3
____ _ ____ _ ____ _ ____ _ ____ _ ____ _ ____
 72
    65
 73
     4
 40
2.0
 49
1.25
 49
-0.25
 49
0.25
 49
-0.25
  0
LTYPE
  2
HIDDEN
 70
     0
  3
_ _ _ _ _ _ _ _ _ _ _ _ _ _ _ _ _ _ _ _ _ _ _
 72
    65
 73
     2
 40
0.375
 49
0.25
 49
-0.125
  0
LTYPE
  2
PHANTOM2
 70
     0
  3
___ _ _ ___ _ _ ___ _ _ ___ _ _
 72
    65
 73
     6
 40
1.25
 49
0.625
 49
-0.125
 49
0.125
 49
-0.125
 49
0.125
 49
-0.125
  0
ENDTAB
  0
TABLE
  2
LAYER
 70
     5
  0
LAYER
  2
0
 70
     0
 62
     7
  6
CONTINUOUS
  0
LAYER
  2
1
 70
     0
 62
     1
  6
CENTER
  0
LAYER
  2
3
 70
     0
 62
     3
  6
CONTINUOUS
  0
LAYER
  2
4
 70
     0
 62
     4
  6
CONTINUOUS
  0
LAYER
  2
2
 70
     0
 62
     2
  6
HIDDEN
  0
ENDTAB
  0
TABLE
  2
STYLE
 70
     2
  0
STYLE
  2
STANDARD
 70
     0
 40
0.0
 41
1.0
 50
0.0
 71
     0
 42
4.000000000000048
  3
SIMPLEX
  4
BIGFONT
  0
STYLE
  2
STANDARD1
 70
     0
 40
0.0
 41
1.0
 50
0.0
 71
     0
 42
3.0
  3
txt
  4

  0
ENDTAB
  0
TABLE
  2
VIEW
 70
     1
  0
VIEW
  2
ALL
 70
     0
 40
270.33333333333331
 10
220.8717648550103
 20
134.83333333333329
 41
441.74352971002048
 11
0.0
 21
0.0
 31
1.0
 12
0.0
 22
0.0
 32
0.0
 42
50.0
 43
0.0
 44
0.0
 50
0.0
 71
     0
  0
ENDTAB
  0
TABLE
  2
UCS
 70
     0
  0
ENDTAB
  0
TABLE
  2
APPID
 70
     3
  0
APPID
  2
ACAD
 70
     0
  0
APPID
  2
ACAD_MLEADERVER
 70
     0
  0
APPID
  2
ACAD_NAV_VCDISPLAY
 70
     0
  0
ENDTAB
  0
TABLE
  2
DIMSTYLE
 70
     1
  0
DIMSTYLE
  2
STANDARD
 70
     0
  3

  4

  5

  6

  7

 40
1.0
 41
0.18
 42
0.0625
 43
0.38
 44
0.18
 45
0.0
 46
0.0
 47
0.0
 48
0.0
140
0.18
141
0.09
142
0.0
143
25.399999999999999
144
1.0
145
0.0
146
1.0
147
0.09
 71
     0
 72
     0
 73
     1
 74
     1
 75
     0
 76
     0
 77
     0
 78
     0
170
     0
171
     2
172
     0
173
     0
174
     0
175
     0
176
     0
177
     0
178
     0
  0
ENDTAB
  0
ENDSEC
  0
SECTION
  2
BLOCKS
  0
BLOCK
  8
0
  2
$MODEL_SPACE
 70
     0
 10
0.0
 20
0.0
 30
0.0
  3
$MODEL_SPACE
  1

  0
ENDBLK
  5
17F
  8
0
  0
BLOCK
 67
     1
  8
0
  2
$PAPER_SPACE
 70
     0
 10
0.0
 20
0.0
 30
0.0
  3
$PAPER_SPACE
  1

  0
ENDBLK
  5
17D
 67
     1
  8
0
  0
BLOCK
  8
0
  2
STDGX5
 70
     0
 10
0.0
 20
0.0
 30
0.0
  3
STDGX5
  1

  0
ENDBLK
  5
2D
  8
0
  0
ENDSEC
  0
SECTION
  2
ENTITIES
  0
INSERT
  5
35
  8
0
  2
STDGX5
 10
0.0
 20
0.0
 30
0.0
  0
INSERT
  5
3D
  8
0
  2
STDGX5
 10
392.56327710706302
 20
16.513928979281062
 30
0.0
  0
INSERT
  5
3E
  8
0
  2
STDGX5
 10
386.22961396883051
 20
13.812385816679591
 30
0.0
  0
INSERT
  5
3F
  8
4
  2
STDGX5
 10
383.72307454838079
 20
38.684998676443882
 30
0.0
  0
INSERT
  5
40
  8
4
  2
STDGX5
 10
385.31170771059431
 20
24.659256124303251
 30
0.0
  0
INSERT
  5
41
  8
0
  2
STDGX5
 10
388.01225599430819
 20
15.615139337424351
 30
0.0
  0
INSERT
  5
42
  8
0
  2
STDGX5
 10
392.08993652884601
 20
19.232257026121321
 30
0.0
  0
INSERT
  5
43
  8
4
  2
STDGX5
 10
382.73728338344131
 20
27.170967802914362
 30
0.0
  0
INSERT
  5
44
  8
0
  2
STDGX5
 10
399.78994682689279
 20
33.737331521258007
 30
0.0
  0
INSERT
  5
45
  8
0
  2
STDGX5
 10
388.47087351051732
 20
21.957833128303861
 30
0.0
  0
INSERT
  5
46
  8
0
  2
STDGX5
 10
386.22082231195691
 20
21.95858551516417
 30
0.0
  0
INSERT
  5
47
  8
0
  2
STDGX5
 10
384.85025734019177
 20
14.249049040814381
 30
0.0
  0
INSERT
  5
48
  8
4
  2
STDGX5
 10
389.26434377855082
 20
33.92954796071772
 30
0.0
  0
INSERT
  5
49
  8
0
  2
STDGX5
 10
389.83782004170922
 20
21.954078771704769
 30
0.0
  0
INSERT
  5
4A
  8
0
  2
STDGX5
 10
390.28040565616402
 20
16.080845998899179
 30
0.0
  0
INSERT
  5
4B
  8
0
  2
STDGX5
 10
390.73822048106382
 20
27.856161875112541
 30
0.0
  0
INSERT
  5
4C
  8
4
  2
STDGX5
 10
385.22529591400178
 20
33.418206628624482
 30
0.0
  0
INSERT
  5
4D
  8
0
  2
STDGX5
 10
390.73822048106382
 20
16.534059696024261
 30
0.0
  0
LINE
  5
4E
  8
2
 10
231.46108125416541
 20
81.084690099751825
 30
0.0
 11
231.46108125416541
 21
92.084691448450954
 31
0.0
  0
LINE
  5
4F
  8
2
 10
231.46108125416541
 20
81.084690099751825
 30
0.0
 11
232.46108125416541
 21
80.084690099751825
 31
0.0
  0
LINE
  5
50
  8
2
 10
217.46108125416569
 20
81.084690099751825
 30
0.0
 11
216.46108125416569
 21
80.084690099751825
 31
0.0
  0
LINE
  5
51
  8
2
 10
217.46108125416569
 20
81.084690099751825
 30
0.0
 11
217.46108125416569
 21
92.084691448450954
 31
0.0
  0
LINE
  5
52
  8
2
 10
231.46108125416541
 20
81.084690099751853
 30
0.0
 11
217.46108125416569
 21
81.084690099751825
 31
0.0
  0
LINE
  5
53
  8
0
 10
241.46108125416549
 20
118.61959144823631
 30
0.0
 11
241.96108125416549
 21
118.11959144823631
 31
0.0
  0
LINE
  5
54
  8
0
 10
240.71108125417001
 20
118.61959144823631
 30
0.0
 11
241.46108125416549
 21
118.61959144823631
 31
0.0
  0
LINE
  5
55
  8
0
 10
157.46108125416541
 20
118.61959144823631
 30
0.0
 11
156.96108125416541
 21
118.11959144823631
 31
0.0
  0
LINE
  5
56
  8
0
 10
158.21108125416109
 20
118.61959144823631
 30
0.0
 11
157.46108125416541
 21
118.61959144823631
 31
0.0
  0
LINE
  5
57
  8
0
 10
157.96108125416549
 20
80.084691448450997
 30
0.0
 11
156.96108125416549
 21
81.084691448450982
 31
0.0
  0
LINE
  5
58
  8
0
 10
241.96108125416549
 20
81.084691448450968
 30
0.0
 11
240.96108125416549
 21
80.084691448450968
 31
0.0
  0
LINE
  5
59
  8
0
 10
156.96108125416549
 20
171.98653701237299
 30
0.0
 11
158.96108125416549
 21
169.98653701237299
 31
0.0
  0
LINE
  5
5A
  8
0
 10
158.96108125416549
 20
204.98653701237299
 30
0.0
 11
156.96108125416549
 21
202.98653701237299
 31
0.0
  0
LINE
  5
5B
  8
0
 10
239.96108125416561
 20
204.98653701237299
 30
0.0
 11
241.96108125416549
 21
202.98653701237299
 31
0.0
  0
LINE
  5
5C
  8
0
 10
239.96108125416561
 20
169.98653701237299
 30
0.0
 11
241.96108125416549
 21
171.98653701237299
 31
0.0
  0
LINE
  5
5D
  8
2
 10
184.46108125416549
 20
92.084691448450954
 30
0.0
 11
164.46108125416549
 21
92.084691448450954
 31
0.0
  0
LINE
  5
5E
  8
0
 10
157.96108125416549
 20
80.084691448450997
 30
0.0
 11
240.96108125416549
 21
80.084691448450968
 31
0.0
  0
LINE
  5
5F
  8
1
 10
194.46108125416549
 20
75.084691448450982
 30
0.0
 11
194.46108125416549
 21
125.084691448451
 31
0.0
  0
LINE
  5
60
  8
1
 10
224.46108125416549
 20
200.48653701237299
 30
0.0
 11
224.46108125416549
 21
174.48653701237299
 31
0.0
  0
LINE
  5
61
  8
1
 10
199.46108125416549
 20
212.48653701237299
 30
0.0
 11
199.46108125416549
 21
161.48653701237299
 31
0.0
  0
LINE
  5
62
  8
1
 10
154.46108125416549
 20
187.48653701237299
 30
0.0
 11
244.46108125416561
 21
187.48653701237299
 31
0.0
  0
LINE
  5
63
  8
1
 10
194.46108125416549
 20
197.48653701237299
 30
0.0
 11
194.46108125416549
 21
177.48653701237299
 31
0.0
  0
LINE
  5
64
  8
0
 10
241.96108125416549
 20
81.084691448450968
 30
0.0
 11
241.96108125416549
 21
118.11959144823631
 31
0.0
  0
LINE
  5
65
  8
1
 10
224.46108125416549
 20
75.084691448450982
 30
0.0
 11
224.46108125416549
 21
125.084691448451
 31
0.0
  0
LINE
  5
66
  8
0
 10
241.96108125416549
 20
202.98653701237299
 30
0.0
 11
241.96108125416549
 21
171.98653701237299
 31
0.0
  0
LINE
  5
67
  8
0
 10
239.96108125416561
 20
169.98653701237299
 30
0.0
 11
158.96108125416549
 21
169.98653701237299
 31
0.0
  0
LINE
  5
68
  8
0
 10
156.96108125416549
 20
171.98653701237299
 30
0.0
 11
156.96108125416549
 21
202.98653701237299
 31
0.0
  0
LINE
  5
69
  8
0
 10
158.96108125416549
 20
204.98653701237299
 30
0.0
 11
239.96108125416561
 21
204.98653701237299
 31
0.0
  0
CIRCLE
  5
6A
  8
0
 10
194.46108125416549
 20
187.48653701237299
 30
0.0
 40
5.052999999999999
  0
CIRCLE
  5
6B
  8
3
 10
194.46108125416549
 20
187.48653701237299
 30
0.0
 40
6.0
  0
CIRCLE
  5
6C
  8
0
 10
194.46108125416549
 20
187.48653701237299
 30
0.0
 40
7.0
  0
CIRCLE
  5
6D
  8
0
 10
224.46108125416549
 20
187.48653701237299
 30
0.0
 40
10.0
  0
CIRCLE
  5
6E
  8
0
 10
224.46108125416549
 20
187.48653701237299
 30
0.0
 40
6.5
  0
CIRCLE
  5
6F
  8
0
 10
224.46108125416549
 20
187.48653701237299
 30
0.0
 40
10.86599999999981
  0
CIRCLE
  5
70
  8
0
 10
174.46108125416549
 20
187.48653701237299
 30
0.0
 40
10.86599999999981
  0
CIRCLE
  5
71
  8
0
 10
174.46108125416549
 20
187.48653701237299
 30
0.0
 40
6.5
  0
CIRCLE
  5
72
  8
0
 10
174.46108125416549
 20
187.48653701237299
 30
0.0
 40
10.0
  0
LINE
  5
73
  8
1
 10
174.46108125416549
 20
200.48653701237299
 30
0.0
 11
174.46108125416549
 21
174.48653701237299
 31
0.0
  0
LINE
  5
74
  8
0
 10
198.21108125417001
 20
118.61959144823631
 30
0.0
 11
199.05693606573581
 21
120.0846549576948
 31
0.0
  0
LINE
  5
75
  8
0
 10
200.71108125417001
 20
118.61959144823631
 30
0.0
 11
199.86522644260421
 21
120.0846549576948
 31
0.0
  0
LINE
  5
76
  8
0
 10
199.05693606573581
 20
120.0846549576948
 30
0.0
 11
199.86522644260421
 21
120.0846549576948
 31
0.0
  0
LINE
  5
77
  8
0
 10
200.71108125417001
 20
118.61959144823631
 30
0.0
 11
203.21108125417001
 21
118.61959144823631
 31
0.0
  0
LINE
  5
78
  8
0
 10
204.05693606573581
 20
120.0846549576948
 30
0.0
 11
204.86522644260421
 21
120.0846549576948
 31
0.0
  0
LINE
  5
79
  8
0
 10
205.71108125417001
 20
118.61959144823631
 30
0.0
 11
204.86522644260421
 21
120.0846549576948
 31
0.0
  0
LINE
  5
7A
  8
0
 10
203.21108125417001
 20
118.61959144823631
 30
0.0
 11
204.05693606573581
 21
120.0846549576948
 31
0.0
  0
LINE
  5
7B
  8
0
 10
205.71108125417001
 20
118.61959144823631
 30
0.0
 11
208.21108125417001
 21
118.61959144823631
 31
0.0
  0
LINE
  5
7C
  8
0
 10
209.05693606573581
 20
120.0846549576948
 30
0.0
 11
209.86522644260421
 21
120.0846549576948
 31
0.0
  0
LINE
  5
7D
  8
0
 10
210.71108125417001
 20
118.61959144823631
 30
0.0
 11
209.86522644260421
 21
120.0846549576948
 31
0.0
  0
LINE
  5
7E
  8
0
 10
208.21108125417001
 20
118.61959144823631
 30
0.0
 11
209.05693606573581
 21
120.0846549576948
 31
0.0
  0
LINE
  5
7F
  8
0
 10
210.71108125417001
 20
118.61959144823631
 30
0.0
 11
213.21108125417001
 21
118.61959144823631
 31
0.0
  0
LINE
  5
80
  8
0
 10
214.05693606573581
 20
120.0846549576948
 30
0.0
 11
214.86522644260421
 21
120.0846549576948
 31
0.0
  0
LINE
  5
81
  8
0
 10
215.71108125417001
 20
118.61959144823631
 30
0.0
 11
214.86522644260421
 21
120.0846549576948
 31
0.0
  0
LINE
  5
82
  8
0
 10
213.21108125417001
 20
118.61959144823631
 30
0.0
 11
214.0569360657357
 21
120.0846549576948
 31
0.0
  0
LINE
  5
83
  8
0
 10
215.71108125417001
 20
118.61959144823631
 30
0.0
 11
218.21108125417001
 21
118.61959144823631
 31
0.0
  0
LINE
  5
84
  8
0
 10
219.05693606573581
 20
120.0846549576948
 30
0.0
 11
219.86522644260421
 21
120.0846549576948
 31
0.0
  0
LINE
  5
85
  8
0
 10
220.71108125417001
 20
118.61959144823631
 30
0.0
 11
219.86522644260421
 21
120.0846549576948
 31
0.0
  0
LINE
  5
86
  8
0
 10
218.21108125417001
 20
118.61959144823631
 30
0.0
 11
219.05693606573581
 21
120.0846549576948
 31
0.0
  0
LINE
  5
87
  8
0
 10
220.71108125417001
 20
118.61959144823631
 30
0.0
 11
223.21108125417001
 21
118.61959144823631
 31
0.0
  0
LINE
  5
88
  8
0
 10
224.05693606573581
 20
120.0846549576948
 30
0.0
 11
224.86522644260421
 21
120.0846549576948
 31
0.0
  0
LINE
  5
89
  8
0
 10
225.71108125417001
 20
118.61959144823631
 30
0.0
 11
224.86522644260421
 21
120.0846549576948
 31
0.0
  0
LINE
  5
8A
  8
0
 10
223.21108125417001
 20
118.61959144823631
 30
0.0
 11
224.05693606573581
 21
120.0846549576948
 31
0.0
  0
LINE
  5
8B
  8
0
 10
225.71108125417001
 20
118.61959144823631
 30
0.0
 11
228.21108125417001
 21
118.61959144823631
 31
0.0
  0
LINE
  5
8C
  8
0
 10
229.05693606573581
 20
120.0846549576948
 30
0.0
 11
229.86522644260421
 21
120.0846549576948
 31
0.0
  0
LINE
  5
8D
  8
0
 10
230.71108125417001
 20
118.61959144823631
 30
0.0
 11
229.86522644260421
 21
120.0846549576948
 31
0.0
  0
LINE
  5
8E
  8
0
 10
228.21108125417001
 20
118.61959144823631
 30
0.0
 11
229.05693606573581
 21
120.0846549576948
 31
0.0
  0
LINE
  5
8F
  8
0
 10
230.71108125417001
 20
118.61959144823631
 30
0.0
 11
233.21108125417001
 21
118.61959144823631
 31
0.0
  0
LINE
  5
90
  8
0
 10
234.05693606573581
 20
120.0846549576948
 30
0.0
 11
234.86522644260421
 21
120.0846549576948
 31
0.0
  0
LINE
  5
91
  8
0
 10
235.71108125417001
 20
118.61959144823631
 30
0.0
 11
234.86522644260421
 21
120.0846549576948
 31
0.0
  0
LINE
  5
92
  8
0
 10
233.21108125417001
 20
118.61959144823631
 30
0.0
 11
234.05693606573581
 21
120.0846549576948
 31
0.0
  0
LINE
  5
93
  8
0
 10
235.71108125417001
 20
118.61959144823631
 30
0.0
 11
238.21108125417001
 21
118.61959144823631
 31
0.0
  0
LINE
  5
94
  8
0
 10
239.05693606573581
 20
120.0846549576948
 30
0.0
 11
239.86522644260421
 21
120.0846549576948
 31
0.0
  0
LINE
  5
95
  8
0
 10
240.71108125417001
 20
118.61959144823631
 30
0.0
 11
239.86522644260421
 21
120.0846549576948
 31
0.0
  0
LINE
  5
96
  8
0
 10
238.21108125417001
 20
118.61959144823631
 30
0.0
 11
239.05693606573581
 21
120.0846549576948
 31
0.0
  0
LINE
  5
97
  8
0
 10
156.96108125416549
 20
81.084691448450982
 30
0.0
 11
156.96108125416541
 21
118.11959144823631
 31
0.0
  0
LINE
  5
98
  8
0
 10
198.21108125416109
 20
118.61959144823631
 30
0.0
 11
195.71108125416109
 21
118.61959144823631
 31
0.0
  0
LINE
  5
99
  8
0
 10
194.86522644259529
 20
120.0846549576948
 30
0.0
 11
194.05693606572689
 21
120.0846549576948
 31
0.0
  0
LINE
  5
9A
  8
0
 10
193.21108125416109
 20
118.61959144823631
 30
0.0
 11
194.05693606572689
 21
120.0846549576948
 31
0.0
  0
LINE
  5
9B
  8
0
 10
195.71108125416109
 20
118.61959144823631
 30
0.0
 11
194.86522644259529
 21
120.0846549576948
 31
0.0
  0
LINE
  5
9C
  8
0
 10
193.21108125416109
 20
118.61959144823631
 30
0.0
 11
190.71108125416109
 21
118.61959144823631
 31
0.0
  0
LINE
  5
9D
  8
0
 10
189.86522644259529
 20
120.0846549576948
 30
0.0
 11
189.05693606572689
 21
120.0846549576948
 31
0.0
  0
LINE
  5
9E
  8
0
 10
188.21108125416109
 20
118.61959144823631
 30
0.0
 11
189.05693606572689
 21
120.0846549576948
 31
0.0
  0
LINE
  5
9F
  8
0
 10
190.71108125416109
 20
118.61959144823631
 30
0.0
 11
189.86522644259529
 21
120.0846549576948
 31
0.0
  0
LINE
  5
A0
  8
0
 10
188.21108125416109
 20
118.61959144823631
 30
0.0
 11
185.71108125416109
 21
118.61959144823631
 31
0.0
  0
LINE
  5
A1
  8
0
 10
184.86522644259529
 20
120.0846549576948
 30
0.0
 11
184.05693606572689
 21
120.0846549576948
 31
0.0
  0
LINE
  5
A2
  8
0
 10
183.21108125416109
 20
118.61959144823631
 30
0.0
 11
184.05693606572689
 21
120.0846549576948
 31
0.0
  0
LINE
  5
A3
  8
0
 10
185.71108125416109
 20
118.61959144823631
 30
0.0
 11
184.86522644259529
 21
120.0846549576948
 31
0.0
  0
LINE
  5
A4
  8
0
 10
183.21108125416109
 20
118.61959144823631
 30
0.0
 11
180.71108125416109
 21
118.61959144823631
 31
0.0
  0
LINE
  5
A5
  8
0
 10
179.86522644259529
 20
120.0846549576948
 30
0.0
 11
179.05693606572689
 21
120.0846549576948
 31
0.0
  0
LINE
  5
A6
  8
0
 10
178.21108125416109
 20
118.61959144823631
 30
0.0
 11
179.05693606572689
 21
120.0846549576948
 31
0.0
  0
LINE
  5
A7
  8
0
 10
180.71108125416109
 20
118.61959144823631
 30
0.0
 11
179.86522644259529
 21
120.0846549576948
 31
0.0
  0
LINE
  5
A8
  8
0
 10
178.21108125416109
 20
118.61959144823631
 30
0.0
 11
175.71108125416109
 21
118.61959144823631
 31
0.0
  0
LINE
  5
A9
  8
0
 10
174.86522644259529
 20
120.0846549576948
 30
0.0
 11
174.05693606572689
 21
120.0846549576948
 31
0.0
  0
LINE
  5
AA
  8
0
 10
173.21108125416109
 20
118.61959144823631
 30
0.0
 11
174.05693606572689
 21
120.0846549576948
 31
0.0
  0
LINE
  5
AB
  8
0
 10
175.71108125416109
 20
118.61959144823631
 30
0.0
 11
174.86522644259529
 21
120.0846549576948
 31
0.0
  0
LINE
  5
AC
  8
0
 10
173.21108125416109
 20
118.61959144823631
 30
0.0
 11
170.71108125416109
 21
118.61959144823631
 31
0.0
  0
LINE
  5
AD
  8
0
 10
169.86522644259529
 20
120.0846549576948
 30
0.0
 11
169.05693606572689
 21
120.0846549576948
 31
0.0
  0
LINE
  5
AE
  8
0
 10
168.21108125416109
 20
118.61959144823631
 30
0.0
 11
169.05693606572689
 21
120.0846549576948
 31
0.0
  0
LINE
  5
AF
  8
0
 10
170.71108125416109
 20
118.61959144823631
 30
0.0
 11
169.86522644259529
 21
120.0846549576948
 31
0.0
  0
LINE
  5
B0
  8
0
 10
168.21108125416109
 20
118.61959144823631
 30
0.0
 11
165.71108125416109
 21
118.61959144823631
 31
0.0
  0
LINE
  5
B1
  8
0
 10
164.86522644259529
 20
120.0846549576948
 30
0.0
 11
164.05693606572689
 21
120.0846549576948
 31
0.0
  0
LINE
  5
B2
  8
0
 10
163.21108125416109
 20
118.61959144823631
 30
0.0
 11
164.05693606572689
 21
120.0846549576948
 31
0.0
  0
LINE
  5
B3
  8
0
 10
165.71108125416109
 20
118.61959144823631
 30
0.0
 11
164.86522644259529
 21
120.0846549576948
 31
0.0
  0
LINE
  5
B4
  8
0
 10
163.21108125416109
 20
118.61959144823631
 30
0.0
 11
160.71108125416109
 21
118.61959144823631
 31
0.0
  0
LINE
  5
B5
  8
0
 10
159.86522644259529
 20
120.0846549576948
 30
0.0
 11
159.05693606572689
 21
120.0846549576948
 31
0.0
  0
LINE
  5
B6
  8
0
 10
158.21108125416109
 20
118.61959144823631
 30
0.0
 11
159.05693606572689
 21
120.0846549576948
 31
0.0
  0
LINE
  5
B7
  8
0
 10
160.71108125416109
 20
118.61959144823631
 30
0.0
 11
159.86522644259529
 21
120.0846549576948
 31
0.0
  0
LINE
  5
B8
  8
1
 10
174.46108125416549
 20
75.084691448450982
 30
0.0
 11
174.46108125416549
 21
125.084691448451
 31
0.0
  0
LINE
  5
B9
  8
2
 10
214.46108125416549
 20
92.084691448450954
 30
0.0
 11
234.46108125416561
 21
92.084691448450954
 31
0.0
  0
LINE
  5
BA
  8
2
 10
214.46108125416549
 20
92.084691448450954
 30
0.0
 11
214.46108125416549
 21
118.5846549576996
 31
0.0
  0
LINE
  5
BB
  8
2
 10
234.46108125416561
 20
92.084691448450954
 30
0.0
 11
234.46108125416561
 21
118.5846549576996
 31
0.0
  0
LINE
  5
BC
  8
2
 10
214.46108125416549
 20
118.5846549576997
 30
0.0
 11
213.82599595805979
 21
119.6846549576947
 31
0.0
  0
LINE
  5
BD
  8
2
 10
234.46108125416561
 20
118.5846549576997
 30
0.0
 11
235.09616655027131
 21
119.6846549576947
 31
0.0
  0
LINE
  5
BE
  8
2
 10
214.46108125416549
 20
118.5846549576997
 30
0.0
 11
234.46108125416561
 21
118.5846549576996
 31
0.0
  0
LINE
  5
BF
  8
2
 10
184.46108125416549
 20
118.5846549576997
 30
0.0
 11
164.46108125416549
 21
118.5846549576996
 31
0.0
  0
LINE
  5
C0
  8
2
 10
164.46108125416549
 20
92.084691448450954
 30
0.0
 11
164.46108125416549
 21
118.5846549576996
 31
0.0
  0
LINE
  5
C1
  8
2
 10
184.46108125416549
 20
92.084691448450954
 30
0.0
 11
184.46108125416549
 21
118.5846549576997
 31
0.0
  0
LINE
  5
C2
  8
2
 10
181.46108125416541
 20
81.084690099751853
 30
0.0
 11
167.46108125416561
 21
81.084690099751825
 31
0.0
  0
LINE
  5
C3
  8
2
 10
167.46108125416561
 20
81.084690099751825
 30
0.0
 11
167.46108125416561
 21
92.084691448450954
 31
0.0
  0
LINE
  5
C4
  8
2
 10
167.46108125416561
 20
81.084690099751825
 30
0.0
 11
166.46108125416561
 21
80.084690099751825
 31
0.0
  0
LINE
  5
C5
  8
2
 10
181.46108125416541
 20
81.084690099751825
 30
0.0
 11
182.46108125416541
 21
80.084690099751825
 31
0.0
  0
LINE
  5
C6
  8
2
 10
181.46108125416541
 20
81.084690099751825
 30
0.0
 11
181.46108125416541
 21
92.084691448450954
 31
0.0
  0
LINE
  5
C7
  8
2
 10
164.46108125416549
 20
118.5846549576997
 30
0.0
 11
163.82599595805971
 21
119.6846549576947
 31
0.0
  0
LINE
  5
C8
  8
2
 10
184.46108125416549
 20
118.5846549576997
 30
0.0
 11
185.09616655027131
 21
119.6846549576947
 31
0.0
  0
LINE
  5
C9
  8
0
 10
194.86522644259529
 20
169.98653701237299
 30
0.0
 11
194.86522644259529
 21
180.4982134174987
 31
0.0
  0
LINE
  5
CA
  8
0
 10
194.05693606572689
 20
204.98653701237299
 30
0.0
 11
194.05693606572689
 21
194.47486060724631
 31
0.0
  0
LINE
  5
CB
  8
0
 10
199.86522644259529
 20
169.98653701237299
 30
0.0
 11
199.86522644259529
 21
183.03735565145359
 31
0.0
  0
LINE
  5
CC
  8
0
 10
199.05693606572689
 20
204.98653701237299
 30
0.0
 11
199.05693606572689
 21
192.76651035994399
 31
0.0
  0
LINE
  5
CD
  8
0
 10
204.86522644259529
 20
169.98653701237299
 30
0.0
 11
204.86522644259529
 21
204.98653701237299
 31
0.0
  0
LINE
  5
CE
  8
0
 10
204.05693606572689
 20
204.98653701237299
 30
0.0
 11
204.05693606572689
 21
169.98653701237299
 31
0.0
  0
LINE
  5
CF
  8
0
 10
209.86522644259529
 20
169.98653701237299
 30
0.0
 11
209.86522644259529
 21
204.98653701237299
 31
0.0
  0
LINE
  5
D0
  8
0
 10
209.05693606572689
 20
204.98653701237299
 30
0.0
 11
209.05693606572689
 21
169.98653701237299
 31
0.0
  0
LINE
  5
D1
  8
0
 10
214.86522644259529
 20
169.98653701237299
 30
0.0
 11
214.86522644259529
 21
182.38854461975041
 31
0.0
  0
LINE
  5
D2
  8
0
 10
214.05693606572689
 20
204.98653701237299
 30
0.0
 11
214.05693606572689
 21
190.62081825340221
 31
0.0
  0
LINE
  5
D3
  8
0
 10
219.86522644259529
 20
169.98653701237299
 30
0.0
 11
219.86522644259529
 21
177.6403156787369
 31
0.0
  0
LINE
  5
D4
  8
0
 10
219.05693606572689
 20
204.98653701237299
 30
0.0
 11
219.05693606572689
 21
196.9133695017226
 31
0.0
  0
LINE
  5
D5
  8
0
 10
224.86522644259529
 20
169.98653701237299
 30
0.0
 11
224.86522644259529
 21
176.6280554119536
 31
0.0
  0
LINE
  5
D6
  8
0
 10
224.05693606572689
 20
204.98653701237299
 30
0.0
 11
224.05693606572689
 21
198.34501861279239
 31
0.0
  0
LINE
  5
D7
  8
0
 10
229.86522644259529
 20
169.98653701237299
 30
0.0
 11
229.86522644259529
 21
178.05970452301869
 31
0.0
  0
LINE
  5
D8
  8
0
 10
229.05693606572689
 20
204.98653701237299
 30
0.0
 11
229.05693606572689
 21
197.3327583460127
 31
0.0
  0
LINE
  5
D9
  8
0
 10
234.86522644259529
 20
169.98653701237299
 30
0.0
 11
234.86522644259529
 21
184.35225577131371
 31
0.0
  0
LINE
  5
DA
  8
0
 10
234.05693606572689
 20
204.98653701237299
 30
0.0
 11
234.05693606572689
 21
192.5845294050128
 31
0.0
  0
LINE
  5
DB
  8
0
 10
239.86522644259529
 20
169.98653701237299
 30
0.0
 11
239.86522644259529
 21
204.98653701237299
 31
0.0
  0
LINE
  5
DC
  8
0
 10
239.05693606572689
 20
204.98653701237299
 30
0.0
 11
239.05693606572689
 21
169.98653701237299
 31
0.0
  0
LINE
  5
DD
  8
0
 10
234.86522644259529
 20
190.6208182534323
 30
0.0
 11
234.86522644259529
 21
204.98653701237299
 31
0.0
  0
LINE
  5
DE
  8
0
 10
234.05693606572689
 20
182.38854461973321
 30
0.0
 11
234.05693606572689
 21
169.98653701237299
 31
0.0
  0
LINE
  5
DF
  8
0
 10
229.86522644259529
 20
196.9133695017272
 30
0.0
 11
229.86522644259529
 21
204.98653701237299
 31
0.0
  0
LINE
  5
E0
  8
0
 10
229.05693606572689
 20
177.6403156787332
 30
0.0
 11
229.05693606572689
 21
169.98653701237299
 31
0.0
  0
LINE
  5
E1
  8
0
 10
224.86522644259529
 20
198.34501861279239
 30
0.0
 11
224.86522644259529
 21
204.98653701237299
 31
0.0
  0
LINE
  5
E2
  8
0
 10
224.05693606572689
 20
176.6280554119536
 30
0.0
 11
224.05693606572689
 21
169.98653701237299
 31
0.0
  0
LINE
  5
E3
  8
0
 10
219.86522644259529
 20
197.33275834600909
 30
0.0
 11
219.86522644259529
 21
204.98653701237299
 31
0.0
  0
LINE
  5
E4
  8
0
 10
219.05693606572689
 20
178.05970452302341
 30
0.0
 11
219.05693606572689
 21
169.98653701237299
 31
0.0
  0
LINE
  5
E5
  8
0
 10
214.86522644259529
 20
192.58452940499561
 30
0.0
 11
214.86522644259529
 21
204.98653701237299
 31
0.0
  0
LINE
  5
E6
  8
0
 10
214.05693606572689
 20
184.35225577134381
 30
0.0
 11
214.05693606572689
 21
169.98653701237299
 31
0.0
  0
LINE
  5
E7
  8
0
 10
199.86522644259529
 20
191.93571837329239
 30
0.0
 11
199.86522644259529
 21
204.98653701237299
 31
0.0
  0
LINE
  5
E8
  8
0
 10
199.05693606572689
 20
182.20656366480199
 30
0.0
 11
199.05693606572689
 21
169.98653701237299
 31
0.0
  0
LINE
  5
E9
  8
0
 10
194.86522644259529
 20
194.47486060724731
 30
0.0
 11
194.86522644259529
 21
204.98653701237299
 31
0.0
  0
LINE
  5
EA
  8
0
 10
194.05693606572689
 20
180.49821341749919
 30
0.0
 11
194.05693606572689
 21
169.98653701237299
 31
0.0
  0
LINE
  5
EB
  8
0
 10
184.05693606573581
 20
192.58452940499561
 30
0.0
 11
184.05693606573581
 21
204.98653701237299
 31
0.0
  0
LINE
  5
EC
  8
0
 10
184.86522644260421
 20
204.98653701237299
 30
0.0
 11
184.86522644260421
 21
190.62081825340221
 31
0.0
  0
LINE
  5
ED
  8
0
 10
189.86522644260421
 20
204.98653701237299
 30
0.0
 11
189.86522644260421
 21
192.7665103599426
 31
0.0
  0
LINE
  5
EE
  8
0
 10
189.05693606573581
 20
169.98653701237299
 30
0.0
 11
189.05693606573581
 21
183.037355651452
 31
0.0
  0
LINE
  5
EF
  8
0
 10
184.05693606573581
 20
169.98653701237299
 30
0.0
 11
184.05693606573581
 21
182.38854461975041
 31
0.0
  0
LINE
  5
F0
  8
0
 10
184.86522644260421
 20
184.35225577134381
 30
0.0
 11
184.86522644260421
 21
169.98653701237299
 31
0.0
  0
LINE
  5
F1
  8
0
 10
164.05693606573581
 20
169.98653701237299
 30
0.0
 11
164.05693606573581
 21
184.35225577131371
 31
0.0
  0
LINE
  5
F2
  8
0
 10
164.86522644260421
 20
182.38854461973321
 30
0.0
 11
164.86522644260421
 21
169.98653701237299
 31
0.0
  0
LINE
  5
F3
  8
0
 10
169.05693606573581
 20
169.98653701237299
 30
0.0
 11
169.05693606573581
 21
178.05970452301869
 31
0.0
  0
LINE
  5
F4
  8
0
 10
169.86522644260421
 20
177.6403156787332
 30
0.0
 11
169.86522644260421
 21
169.98653701237299
 31
0.0
  0
LINE
  5
F5
  8
0
 10
174.05693606573581
 20
169.98653701237299
 30
0.0
 11
174.05693606573581
 21
176.6280554119536
 31
0.0
  0
LINE
  5
F6
  8
0
 10
174.86522644260421
 20
176.6280554119536
 30
0.0
 11
174.86522644260421
 21
169.98653701237299
 31
0.0
  0
LINE
  5
F7
  8
0
 10
179.05693606573581
 20
169.98653701237299
 30
0.0
 11
179.05693606573581
 21
177.6403156787369
 31
0.0
  0
LINE
  5
F8
  8
0
 10
179.86522644260421
 20
178.05970452302341
 30
0.0
 11
179.86522644260421
 21
169.98653701237299
 31
0.0
  0
LINE
  5
F9
  8
0
 10
159.86522644260421
 20
204.98653701237299
 30
0.0
 11
159.86522644260421
 21
169.98653701237299
 31
0.0
  0
LINE
  5
FA
  8
0
 10
159.05693606573581
 20
169.98653701237299
 30
0.0
 11
159.05693606573581
 21
204.98653701237299
 31
0.0
  0
LINE
  5
FB
  8
0
 10
164.05693606573581
 20
190.6208182534323
 30
0.0
 11
164.05693606573581
 21
204.98653701237299
 31
0.0
  0
LINE
  5
FC
  8
0
 10
164.86522644260421
 20
204.98653701237299
 30
0.0
 11
164.86522644260421
 21
192.5845294050128
 31
0.0
  0
LINE
  5
FD
  8
0
 10
169.05693606573581
 20
196.9133695017272
 30
0.0
 11
169.05693606573581
 21
204.98653701237299
 31
0.0
  0
LINE
  5
FE
  8
0
 10
169.86522644260421
 20
204.98653701237299
 30
0.0
 11
169.86522644260421
 21
197.3327583460127
 31
0.0
  0
LINE
  5
FF
  8
0
 10
174.05693606573581
 20
198.34501861279239
 30
0.0
 11
174.05693606573581
 21
204.98653701237299
 31
0.0
  0
LINE
  5
100
  8
0
 10
174.86522644260421
 20
204.98653701237299
 30
0.0
 11
174.86522644260421
 21
198.34501861279239
 31
0.0
  0
LINE
  5
101
  8
0
 10
179.05693606573581
 20
197.33275834600909
 30
0.0
 11
179.05693606573581
 21
204.98653701237299
 31
0.0
  0
LINE
  5
102
  8
0
 10
179.86522644260421
 20
204.98653701237299
 30
0.0
 11
179.86522644260421
 21
196.9133695017226
 31
0.0
  0
LINE
  5
103
  8
0
 10
189.86522644260421
 20
182.20656366480341
 30
0.0
 11
189.86522644260421
 21
169.98653701237299
 31
0.0
  0
LINE
  5
104
  8
0
 10
189.05693606573581
 20
191.93571837329401
 30
0.0
 11
189.05693606573581
 21
204.98653701237299
 31
0.0
  0
LINE
  5
105
  8
0
 10
75.454364544723603
 20
80.084691448450968
 30
0.0
 11
108.4543645447236
 21
80.084691448450968
 31
0.0
  0
LINE
  5
106
  8
0
 10
75.954364544723546
 20
120.0846914484509
 30
0.0
 11
74.454364544723546
 21
118.5846914484509
 31
0.0
  0
LINE
  5
107
  8
0
 10
107.9543645447236
 20
120.0846914484509
 30
0.0
 11
109.4543645447236
 21
118.5846914484509
 31
0.0
  0
LINE
  5
108
  8
0
 10
109.4543645447236
 20
81.084691448450968
 30
0.0
 11
109.4543645447236
 21
118.5846914484509
 31
0.0
  0
LINE
  5
109
  8
0
 10
74.454364544723603
 20
81.084691448450968
 30
0.0
 11
75.454364544723603
 21
80.084691448450968
 31
0.0
  0
LINE
  5
10A
  8
0
 10
108.4543645447236
 20
80.084691448450968
 30
0.0
 11
109.4543645447236
 21
81.084691448450968
 31
0.0
  0
LINE
  5
10B
  8
0
 10
107.9543645447236
 20
120.0846914484509
 30
0.0
 11
75.954364544723475
 21
120.0846914484509
 31
0.0
  0
LINE
  5
10C
  8
0
 10
74.454364544723546
 20
118.5846914484509
 30
0.0
 11
74.454364544723603
 21
81.084691448450968
 31
0.0
  0
LINE
  5
10D
  8
1
 10
91.954364544723603
 20
130.08469144845091
 30
0.0
 11
91.954364544723603
 21
70.084691448450968
 31
0.0
  0
LINE
  5
10E
  8
1
 10
199.46108125416549
 20
130.08469144845091
 30
0.0
 11
199.46108125416549
 21
70.084691448450968
 31
0.0
  0
LINE
  5
10F
  8
2
 10
199.5140812541656
 20
85.049754957694844
 30
0.0
 11
199.5140812541656
 21
118.0846539835826
 31
0.0
  0
LINE
  5
110
  8
2
 10
200.46108125416561
 20
90.049754957694844
 30
0.0
 11
200.46108125416561
 21
119.0526041501362
 31
0.0
  0
LINE
  5
111
  8
2
 10
200.45933117665959
 20
119.0556353732938
 30
0.0
 11
199.51408125416549
 21
118.0846539835826
 31
0.0
  0
LINE
  5
112
  8
2
 10
188.46283133167159
 20
119.0556353732937
 30
0.0
 11
189.40808125416561
 21
118.0846539835826
 31
0.0
  0
LINE
  5
113
  8
2
 10
188.46108125416549
 20
90.049754957694844
 30
0.0
 11
188.46108125416569
 21
119.0526041501363
 31
0.0
  0
LINE
  5
114
  8
2
 10
189.4080812541655
 20
85.049754957694844
 30
0.0
 11
189.40808125416561
 21
118.0846539835827
 31
0.0
  0
LINE
  5
115
  8
2
 10
189.40808125416561
 20
118.0846539835827
 30
0.0
 11
199.51408125416549
 21
118.0846539835826
 31
0.0
  0
LINE
  5
116
  8
2
 10
188.46108125416549
 20
90.049754957694844
 30
0.0
 11
200.46108125416561
 21
90.049754957694844
 31
0.0
  0
LINE
  5
117
  8
2
 10
188.46108125416549
 20
90.049754957694844
 30
0.0
 11
189.40808125416561
 21
88.409502842927154
 31
0.0
  0
LINE
  5
118
  8
2
 10
200.46108125416561
 20
90.049754957694844
 30
0.0
 11
199.5140812541656
 21
88.409502842927154
 31
0.0
  0
LINE
  5
119
  8
2
 10
189.4080812541655
 20
85.049754957694844
 30
0.0
 11
199.5140812541656
 21
85.049754957694844
 31
0.0
  0
LINE
  5
11A
  8
2
 10
189.4080812541655
 20
85.049754957694844
 30
0.0
 11
194.46108125416549
 21
82.132404047479667
 31
0.0
  0
LINE
  5
11B
  8
2
 10
199.5140812541656
 20
85.049754957694844
 30
0.0
 11
194.46108125416549
 21
82.132404047479667
 31
0.0
  0
INSERT
  5
11C
  8
0
  2
STDGX5
 10
0.0
 20
0.0
 30
0.0
  0
TEXT
  5
236
  8
0
 62
     3
 10
0.0
 20
0.0
 30
0.0
 40
10.0
  1
BJ500-12040
  7
STANDARD1
  0
ENDSEC
  0
EOF
