  0
SECTION
  2
HEADER
  9
$ACADVER
  1
AC1009
  9
$INSBASE
 10
0.0
 20
0.0
 30
0.0
  9
$EXTMIN
 10
0.0
 20
-2.960436562073669
 30
0.0
  9
$EXTMAX
 10
214.62037996209989
 20
194.99741028628421
 30
0.0
  9
$LIMMIN
 10
0.0
 20
0.0
  9
$LIMMAX
 10
375.0
 20
270.0
  9
$ORTHOMODE
 70
     1
  9
$REGENMODE
 70
     1
  9
$FILLMODE
 70
     1
  9
$QTEXTMODE
 70
     0
  9
$MIRRTEXT
 70
     0
  9
$DRAGMODE
 70
     2
  9
$LTSCALE
 40
10.0
  9
$OSMODE
 70
  3071
  9
$ATTMODE
 70
     1
  9
$TEXTSIZE
 40
4.000000000000048
  9
$TRACEWID
 40
0.05
  9
$TEXTSTYLE
  7
STANDARD
  9
$CLAYER
  8
0
  9
$CELTYPE
  6
BYLAYER
  9
$CECOLOR
 62
   256
  9
$DIMSCALE
 40
1.0
  9
$DIMASZ
 40
3.0
  9
$DIMEXO
 40
2.0
  9
$DIMDLI
 40
0.38
  9
$DIMRND
 40
0.0
  9
$DIMDLE
 40
0.0
  9
$DIMEXE
 40
2.0
  9
$DIMTP
 40
0.0
  9
$DIMTM
 40
0.0
  9
$DIMTXT
 40
3.2000000000000002
  9
$DIMCEN
 40
0.0
  9
$DIMTSZ
 40
0.0
  9
$DIMTOL
 70
     0
  9
$DIMLIM
 70
     0
  9
$DIMTIH
 70
     0
  9
$DIMTOH
 70
     0
  9
$DIMSE1
 70
     0
  9
$DIMSE2
 70
     0
  9
$DIMTAD
 70
     1
  9
$DIMZIN
 70
     0
  9
$DIMBLK
  1

  9
$DIMASO
 70
     0
  9
$DIMSHO
 70
     0
  9
$DIMPOST
  1

  9
$DIMAPOST
  1

  9
$DIMALT
 70
     0
  9
$DIMALTD
 70
     2
  9
$DIMALTF
 40
25.399999999999999
  9
$DIMLFAC
 40
1.0
  9
$DIMTOFL
 70
     0
  9
$DIMTVP
 40
1.6000000000000001
  9
$DIMTIX
 70
     1
  9
$DIMSOXD
 70
     0
  9
$DIMSAH
 70
     0
  9
$DIMBLK1
  1

  9
$DIMBLK2
  1

  9
$DIMSTYLE
  2
STANDARD
  9
$DIMCLRD
 70
     4
  9
$DIMCLRE
 70
     4
  9
$DIMCLRT
 70
     4
  9
$DIMTFAC
 40
1.0
  9
$DIMGAP
 40
0.09
  9
$LUNITS
 70
     2
  9
$LUPREC
 70
     1
  9
$SKETCHINC
 40
0.1
  9
$FILLETRAD
 40
0.0
  9
$AUNITS
 70
     0
  9
$AUPREC
 70
     0
  9
$MENU
  1
E:\r13\win\SUPPORT\ACAD
  9
$ELEVATION
 40
0.0
  9
$PELEVATION
 40
0.0
  9
$THICKNESS
 40
0.0
  9
$LIMCHECK
 70
     0
  9
$BLIPMODE
 70
     0
  9
$CHAMFERA
 40
1.1999999999999991
  9
$CHAMFERB
 40
1.1999999999999991
  9
$SKPOLY
 70
     0
  9
$TDCREATE
 40
2450144.6425623838
  9
$TDUPDATE
 40
2456597.6779406359
  9
$TDINDWG
 40
0.0007296759
  9
$TDUSRTIMER
 40
0.0007296759
  9
$USRTIMER
 70
     1
  9
$ANGBASE
 50
0.0
  9
$ANGDIR
 70
     0
  9
$PDMODE
 70
     0
  9
$PDSIZE
 40
0.0
  9
$PLINEWID
 40
0.0
  9
$COORDS
 70
     1
  9
$SPLFRAME
 70
     0
  9
$SPLINETYPE
 70
     6
  9
$SPLINESEGS
 70
     8
  9
$ATTDIA
 70
     0
  9
$ATTREQ
 70
     1
  9
$HANDLING
 70
     1
  9
$HANDSEED
  5
2F2
  9
$SURFTAB1
 70
     6
  9
$SURFTAB2
 70
     6
  9
$SURFTYPE
 70
     6
  9
$SURFU
 70
     6
  9
$SURFV
 70
     6
  9
$UCSNAME
  2

  9
$UCSORG
 10
0.0
 20
0.0
 30
0.0
  9
$UCSXDIR
 10
1.0
 20
0.0
 30
0.0
  9
$UCSYDIR
 10
0.0
 20
1.0
 30
0.0
  9
$PUCSNAME
  2

  9
$PUCSORG
 10
0.0
 20
0.0
 30
0.0
  9
$PUCSXDIR
 10
1.0
 20
0.0
 30
0.0
  9
$PUCSYDIR
 10
0.0
 20
1.0
 30
0.0
  9
$USERI1
 70
     0
  9
$USERI2
 70
     1
  9
$USERI3
 70
     0
  9
$USERI4
 70
     0
  9
$USERI5
 70
     0
  9
$USERR1
 40
0.0
  9
$USERR2
 40
0.0
  9
$USERR3
 40
0.0
  9
$USERR4
 40
0.0
  9
$USERR5
 40
0.0
  9
$WORLDVIEW
 70
     1
  9
$SHADEDGE
 70
     3
  9
$SHADEDIF
 70
    70
  9
$TILEMODE
 70
     1
  9
$MAXACTVP
 70
    16
  9
$PLIMCHECK
 70
     0
  9
$PEXTMIN
 10
1.0000000000000000E+020
 20
1.0000000000000000E+020
 30
1.0000000000000000E+020
  9
$PEXTMAX
 10
-1.0000000000000000E+020
 20
-1.0000000000000000E+020
 30
-1.0000000000000000E+020
  9
$PLIMMIN
 10
0.0
 20
0.0
  9
$PLIMMAX
 10
12.0
 20
9.0
  9
$UNITMODE
 70
     0
  9
$VISRETAIN
 70
     0
  9
$PLINEGEN
 70
     0
  9
$PSLTSCALE
 70
     0
  0
ENDSEC
  0
SECTION
  2
TABLES
  0
TABLE
  2
VPORT
 70
     1
  0
VPORT
  2
*ACTIVE
 70
     0
 10
0.0
 20
0.0
 11
1.0
 21
1.0
 12
195.0581083320873
 22
133.5127261426681
 13
0.0
 23
0.0
 14
10.0
 24
10.0
 15
10.0
 25
10.0
 16
0.0
 26
0.0
 36
1.0
 17
0.0
 27
0.0
 37
0.0
 40
275.42274993631997
 41
1.831871345029239
 42
50.0
 43
0.0
 44
0.0
 50
0.0
 51
0.0
 71
     0
 72
   500
 73
     1
 74
     0
 75
     0
 76
     0
 77
     0
 78
     2
  0
ENDTAB
  0
TABLE
  2
LTYPE
 70
     4
  0
LTYPE
  2
CONTINUOUS
 70
     0
  3
Solid Line
 72
    65
 73
     0
 40
0.0
  0
LTYPE
  2
CENTER
 70
     0
  3
____ _ ____ _ ____ _ ____ _ ____ _ ____ _ ____
 72
    65
 73
     4
 40
2.0
 49
1.25
 49
-0.25
 49
0.25
 49
-0.25
  0
LTYPE
  2
HIDDEN
 70
     0
  3
_ _ _ _ _ _ _ _ _ _ _ _ _ _ _ _ _ _ _ _ _ _ _
 72
    65
 73
     2
 40
0.375
 49
0.25
 49
-0.125
  0
LTYPE
  2
PHANTOM2
 70
     0
  3
___ _ _ ___ _ _ ___ _ _ ___ _ _
 72
    65
 73
     6
 40
1.25
 49
0.625
 49
-0.125
 49
0.125
 49
-0.125
 49
0.125
 49
-0.125
  0
ENDTAB
  0
TABLE
  2
LAYER
 70
     5
  0
LAYER
  2
0
 70
     0
 62
     7
  6
CONTINUOUS
  0
LAYER
  2
1
 70
     0
 62
     1
  6
CENTER
  0
LAYER
  2
3
 70
     0
 62
     3
  6
CONTINUOUS
  0
LAYER
  2
4
 70
     0
 62
     4
  6
CONTINUOUS
  0
LAYER
  2
2
 70
     0
 62
     2
  6
HIDDEN
  0
ENDTAB
  0
TABLE
  2
STYLE
 70
     2
  0
STYLE
  2
STANDARD
 70
     0
 40
0.0
 41
1.0
 50
0.0
 71
     0
 42
4.000000000000048
  3
SIMPLEX
  4
BIGFONT
  0
STYLE
  2
STANDARD1
 70
     0
 40
0.0
 41
1.0
 50
0.0
 71
     0
 42
3.0
  3
txt
  4

  0
ENDTAB
  0
TABLE
  2
VIEW
 70
     1
  0
VIEW
  2
ALL
 70
     0
 40
270.0
 10
220.59941989218049
 20
135.0
 41
441.19883978436093
 11
0.0
 21
0.0
 31
1.0
 12
0.0
 22
0.0
 32
0.0
 42
50.0
 43
0.0
 44
0.0
 50
0.0
 71
     0
  0
ENDTAB
  0
TABLE
  2
UCS
 70
     0
  0
ENDTAB
  0
TABLE
  2
APPID
 70
     3
  0
APPID
  2
ACAD
 70
     0
  0
APPID
  2
ACAD_MLEADERVER
 70
     0
  0
APPID
  2
ACAD_NAV_VCDISPLAY
 70
     0
  0
ENDTAB
  0
TABLE
  2
DIMSTYLE
 70
     1
  0
DIMSTYLE
  2
STANDARD
 70
     0
  3

  4

  5

  6

  7

 40
1.0
 41
0.18
 42
0.0625
 43
0.38
 44
0.18
 45
0.0
 46
0.0
 47
0.0
 48
0.0
140
0.18
141
0.09
142
0.0
143
25.399999999999999
144
1.0
145
0.0
146
1.0
147
0.09
 71
     0
 72
     0
 73
     1
 74
     1
 75
     0
 76
     0
 77
     0
 78
     0
170
     0
171
     2
172
     0
173
     0
174
     0
175
     0
176
     0
177
     0
178
     0
  0
ENDTAB
  0
ENDSEC
  0
SECTION
  2
BLOCKS
  0
BLOCK
  8
0
  2
$MODEL_SPACE
 70
     0
 10
0.0
 20
0.0
 30
0.0
  3
$MODEL_SPACE
  1

  0
ENDBLK
  5
1AA
  8
0
  0
BLOCK
 67
     1
  8
0
  2
$PAPER_SPACE
 70
     0
 10
0.0
 20
0.0
 30
0.0
  3
$PAPER_SPACE
  1

  0
ENDBLK
  5
1A8
 67
     1
  8
0
  0
BLOCK
  8
0
  2
STDGX5
 70
     0
 10
0.0
 20
0.0
 30
0.0
  3
STDGX5
  1

  0
ENDBLK
  5
30
  8
0
  0
ENDSEC
  0
SECTION
  2
ENTITIES
  0
INSERT
  5
38
  8
0
  2
STDGX5
 10
0.0
 20
0.0
 30
0.0
  0
INSERT
  5
40
  8
0
  2
STDGX5
 10
392.56327710706302
 20
16.513928979281062
 30
0.0
  0
INSERT
  5
41
  8
0
  2
STDGX5
 10
386.22961396883051
 20
13.812385816679591
 30
0.0
  0
INSERT
  5
42
  8
4
  2
STDGX5
 10
383.72307454838079
 20
38.684998676443882
 30
0.0
  0
INSERT
  5
43
  8
4
  2
STDGX5
 10
385.31170771059431
 20
24.659256124303251
 30
0.0
  0
INSERT
  5
44
  8
0
  2
STDGX5
 10
388.01225599430819
 20
15.615139337424351
 30
0.0
  0
INSERT
  5
45
  8
0
  2
STDGX5
 10
392.08993652884601
 20
19.232257026121321
 30
0.0
  0
INSERT
  5
46
  8
4
  2
STDGX5
 10
382.73728338344131
 20
27.170967802914362
 30
0.0
  0
INSERT
  5
47
  8
0
  2
STDGX5
 10
399.78994682689279
 20
33.737331521258007
 30
0.0
  0
INSERT
  5
48
  8
0
  2
STDGX5
 10
388.47087351051732
 20
21.957833128303861
 30
0.0
  0
INSERT
  5
49
  8
0
  2
STDGX5
 10
386.22082231195691
 20
21.95858551516417
 30
0.0
  0
INSERT
  5
4A
  8
0
  2
STDGX5
 10
384.85025734019177
 20
14.249049040814381
 30
0.0
  0
INSERT
  5
4B
  8
4
  2
STDGX5
 10
389.26434377855082
 20
33.92954796071772
 30
0.0
  0
INSERT
  5
4C
  8
0
  2
STDGX5
 10
389.83782004170922
 20
21.954078771704769
 30
0.0
  0
INSERT
  5
4D
  8
0
  2
STDGX5
 10
390.28040565616402
 20
16.080845998899179
 30
0.0
  0
INSERT
  5
4E
  8
0
  2
STDGX5
 10
390.73822048106382
 20
27.856161875112541
 30
0.0
  0
INSERT
  5
4F
  8
4
  2
STDGX5
 10
385.22529591400178
 20
33.418206628624482
 30
0.0
  0
INSERT
  5
50
  8
0
  2
STDGX5
 10
390.73822048106382
 20
16.534059696024261
 30
0.0
  0
LINE
  5
51
  8
0
 10
161.4953799620898
 20
124.6758547510381
 30
0.0
 11
159.82037996209971
 21
124.6758547510381
 31
0.0
  0
LINE
  5
52
  8
0
 10
161.88943985442401
 20
125.3583865057858
 30
0.0
 11
161.49537996208991
 21
124.6758547510381
 31
0.0
  0
LINE
  5
53
  8
0
 10
162.3513200697756
 20
125.3583865057858
 30
0.0
 11
161.88943985442401
 21
125.3583865057858
 31
0.0
  0
LINE
  5
54
  8
0
 10
162.7453799621008
 20
124.67585475105319
 30
0.0
 11
162.3513200697756
 21
125.3583865057858
 31
0.0
  0
LINE
  5
55
  8
0
 10
207.74537996210989
 20
124.6758547510381
 30
0.0
 11
209.4203799620999
 21
124.6758547510381
 31
0.0
  0
LINE
  5
56
  8
0
 10
206.88943985442401
 20
125.3583865057858
 30
0.0
 11
207.35132006977591
 21
125.3583865057858
 31
0.0
  0
LINE
  5
57
  8
0
 10
206.49537996209881
 20
124.67585475105319
 30
0.0
 11
206.88943985442401
 21
125.3583865057858
 31
0.0
  0
LINE
  5
58
  8
0
 10
207.35132006977591
 20
125.3583865057858
 30
0.0
 11
207.74537996210989
 21
124.6758547510381
 31
0.0
  0
LINE
  5
59
  8
0
 10
162.3513200697756
 20
184.11944677101059
 30
0.0
 11
162.3513200697756
 21
164.99741028628421
 31
0.0
  0
LINE
  5
5A
  8
0
 10
162.3513200697756
 20
189.99741028628421
 30
0.0
 11
162.3513200697756
 21
184.11944677101059
 31
0.0
  0
LINE
  5
5B
  8
0
 10
161.88943985442401
 20
171.05210454269951
 30
0.0
 11
161.88943985442401
 21
189.99741028628421
 31
0.0
  0
LINE
  5
5C
  8
0
 10
161.88943985442401
 20
164.99741028628421
 30
0.0
 11
161.8894398544239
 21
171.05210454269951
 31
0.0
  0
LINE
  5
5D
  8
0
 10
207.35132006977591
 20
164.99741028628421
 30
0.0
 11
207.35132006977591
 21
171.05210454269951
 31
0.0
  0
LINE
  5
5E
  8
0
 10
206.88943985442401
 20
184.11944677101059
 30
0.0
 11
206.8894398544241
 21
164.99741028628421
 31
0.0
  0
LINE
  5
5F
  8
0
 10
206.88943985442401
 20
189.99741028628421
 30
0.0
 11
206.88943985442401
 21
184.11944677101059
 31
0.0
  0
LINE
  5
60
  8
0
 10
207.35132006977591
 20
171.05210454269951
 30
0.0
 11
207.35132006977591
 21
189.99741028628421
 31
0.0
  0
LINE
  5
61
  8
0
 10
184.38943985442401
 20
173.30909724541931
 30
0.0
 11
184.38943985442401
 21
164.99741028628421
 31
0.0
  0
LINE
  5
62
  8
0
 10
182.3513200697756
 20
173.8448266520553
 30
0.0
 11
182.3513200697756
 21
164.99741028628421
 31
0.0
  0
LINE
  5
63
  8
0
 10
164.38943985442401
 20
171.05210454269951
 30
0.0
 11
164.38943985442401
 21
189.99741028628421
 31
0.0
  0
LINE
  5
64
  8
0
 10
164.8513200697756
 20
184.11944677101059
 30
0.0
 11
164.8513200697756
 21
179.34423682979249
 31
0.0
  0
LINE
  5
65
  8
0
 10
166.8894398544239
 20
182.8720977739348
 30
0.0
 11
166.88943985442401
 21
189.99741028628421
 31
0.0
  0
LINE
  5
66
  8
0
 10
167.3513200697756
 20
171.7089676854273
 30
0.0
 11
167.3513200697756
 21
164.99741028628421
 31
0.0
  0
LINE
  5
67
  8
0
 10
169.8513200697756
 20
170.34888825686869
 30
0.0
 11
169.8513200697756
 21
164.99741028628421
 31
0.0
  0
LINE
  5
68
  8
0
 10
169.3894398544239
 20
184.48253491854899
 30
0.0
 11
169.38943985442401
 21
189.99741028628421
 31
0.0
  0
LINE
  5
69
  8
0
 10
171.88943985442401
 20
184.99741028628421
 30
0.0
 11
171.88943985442401
 21
189.99741028628421
 31
0.0
  0
LINE
  5
6A
  8
0
 10
172.3513200697756
 20
170.00096668503721
 30
0.0
 11
172.3513200697756
 21
164.99741028628421
 31
0.0
  0
LINE
  5
6B
  8
0
 10
184.38943985442401
 20
189.99741028628421
 30
0.0
 11
184.38943985442401
 21
181.68572332714919
 31
0.0
  0
LINE
  5
6C
  8
0
 10
179.8513200697756
 20
189.99741028628421
 30
0.0
 11
179.8513200697756
 21
164.99741028628421
 31
0.0
  0
LINE
  5
6D
  8
0
 10
179.38943985442401
 20
164.99741028628421
 30
0.0
 11
179.3894398544239
 21
175.65058374277601
 31
0.0
  0
LINE
  5
6E
  8
0
 10
177.3513200697756
 20
189.99741028628421
 30
0.0
 11
177.3513200697756
 21
182.8720977739344
 31
0.0
  0
LINE
  5
6F
  8
0
 10
176.88943985442401
 20
164.99741028628421
 30
0.0
 11
176.8894398544239
 21
171.70896768542659
 31
0.0
  0
LINE
  5
70
  8
0
 10
174.8513200697756
 20
189.99741028628421
 30
0.0
 11
174.8513200697756
 21
184.48253491854999
 31
0.0
  0
LINE
  5
71
  8
0
 10
174.38943985442401
 20
164.99741028628421
 30
0.0
 11
174.3894398544239
 21
170.3488882568677
 31
0.0
  0
LINE
  5
72
  8
0
 10
164.38943985442401
 20
164.99741028628421
 30
0.0
 11
164.3894398544239
 21
171.05210454269951
 31
0.0
  0
LINE
  5
73
  8
0
 10
164.8513200697756
 20
189.99741028628421
 30
0.0
 11
164.8513200697756
 21
184.11944677101059
 31
0.0
  0
LINE
  5
74
  8
0
 10
166.88943985442401
 20
164.99741028628421
 30
0.0
 11
166.8894398544239
 21
172.1227227986337
 31
0.0
  0
LINE
  5
75
  8
0
 10
167.3513200697756
 20
189.99741028628421
 30
0.0
 11
167.3513200697756
 21
183.2858528871412
 31
0.0
  0
LINE
  5
76
  8
0
 10
169.38943985442401
 20
164.99741028628421
 30
0.0
 11
169.3894398544239
 21
170.51228565401789
 31
0.0
  0
LINE
  5
77
  8
0
 10
169.8513200697756
 20
189.99741028628421
 30
0.0
 11
169.8513200697756
 21
184.64593231569981
 31
0.0
  0
LINE
  5
78
  8
0
 10
171.88943985442401
 20
164.99741028628421
 30
0.0
 11
171.88943985442401
 21
169.99741028628421
 31
0.0
  0
LINE
  5
79
  8
0
 10
172.3513200697756
 20
189.99741028628421
 30
0.0
 11
172.3513200697756
 21
184.99385388753129
 31
0.0
  0
LINE
  5
7A
  8
0
 10
182.3513200697756
 20
189.99741028628421
 30
0.0
 11
182.3513200697756
 21
181.1499939205132
 31
0.0
  0
LINE
  5
7B
  8
0
 10
181.88943985442401
 20
164.99741028628421
 30
0.0
 11
181.88943985442401
 21
174.17596991676311
 31
0.0
  0
CIRCLE
  5
7C
  8
3
 10
184.62037996209989
 20
177.49741028628421
 30
0.0
 40
4.0
  0
CIRCLE
  5
7D
  8
0
 10
184.62037996209989
 20
177.49741028628421
 30
0.0
 40
3.2999999999999989
  0
LINE
  5
7E
  8
1
 10
172.12037996209989
 20
187.49741028628421
 30
0.0
 11
172.12037996209989
 21
167.49741028628421
 31
0.0
  0
CIRCLE
  5
7F
  8
0
 10
172.12037996209989
 20
177.49741028628421
 30
0.0
 40
4.5
  0
LINE
  5
80
  8
0
 10
208.62037996209989
 20
164.99741028628421
 30
0.0
 11
160.62037996209989
 21
164.99741028628421
 31
0.0
  0
LINE
  5
81
  8
0
 10
160.62037996209989
 20
189.99741028628421
 30
0.0
 11
208.62037996209989
 21
189.99741028628421
 31
0.0
  0
CIRCLE
  5
82
  8
0
 10
184.62037996209989
 20
177.49741028628421
 30
0.0
 40
4.2999999999999989
  0
LINE
  5
83
  8
0
 10
159.62037996209989
 20
165.99741028628421
 30
0.0
 11
159.62037996209989
 21
188.99741028628421
 31
0.0
  0
LINE
  5
84
  8
0
 10
160.62037996209989
 20
165.08319672391119
 30
0.0
 11
160.62037996209989
 21
189.91162384866499
 31
0.0
  0
CIRCLE
  5
85
  8
0
 10
172.12037996209989
 20
177.49741028628421
 30
0.0
 40
7.5
  0
LINE
  5
86
  8
0
 10
164.8513200697756
 20
175.65058374277601
 30
0.0
 11
164.8513200697756
 21
164.99741028628421
 31
0.0
  0
LINE
  5
87
  8
0
 10
174.3894398544239
 20
184.6459323157008
 30
0.0
 11
174.38943985442401
 21
189.99741028628421
 31
0.0
  0
LINE
  5
88
  8
0
 10
174.8513200697756
 20
170.5122856540184
 30
0.0
 11
174.8513200697756
 21
164.99741028628421
 31
0.0
  0
LINE
  5
89
  8
0
 10
176.8894398544239
 20
183.2858528871418
 30
0.0
 11
176.88943985442401
 21
189.99741028628421
 31
0.0
  0
LINE
  5
8A
  8
0
 10
177.3513200697756
 20
172.1227227986341
 30
0.0
 11
177.3513200697756
 21
164.99741028628421
 31
0.0
  0
LINE
  5
8B
  8
0
 10
179.3894398544239
 20
179.34423682979249
 30
0.0
 11
179.38943985442401
 21
189.99741028628421
 31
0.0
  0
CIRCLE
  5
8C
  8
0
 10
172.12037996209989
 20
177.49741028628421
 30
0.0
 40
7.0
  0
LINE
  5
8D
  8
0
 10
181.88943985442401
 20
180.81885065580531
 30
0.0
 11
181.88943985442401
 21
189.99741028628421
 31
0.0
  0
LINE
  5
8E
  8
0
 10
187.3513200697758
 20
180.81885065580531
 30
0.0
 11
187.3513200697758
 21
189.99741028628421
 31
0.0
  0
CIRCLE
  5
8F
  8
0
 10
197.12037996209989
 20
177.49741028628421
 30
0.0
 40
7.0
  0
LINE
  5
90
  8
0
 10
189.8513200697758
 20
179.34423682979249
 30
0.0
 11
189.8513200697758
 21
189.99741028628421
 31
0.0
  0
LINE
  5
91
  8
0
 10
191.88943985442401
 20
172.1227227986341
 30
0.0
 11
191.88943985442401
 21
164.99741028628421
 31
0.0
  0
LINE
  5
92
  8
0
 10
192.3513200697758
 20
183.2858528871418
 30
0.0
 11
192.3513200697758
 21
189.99741028628421
 31
0.0
  0
LINE
  5
93
  8
0
 10
194.38943985442401
 20
170.5122856540184
 30
0.0
 11
194.38943985442401
 21
164.99741028628421
 31
0.0
  0
LINE
  5
94
  8
0
 10
194.8513200697758
 20
184.6459323157008
 30
0.0
 11
194.8513200697758
 21
189.99741028628421
 31
0.0
  0
LINE
  5
95
  8
0
 10
204.3894398544241
 20
175.65058374277601
 30
0.0
 11
204.3894398544241
 21
164.99741028628421
 31
0.0
  0
CIRCLE
  5
96
  8
0
 10
197.12037996209989
 20
177.49741028628421
 30
0.0
 40
7.5
  0
LINE
  5
97
  8
0
 10
208.62037996209989
 20
165.0831967239163
 30
0.0
 11
208.62037996209989
 21
189.9116238486574
 31
0.0
  0
LINE
  5
98
  8
0
 10
209.6203799621
 20
165.99741028628421
 30
0.0
 11
209.6203799621
 21
188.99741028628421
 31
0.0
  0
CIRCLE
  5
99
  8
0
 10
197.12037996209989
 20
177.49741028628421
 30
0.0
 40
4.5
  0
LINE
  5
9A
  8
1
 10
197.12037996209989
 20
187.49741028628421
 30
0.0
 11
197.12037996209989
 21
167.49741028628421
 31
0.0
  0
LINE
  5
9B
  8
0
 10
187.3513200697758
 20
164.99741028628421
 30
0.0
 11
187.3513200697758
 21
174.17596991676311
 31
0.0
  0
LINE
  5
9C
  8
0
 10
186.88943985442401
 20
189.99741028628421
 30
0.0
 11
186.88943985442401
 21
181.1499939205132
 31
0.0
  0
LINE
  5
9D
  8
0
 10
196.88943985442401
 20
189.99741028628421
 30
0.0
 11
196.88943985442401
 21
184.99385388753129
 31
0.0
  0
LINE
  5
9E
  8
0
 10
197.3513200697758
 20
164.99741028628421
 30
0.0
 11
197.3513200697758
 21
169.99741028628421
 31
0.0
  0
LINE
  5
9F
  8
0
 10
199.38943985442401
 20
189.99741028628421
 30
0.0
 11
199.38943985442401
 21
184.64593231569981
 31
0.0
  0
LINE
  5
A0
  8
0
 10
199.8513200697758
 20
164.99741028628421
 30
0.0
 11
199.8513200697758
 21
170.51228565401789
 31
0.0
  0
LINE
  5
A1
  8
0
 10
201.88943985442401
 20
189.99741028628421
 30
0.0
 11
201.88943985442401
 21
183.2858528871412
 31
0.0
  0
LINE
  5
A2
  8
0
 10
202.35132006977591
 20
164.99741028628421
 30
0.0
 11
202.35132006977591
 21
172.1227227986337
 31
0.0
  0
LINE
  5
A3
  8
0
 10
204.3894398544241
 20
189.99741028628421
 30
0.0
 11
204.3894398544241
 21
184.11944677101059
 31
0.0
  0
LINE
  5
A4
  8
0
 10
204.85132006977591
 20
164.99741028628421
 30
0.0
 11
204.85132006977591
 21
171.05210454269951
 31
0.0
  0
LINE
  5
A5
  8
0
 10
194.8513200697758
 20
164.99741028628421
 30
0.0
 11
194.8513200697758
 21
170.3488882568677
 31
0.0
  0
LINE
  5
A6
  8
0
 10
194.38943985442401
 20
189.99741028628421
 30
0.0
 11
194.38943985442401
 21
184.48253491854999
 31
0.0
  0
LINE
  5
A7
  8
0
 10
192.3513200697758
 20
164.99741028628421
 30
0.0
 11
192.3513200697758
 21
171.70896768542659
 31
0.0
  0
LINE
  5
A8
  8
0
 10
191.88943985442401
 20
189.99741028628421
 30
0.0
 11
191.88943985442401
 21
182.8720977739344
 31
0.0
  0
LINE
  5
A9
  8
0
 10
189.8513200697758
 20
164.99741028628421
 30
0.0
 11
189.8513200697758
 21
175.65058374277601
 31
0.0
  0
LINE
  5
AA
  8
0
 10
189.38943985442401
 20
189.99741028628421
 30
0.0
 11
189.38943985442401
 21
164.99741028628421
 31
0.0
  0
LINE
  5
AB
  8
0
 10
184.8513200697756
 20
189.99741028628421
 30
0.0
 11
184.8513200697756
 21
181.68572332714919
 31
0.0
  0
LINE
  5
AC
  8
0
 10
196.88943985442401
 20
170.00096668503721
 30
0.0
 11
196.88943985442401
 21
164.99741028628421
 31
0.0
  0
LINE
  5
AD
  8
0
 10
197.3513200697758
 20
184.99741028628421
 30
0.0
 11
197.3513200697758
 21
189.99741028628421
 31
0.0
  0
LINE
  5
AE
  8
0
 10
199.8513200697758
 20
184.48253491854899
 30
0.0
 11
199.8513200697758
 21
189.99741028628421
 31
0.0
  0
LINE
  5
AF
  8
0
 10
199.38943985442401
 20
170.34888825686869
 30
0.0
 11
199.38943985442401
 21
164.99741028628421
 31
0.0
  0
LINE
  5
B0
  8
0
 10
201.88943985442401
 20
171.7089676854273
 30
0.0
 11
201.88943985442401
 21
164.99741028628421
 31
0.0
  0
LINE
  5
B1
  8
0
 10
202.35132006977591
 20
182.8720977739348
 30
0.0
 11
202.35132006977591
 21
189.99741028628421
 31
0.0
  0
LINE
  5
B2
  8
0
 10
204.3894398544241
 20
184.11944677101059
 30
0.0
 11
204.3894398544241
 21
179.34423682979249
 31
0.0
  0
LINE
  5
B3
  8
0
 10
204.85132006977591
 20
171.05210454269951
 30
0.0
 11
204.85132006977591
 21
189.99741028628421
 31
0.0
  0
LINE
  5
B4
  8
0
 10
186.88943985442401
 20
173.8448266520553
 30
0.0
 11
186.88943985442401
 21
164.99741028628421
 31
0.0
  0
LINE
  5
B5
  8
0
 10
184.8513200697756
 20
173.30909724541931
 30
0.0
 11
184.8513200697756
 21
164.99741028628421
 31
0.0
  0
LINE
  5
B6
  8
0
 10
208.62037996209989
 20
189.99741028628421
 30
0.0
 11
209.6203799621
 21
188.99741028628421
 31
0.0
  0
LINE
  5
B7
  8
0
 10
160.62037996209989
 20
189.99741028628421
 30
0.0
 11
159.62037996209989
 21
188.99741028628421
 31
0.0
  0
LINE
  5
B8
  8
0
 10
159.62037996209989
 20
165.99741028628421
 30
0.0
 11
160.62037996209989
 21
164.99741028628421
 31
0.0
  0
LINE
  5
B9
  8
0
 10
208.62037996209989
 20
164.99741028628421
 30
0.0
 11
209.6203799621
 21
165.99741028628421
 31
0.0
  0
LINE
  5
BA
  8
0
 10
209.4203799620999
 20
124.6758547510381
 30
0.0
 11
209.6203799621
 21
124.4758547510381
 31
0.0
  0
LINE
  5
BB
  8
0
 10
159.82037996209971
 20
124.6758547510381
 30
0.0
 11
159.6203799620998
 21
124.4758547510381
 31
0.0
  0
LINE
  5
BC
  8
2
 10
201.6203799620998
 20
85.858354751055444
 30
0.0
 11
201.6203799620998
 21
113.3583547510554
 31
0.0
  0
LINE
  5
BD
  8
2
 10
201.6203799620998
 20
85.858354751055444
 30
0.0
 11
202.1203799620998
 21
85.358354751055444
 31
0.0
  0
LINE
  5
BE
  8
2
 10
201.6203799620998
 20
85.858354751055444
 30
0.0
 11
197.12037996209989
 21
85.858354751055444
 31
0.0
  0
LINE
  5
BF
  8
2
 10
192.62037996209989
 20
85.858354751055444
 30
0.0
 11
197.12037996209989
 21
85.858354751055444
 31
0.0
  0
LINE
  5
C0
  8
2
 10
192.62037996209989
 20
85.858354751055444
 30
0.0
 11
192.12037996209989
 21
85.358354751055444
 31
0.0
  0
LINE
  5
C1
  8
2
 10
192.62037996209989
 20
85.858354751055444
 30
0.0
 11
192.62037996209989
 21
113.3583547510554
 31
0.0
  0
LINE
  5
C2
  8
2
 10
176.62037996209969
 20
85.858354751055444
 30
0.0
 11
176.62037996209969
 21
113.3583547510554
 31
0.0
  0
LINE
  5
C3
  8
2
 10
176.62037996209969
 20
85.858354751055444
 30
0.0
 11
177.12037996209969
 21
85.358354751055444
 31
0.0
  0
LINE
  5
C4
  8
2
 10
176.62037996209969
 20
85.858354751055444
 30
0.0
 11
172.1203799620998
 21
85.858354751055444
 31
0.0
  0
LINE
  5
C5
  8
2
 10
167.62037996209989
 20
85.858354751055444
 30
0.0
 11
172.12037996209989
 21
85.858354751055444
 31
0.0
  0
LINE
  5
C6
  8
2
 10
167.62037996209989
 20
85.858354751055444
 30
0.0
 11
167.12037996209989
 21
85.358354751055444
 31
0.0
  0
LINE
  5
C7
  8
1
 10
197.12037996209989
 20
80.358354751055444
 30
0.0
 11
197.12037996209989
 21
129.3583547510554
 31
0.0
  0
LINE
  5
C8
  8
2
 10
204.12037996209989
 20
113.3583547510554
 30
0.0
 11
204.12037996209989
 21
124.3583865057803
 31
0.0
  0
LINE
  5
C9
  8
0
 10
187.3513200697758
 20
125.3583865057858
 30
0.0
 11
187.74537996210989
 21
124.6758547510381
 31
0.0
  0
LINE
  5
CA
  8
0
 10
186.88943985442401
 20
125.3583865057858
 30
0.0
 11
187.3513200697758
 21
125.3583865057858
 31
0.0
  0
LINE
  5
CB
  8
0
 10
186.49537996209881
 20
124.67585475105319
 30
0.0
 11
186.88943985442401
 21
125.3583865057858
 31
0.0
  0
LINE
  5
CC
  8
0
 10
187.74537996210989
 20
124.6758547510381
 30
0.0
 11
188.99537996209881
 21
124.67585475105319
 31
0.0
  0
LINE
  5
CD
  8
0
 10
187.1203799620998
 20
125.3583865057858
 30
0.0
 11
187.3513200697758
 21
125.3583865057858
 31
0.0
  0
LINE
  5
CE
  8
0
 10
190.24537996210989
 20
124.6758547510381
 30
0.0
 11
191.49537996209881
 21
124.67585475105319
 31
0.0
  0
LINE
  5
CF
  8
0
 10
188.99537996209881
 20
124.67585475105319
 30
0.0
 11
189.38943985442401
 21
125.3583865057858
 31
0.0
  0
LINE
  5
D0
  8
0
 10
189.38943985442401
 20
125.3583865057858
 30
0.0
 11
189.8513200697758
 21
125.3583865057858
 31
0.0
  0
LINE
  5
D1
  8
0
 10
189.8513200697758
 20
125.3583865057858
 30
0.0
 11
190.24537996210989
 21
124.6758547510381
 31
0.0
  0
LINE
  5
D2
  8
0
 10
192.74537996210989
 20
124.6758547510381
 30
0.0
 11
193.99537996209881
 21
124.67585475105319
 31
0.0
  0
LINE
  5
D3
  8
0
 10
191.49537996209881
 20
124.67585475105319
 30
0.0
 11
191.88943985442401
 21
125.3583865057858
 31
0.0
  0
LINE
  5
D4
  8
0
 10
191.88943985442401
 20
125.3583865057858
 30
0.0
 11
192.3513200697758
 21
125.3583865057858
 31
0.0
  0
LINE
  5
D5
  8
0
 10
192.3513200697758
 20
125.3583865057858
 30
0.0
 11
192.74537996210989
 21
124.6758547510381
 31
0.0
  0
LINE
  5
D6
  8
0
 10
195.24537996210989
 20
124.6758547510381
 30
0.0
 11
196.49537996209881
 21
124.67585475105319
 31
0.0
  0
LINE
  5
D7
  8
0
 10
193.99537996209881
 20
124.67585475105319
 30
0.0
 11
194.38943985442401
 21
125.3583865057858
 31
0.0
  0
LINE
  5
D8
  8
0
 10
194.38943985442401
 20
125.3583865057858
 30
0.0
 11
194.8513200697758
 21
125.3583865057858
 31
0.0
  0
LINE
  5
D9
  8
0
 10
194.8513200697758
 20
125.3583865057858
 30
0.0
 11
195.24537996210989
 21
124.6758547510381
 31
0.0
  0
LINE
  5
DA
  8
0
 10
197.74537996210989
 20
124.6758547510381
 30
0.0
 11
198.99537996209881
 21
124.67585475105319
 31
0.0
  0
LINE
  5
DB
  8
0
 10
196.49537996209881
 20
124.67585475105319
 30
0.0
 11
196.88943985442401
 21
125.3583865057858
 31
0.0
  0
LINE
  5
DC
  8
0
 10
196.88943985442401
 20
125.3583865057858
 30
0.0
 11
197.3513200697758
 21
125.3583865057858
 31
0.0
  0
LINE
  5
DD
  8
0
 10
197.3513200697758
 20
125.3583865057858
 30
0.0
 11
197.74537996210989
 21
124.6758547510381
 31
0.0
  0
LINE
  5
DE
  8
0
 10
200.24537996211001
 20
124.6758547510381
 30
0.0
 11
201.49537996209881
 21
124.67585475105319
 31
0.0
  0
LINE
  5
DF
  8
0
 10
198.99537996209881
 20
124.67585475105319
 30
0.0
 11
199.38943985442401
 21
125.3583865057858
 31
0.0
  0
LINE
  5
E0
  8
0
 10
199.38943985442401
 20
125.3583865057858
 30
0.0
 11
199.8513200697758
 21
125.3583865057858
 31
0.0
  0
LINE
  5
E1
  8
0
 10
199.8513200697758
 20
125.3583865057858
 30
0.0
 11
200.24537996211001
 21
124.6758547510381
 31
0.0
  0
LINE
  5
E2
  8
0
 10
202.74537996210989
 20
124.6758547510381
 30
0.0
 11
203.99537996209881
 21
124.67585475105319
 31
0.0
  0
LINE
  5
E3
  8
0
 10
201.49537996209881
 20
124.67585475105319
 30
0.0
 11
201.88943985442401
 21
125.3583865057858
 31
0.0
  0
LINE
  5
E4
  8
0
 10
201.88943985442401
 20
125.3583865057858
 30
0.0
 11
202.35132006977591
 21
125.3583865057858
 31
0.0
  0
LINE
  5
E5
  8
0
 10
202.35132006977591
 20
125.3583865057858
 30
0.0
 11
202.74537996210989
 21
124.6758547510381
 31
0.0
  0
LINE
  5
E6
  8
0
 10
205.24537996210989
 20
124.6758547510381
 30
0.0
 11
206.49537996209011
 21
124.6758547510381
 31
0.0
  0
LINE
  5
E7
  8
0
 10
203.99537996209881
 20
124.67585475105319
 30
0.0
 11
204.3894398544241
 21
125.3583865057858
 31
0.0
  0
LINE
  5
E8
  8
0
 10
204.3894398544241
 20
125.3583865057858
 30
0.0
 11
204.85132006977591
 21
125.3583865057858
 31
0.0
  0
LINE
  5
E9
  8
0
 10
204.85132006977591
 20
125.3583865057858
 30
0.0
 11
205.24537996210989
 21
124.6758547510381
 31
0.0
  0
LINE
  5
EA
  8
0
 10
209.6203799621
 20
85.558354751055461
 30
0.0
 11
209.6203799621
 21
124.4758547510381
 31
0.0
  0
LINE
  5
EB
  8
2
 10
190.12037996209989
 20
113.3583547510554
 30
0.0
 11
204.12037996209989
 21
113.3583547510554
 31
0.0
  0
LINE
  5
EC
  8
0
 10
209.6203799621
 20
85.558354751055461
 30
0.0
 11
209.4203799620999
 21
85.358354751055444
 31
0.0
  0
LINE
  5
ED
  8
2
 10
197.12037996209989
 20
124.3583865057803
 30
0.0
 11
204.12037996209989
 21
124.3583865057803
 31
0.0
  0
LINE
  5
EE
  8
2
 10
204.12037996209989
 20
124.3583865057803
 30
0.0
 11
204.6977302312927
 21
125.3583865057858
 31
0.0
  0
LINE
  5
EF
  8
2
 10
190.12037996209989
 20
113.3583547510554
 30
0.0
 11
190.12037996209989
 21
124.3583865057803
 31
0.0
  0
LINE
  5
F0
  8
2
 10
197.12037996209989
 20
124.3583865057803
 30
0.0
 11
190.12037996209989
 21
124.3583865057803
 31
0.0
  0
LINE
  5
F1
  8
2
 10
190.12037996209989
 20
124.3583865057803
 30
0.0
 11
189.54302969290711
 21
125.3583865057858
 31
0.0
  0
LINE
  5
F2
  8
2
 10
179.1203799620998
 20
124.3583865057803
 30
0.0
 11
179.69773023129261
 21
125.3583865057858
 31
0.0
  0
LINE
  5
F3
  8
2
 10
172.12037996209989
 20
124.3583865057803
 30
0.0
 11
179.12037996209989
 21
124.3583865057803
 31
0.0
  0
LINE
  5
F4
  8
2
 10
179.12037996209989
 20
113.3583547510554
 30
0.0
 11
179.12037996209989
 21
124.3583865057803
 31
0.0
  0
LINE
  5
F5
  8
2
 10
165.12037996209989
 20
124.3583865057803
 30
0.0
 11
164.54302969290711
 21
125.3583865057858
 31
0.0
  0
LINE
  5
F6
  8
2
 10
172.12037996209989
 20
124.3583865057803
 30
0.0
 11
165.12037996209989
 21
124.3583865057803
 31
0.0
  0
LINE
  5
F7
  8
0
 10
159.6203799620998
 20
85.558354751055461
 30
0.0
 11
159.82037996209971
 21
85.358354751055444
 31
0.0
  0
LINE
  5
F8
  8
2
 10
179.1203799620998
 20
113.3583547510554
 30
0.0
 11
165.12037996209989
 21
113.3583547510554
 31
0.0
  0
LINE
  5
F9
  8
0
 10
159.82037996209971
 20
85.358354751055444
 30
0.0
 11
209.42037996209999
 21
85.358354751055444
 31
0.0
  0
LINE
  5
FA
  8
0
 10
159.6203799620998
 20
85.558354751055461
 30
0.0
 11
159.6203799620998
 21
124.4758547510381
 31
0.0
  0
LINE
  5
FB
  8
0
 10
182.74537996210989
 20
124.6758547510381
 30
0.0
 11
183.99537996209881
 21
124.67585475105319
 31
0.0
  0
LINE
  5
FC
  8
0
 10
185.24537996210989
 20
124.6758547510381
 30
0.0
 11
186.49537996209881
 21
124.67585475105319
 31
0.0
  0
LINE
  5
FD
  8
0
 10
183.99537996209881
 20
124.67585475105319
 30
0.0
 11
184.38943985442401
 21
125.3583865057858
 31
0.0
  0
LINE
  5
FE
  8
0
 10
184.38943985442401
 20
125.3583865057858
 30
0.0
 11
184.8513200697758
 21
125.3583865057858
 31
0.0
  0
LINE
  5
FF
  8
0
 10
184.8513200697758
 20
125.3583865057858
 30
0.0
 11
185.24537996210989
 21
124.6758547510381
 31
0.0
  0
LINE
  5
100
  8
0
 10
164.38943985442401
 20
125.3583865057858
 30
0.0
 11
163.99537996208991
 21
124.6758547510381
 31
0.0
  0
LINE
  5
101
  8
0
 10
164.8513200697756
 20
125.3583865057858
 30
0.0
 11
164.38943985442401
 21
125.3583865057858
 31
0.0
  0
LINE
  5
102
  8
0
 10
165.2453799621008
 20
124.67585475105319
 30
0.0
 11
164.8513200697756
 21
125.3583865057858
 31
0.0
  0
LINE
  5
103
  8
0
 10
163.99537996208991
 20
124.6758547510381
 30
0.0
 11
162.74537996210961
 21
124.6758547510381
 31
0.0
  0
LINE
  5
104
  8
0
 10
166.88943985442401
 20
125.3583865057858
 30
0.0
 11
166.49537996208991
 21
124.6758547510381
 31
0.0
  0
LINE
  5
105
  8
0
 10
167.3513200697756
 20
125.3583865057858
 30
0.0
 11
166.88943985442401
 21
125.3583865057858
 31
0.0
  0
LINE
  5
106
  8
0
 10
167.7453799621008
 20
124.67585475105319
 30
0.0
 11
167.3513200697756
 21
125.3583865057858
 31
0.0
  0
LINE
  5
107
  8
0
 10
166.49537996208991
 20
124.6758547510381
 30
0.0
 11
165.2453799621008
 21
124.67585475105319
 31
0.0
  0
LINE
  5
108
  8
0
 10
169.38943985442401
 20
125.3583865057858
 30
0.0
 11
168.99537996208991
 21
124.6758547510381
 31
0.0
  0
LINE
  5
109
  8
0
 10
169.8513200697756
 20
125.3583865057858
 30
0.0
 11
169.38943985442401
 21
125.3583865057858
 31
0.0
  0
LINE
  5
10A
  8
0
 10
170.2453799621008
 20
124.67585475105319
 30
0.0
 11
169.8513200697756
 21
125.3583865057858
 31
0.0
  0
LINE
  5
10B
  8
0
 10
168.99537996208991
 20
124.6758547510381
 30
0.0
 11
167.7453799621008
 21
124.67585475105319
 31
0.0
  0
LINE
  5
10C
  8
0
 10
171.88943985442401
 20
125.3583865057858
 30
0.0
 11
171.49537996208991
 21
124.6758547510381
 31
0.0
  0
LINE
  5
10D
  8
0
 10
172.3513200697756
 20
125.3583865057858
 30
0.0
 11
171.88943985442401
 21
125.3583865057858
 31
0.0
  0
LINE
  5
10E
  8
0
 10
172.7453799621008
 20
124.67585475105319
 30
0.0
 11
172.3513200697756
 21
125.3583865057858
 31
0.0
  0
LINE
  5
10F
  8
0
 10
171.49537996208991
 20
124.6758547510381
 30
0.0
 11
170.2453799621008
 21
124.67585475105319
 31
0.0
  0
LINE
  5
110
  8
0
 10
174.38943985442401
 20
125.3583865057858
 30
0.0
 11
173.9953799620898
 21
124.6758547510381
 31
0.0
  0
LINE
  5
111
  8
0
 10
174.8513200697756
 20
125.3583865057858
 30
0.0
 11
174.38943985442401
 21
125.3583865057858
 31
0.0
  0
LINE
  5
112
  8
0
 10
175.2453799621008
 20
124.67585475105319
 30
0.0
 11
174.8513200697756
 21
125.3583865057858
 31
0.0
  0
LINE
  5
113
  8
0
 10
173.99537996208991
 20
124.6758547510381
 30
0.0
 11
172.7453799621008
 21
124.67585475105319
 31
0.0
  0
LINE
  5
114
  8
0
 10
176.88943985442401
 20
125.3583865057858
 30
0.0
 11
176.49537996208991
 21
124.6758547510381
 31
0.0
  0
LINE
  5
115
  8
0
 10
177.3513200697756
 20
125.3583865057858
 30
0.0
 11
176.88943985442401
 21
125.3583865057858
 31
0.0
  0
LINE
  5
116
  8
0
 10
177.7453799621008
 20
124.67585475105319
 30
0.0
 11
177.3513200697756
 21
125.3583865057858
 31
0.0
  0
LINE
  5
117
  8
0
 10
176.49537996208991
 20
124.6758547510381
 30
0.0
 11
175.2453799621008
 21
124.67585475105319
 31
0.0
  0
LINE
  5
118
  8
0
 10
179.38943985442401
 20
125.3583865057858
 30
0.0
 11
178.99537996208991
 21
124.6758547510381
 31
0.0
  0
LINE
  5
119
  8
0
 10
179.8513200697756
 20
125.3583865057858
 30
0.0
 11
179.38943985442401
 21
125.3583865057858
 31
0.0
  0
LINE
  5
11A
  8
0
 10
180.2453799621008
 20
124.67585475105319
 30
0.0
 11
179.8513200697756
 21
125.3583865057858
 31
0.0
  0
LINE
  5
11B
  8
0
 10
178.99537996208991
 20
124.6758547510381
 30
0.0
 11
177.7453799621008
 21
124.67585475105319
 31
0.0
  0
LINE
  5
11C
  8
0
 10
182.12037996209989
 20
125.3583865057858
 30
0.0
 11
181.88943985442401
 21
125.3583865057858
 31
0.0
  0
LINE
  5
11D
  8
0
 10
181.49537996208991
 20
124.6758547510381
 30
0.0
 11
180.2453799621008
 21
124.67585475105319
 31
0.0
  0
LINE
  5
11E
  8
0
 10
182.7453799621008
 20
124.67585475105319
 30
0.0
 11
182.3513200697756
 21
125.3583865057858
 31
0.0
  0
LINE
  5
11F
  8
0
 10
182.3513200697756
 20
125.3583865057858
 30
0.0
 11
181.88943985442401
 21
125.3583865057858
 31
0.0
  0
LINE
  5
120
  8
0
 10
181.88943985442401
 20
125.3583865057858
 30
0.0
 11
181.49537996208991
 21
124.6758547510381
 31
0.0
  0
LINE
  5
121
  8
2
 10
167.62037996209989
 20
85.858354751055444
 30
0.0
 11
167.62037996209989
 21
113.3583547510554
 31
0.0
  0
LINE
  5
122
  8
2
 10
165.12037996209989
 20
113.3583547510554
 30
0.0
 11
165.12037996209989
 21
124.3583865057803
 31
0.0
  0
LINE
  5
123
  8
1
 10
172.12037996209989
 20
80.358354751055444
 30
0.0
 11
172.12037996209989
 21
129.3583547510554
 31
0.0
  0
LINE
  5
124
  8
1
 10
154.62037996209989
 20
177.49741028628421
 30
0.0
 11
214.62037996209989
 21
177.49741028628421
 31
0.0
  0
LINE
  5
125
  8
1
 10
184.62037996209989
 20
194.99741028628421
 30
0.0
 11
184.62037996209989
 21
159.99741028628421
 31
0.0
  0
LINE
  5
126
  8
1
 10
184.6925410861551
 20
80.358875500955975
 30
0.0
 11
184.3172787303688
 21
130.3578657558852
 31
0.0
  0
LINE
  5
127
  8
1
 10
114.5738440415581
 20
130.3583865057858
 30
0.0
 11
114.573844041558
 21
80.358354751055444
 31
0.0
  0
LINE
  5
128
  8
0
 10
102.573844041558
 20
125.3583865057857
 30
0.0
 11
126.573844041558
 21
125.3583865057857
 31
0.0
  0
LINE
  5
129
  8
0
 10
102.073844041558
 20
85.858354751055444
 30
0.0
 11
102.073844041558
 21
124.8583865057858
 31
0.0
  0
LINE
  5
12A
  8
0
 10
126.573844041558
 20
85.358354751055458
 30
0.0
 11
102.573844041558
 21
85.358354751055444
 31
0.0
  0
LINE
  5
12B
  8
0
 10
127.073844041558
 20
85.858354751055444
 30
0.0
 11
127.073844041558
 21
124.8583865057858
 31
0.0
  0
LINE
  5
12C
  8
0
 10
102.573844041558
 20
125.3583865057858
 30
0.0
 11
102.073844041558
 21
124.8583865057858
 31
0.0
  0
LINE
  5
12D
  8
0
 10
126.573844041558
 20
125.3583865057857
 30
0.0
 11
127.073844041558
 21
124.8583865057858
 31
0.0
  0
LINE
  5
12E
  8
0
 10
102.573844041558
 20
85.358354751055444
 30
0.0
 11
102.073844041558
 21
85.858354751055444
 31
0.0
  0
LINE
  5
12F
  8
0
 10
126.573844041558
 20
85.358354751055458
 30
0.0
 11
127.073844041558
 21
85.858354751055444
 31
0.0
  0
LINE
  5
130
  8
2
 10
187.92037996209979
 20
124.158354751065
 30
0.0
 11
181.32037996209991
 21
124.158354751065
 31
0.0
  0
LINE
  5
131
  8
2
 10
188.43784820735499
 20
124.6758229963162
 30
0.0
 11
187.92037996209979
 21
124.158354751065
 31
0.0
  0
LINE
  5
132
  8
2
 10
180.80291171684479
 20
124.6758229963162
 30
0.0
 11
181.32037996209991
 21
124.158354751065
 31
0.0
  0
LINE
  5
133
  8
2
 10
187.92037996209979
 20
100.358354751053
 30
0.0
 11
184.62037996209989
 21
98.375514708262202
 31
0.0
  0
LINE
  5
134
  8
2
 10
181.32037996209999
 20
100.358354751053
 30
0.0
 11
184.62037996209989
 21
98.375514708262202
 31
0.0
  0
LINE
  5
135
  8
2
 10
188.6203799620998
 20
105.358354751053
 30
0.0
 11
187.92037996209979
 21
104.14591918575471
 31
0.0
  0
LINE
  5
136
  8
2
 10
180.62037996209989
 20
105.358354751053
 30
0.0
 11
181.32037996209991
 21
104.14591918575471
 31
0.0
  0
LINE
  5
137
  8
2
 10
187.92037996209851
 20
100.358354751053
 30
0.0
 11
184.62037996209989
 21
100.358354751053
 31
0.0
  0
LINE
  5
138
  8
2
 10
181.3203799621013
 20
100.358354751053
 30
0.0
 11
184.62037996209989
 21
100.358354751053
 31
0.0
  0
LINE
  5
139
  8
2
 10
180.62037996209989
 20
105.358354751053
 30
0.0
 11
184.62037996209989
 21
105.358354751053
 31
0.0
  0
LINE
  5
13A
  8
2
 10
188.6203799620998
 20
105.358354751053
 30
0.0
 11
184.62037996209989
 21
105.358354751053
 31
0.0
  0
LINE
  5
13B
  8
2
 10
187.92037996209979
 20
100.358354751053
 30
0.0
 11
187.92037996209979
 21
124.158354751065
 31
0.0
  0
LINE
  5
13C
  8
2
 10
188.6203799620998
 20
105.358354751053
 30
0.0
 11
188.6203799620998
 21
124.6758229963186
 31
0.0
  0
LINE
  5
13D
  8
2
 10
180.62037996209989
 20
105.358354751053
 30
0.0
 11
180.62037996209989
 21
124.6758229963191
 31
0.0
  0
LINE
  5
13E
  8
2
 10
181.32037996209991
 20
100.358354751053
 30
0.0
 11
181.32037996209991
 21
124.1583547510651
 31
0.0
  0
INSERT
  5
13F
  8
2
  2
STDGX5
 10
0.0
 20
0.0
 30
0.0
  0
TEXT
  5
262
  8
0
 62
     3
 10
0.0
 20
0.0
 30
0.0
 40
10.0
  1
BJ500-08540
  7
STANDARD1
  0
ENDSEC
  0
EOF
