  0
SECTION
  2
HEADER
  9
$ACADVER
  1
AC1009
  9
$INSBASE
 10
0.0
 20
0.0
 30
0.0
  9
$EXTMIN
 10
0.0
 20
-2.960436562073669
 30
0.0
  9
$EXTMAX
 10
83.110504774897677
 20
158.1090305383556
 30
0.0
  9
$LIMMIN
 10
0.0
 20
0.0
  9
$LIMMAX
 10
187.5
 20
135.0
  9
$ORTHOMODE
 70
     1
  9
$REGENMODE
 70
     1
  9
$FILLMODE
 70
     1
  9
$QTEXTMODE
 70
     0
  9
$MIRRTEXT
 70
     0
  9
$DRAGMODE
 70
     2
  9
$LTSCALE
 40
5.0
  9
$OSMODE
 70
  3071
  9
$ATTMODE
 70
     1
  9
$TEXTSIZE
 40
0.2
  9
$TRACEWID
 40
0.05
  9
$TEXTSTYLE
  7
STANDARD
  9
$CLAYER
  8
0
  9
$CELTYPE
  6
BYLAYER
  9
$CECOLOR
 62
   256
  9
$DIMSCALE
 40
0.5
  9
$DIMASZ
 40
3.0
  9
$DIMEXO
 40
2.0
  9
$DIMDLI
 40
0.38
  9
$DIMRND
 40
0.0
  9
$DIMDLE
 40
0.0
  9
$DIMEXE
 40
2.0
  9
$DIMTP
 40
0.0
  9
$DIMTM
 40
0.0
  9
$DIMTXT
 40
3.0
  9
$DIMCEN
 40
0.0
  9
$DIMTSZ
 40
0.0
  9
$DIMTOL
 70
     0
  9
$DIMLIM
 70
     0
  9
$DIMTIH
 70
     0
  9
$DIMTOH
 70
     0
  9
$DIMSE1
 70
     0
  9
$DIMSE2
 70
     0
  9
$DIMTAD
 70
     1
  9
$DIMZIN
 70
     0
  9
$DIMBLK
  1

  9
$DIMASO
 70
     0
  9
$DIMSHO
 70
     0
  9
$DIMPOST
  1

  9
$DIMAPOST
  1

  9
$DIMALT
 70
     0
  9
$DIMALTD
 70
     2
  9
$DIMALTF
 40
25.399999999999999
  9
$DIMLFAC
 40
1.0
  9
$DIMTOFL
 70
     1
  9
$DIMTVP
 40
1.6000000000000001
  9
$DIMTIX
 70
     1
  9
$DIMSOXD
 70
     0
  9
$DIMSAH
 70
     0
  9
$DIMBLK1
  1

  9
$DIMBLK2
  1

  9
$DIMSTYLE
  2
STANDARD
  9
$DIMCLRD
 70
     0
  9
$DIMCLRE
 70
     0
  9
$DIMCLRT
 70
     0
  9
$DIMTFAC
 40
1.0
  9
$DIMGAP
 40
0.09
  9
$LUNITS
 70
     2
  9
$LUPREC
 70
     4
  9
$SKETCHINC
 40
0.1
  9
$FILLETRAD
 40
0.0
  9
$AUNITS
 70
     0
  9
$AUPREC
 70
     4
  9
$MENU
  1
E:\r13\win\SUPPORT\ACAD
  9
$ELEVATION
 40
0.0
  9
$PELEVATION
 40
0.0
  9
$THICKNESS
 40
0.0
  9
$LIMCHECK
 70
     0
  9
$BLIPMODE
 70
     0
  9
$CHAMFERA
 40
0.0
  9
$CHAMFERB
 40
0.0
  9
$SKPOLY
 70
     0
  9
$TDCREATE
 40
2449840.3513078699
  9
$TDUPDATE
 40
2456597.6774532408
  9
$TDINDWG
 40
0.0084377662
  9
$TDUSRTIMER
 40
0.0084377662
  9
$USRTIMER
 70
     1
  9
$ANGBASE
 50
0.0
  9
$ANGDIR
 70
     0
  9
$PDMODE
 70
     0
  9
$PDSIZE
 40
0.0
  9
$PLINEWID
 40
0.0
  9
$COORDS
 70
     1
  9
$SPLFRAME
 70
     0
  9
$SPLINETYPE
 70
     6
  9
$SPLINESEGS
 70
     8
  9
$ATTDIA
 70
     0
  9
$ATTREQ
 70
     1
  9
$HANDLING
 70
     1
  9
$HANDSEED
  5
368
  9
$SURFTAB1
 70
     6
  9
$SURFTAB2
 70
     6
  9
$SURFTYPE
 70
     6
  9
$SURFU
 70
     6
  9
$SURFV
 70
     6
  9
$UCSNAME
  2

  9
$UCSORG
 10
0.0
 20
0.0
 30
0.0
  9
$UCSXDIR
 10
1.0
 20
0.0
 30
0.0
  9
$UCSYDIR
 10
0.0
 20
1.0
 30
0.0
  9
$PUCSNAME
  2

  9
$PUCSORG
 10
0.0
 20
0.0
 30
0.0
  9
$PUCSXDIR
 10
1.0
 20
0.0
 30
0.0
  9
$PUCSYDIR
 10
0.0
 20
1.0
 30
0.0
  9
$USERI1
 70
     3
  9
$USERI2
 70
     1
  9
$USERI3
 70
     0
  9
$USERI4
 70
     0
  9
$USERI5
 70
     0
  9
$USERR1
 40
0.5
  9
$USERR2
 40
3.0
  9
$USERR3
 40
3.0
  9
$USERR4
 40
3.0
  9
$USERR5
 40
10.0
  9
$WORLDVIEW
 70
     1
  9
$SHADEDGE
 70
     3
  9
$SHADEDIF
 70
    70
  9
$TILEMODE
 70
     1
  9
$MAXACTVP
 70
    16
  9
$PLIMCHECK
 70
     0
  9
$PEXTMIN
 10
1.0000000000000000E+020
 20
1.0000000000000000E+020
 30
1.0000000000000000E+020
  9
$PEXTMAX
 10
-1.0000000000000000E+020
 20
-1.0000000000000000E+020
 30
-1.0000000000000000E+020
  9
$PLIMMIN
 10
0.0
 20
0.0
  9
$PLIMMAX
 10
12.0
 20
9.0
  9
$UNITMODE
 70
     0
  9
$VISRETAIN
 70
     0
  9
$PLINEGEN
 70
     0
  9
$PSLTSCALE
 70
     0
  0
ENDSEC
  0
SECTION
  2
TABLES
  0
TABLE
  2
VPORT
 70
     1
  0
VPORT
  2
*ACTIVE
 70
     0
 10
0.0
 20
0.0
 11
1.0
 21
1.0
 12
98.210661633002374
 22
77.570795942872252
 13
0.0
 23
0.0
 14
5.0
 24
5.0
 15
10.0
 25
10.0
 16
0.0
 26
0.0
 36
1.0
 17
0.0
 27
0.0
 37
0.0
 40
162.5308387028617
 41
1.831871345029239
 42
50.0
 43
0.0
 44
0.0
 50
0.0
 51
0.0
 71
     0
 72
   100
 73
     1
 74
     0
 75
     0
 76
     0
 77
     0
 78
     2
  0
ENDTAB
  0
TABLE
  2
LTYPE
 70
     4
  0
LTYPE
  2
CONTINUOUS
 70
     0
  3
Solid Line
 72
    65
 73
     0
 40
0.0
  0
LTYPE
  2
CENTER
 70
     0
  3
____ _ ____ _ ____ _ ____ _ ____ _ ____ _ ____
 72
    65
 73
     4
 40
2.0
 49
1.25
 49
-0.25
 49
0.25
 49
-0.25
  0
LTYPE
  2
HIDDEN
 70
     0
  3
__ __ __ __ __ __ __ __ __ __ __ __ __ __ __ __
 72
    65
 73
     2
 40
0.375
 49
0.25
 49
-0.125
  0
LTYPE
  2
PHANTOM2
 70
     0
  3
___ _ _ ___ _ _ ___ _ _ ___ _ _
 72
    65
 73
     6
 40
1.25
 49
0.625
 49
-0.125
 49
0.125
 49
-0.125
 49
0.125
 49
-0.125
  0
ENDTAB
  0
TABLE
  2
LAYER
 70
     4
  0
LAYER
  2
0
 70
     0
 62
     7
  6
CONTINUOUS
  0
LAYER
  2
1
 70
     0
 62
     1
  6
CENTER
  0
LAYER
  2
2
 70
     0
 62
     2
  6
HIDDEN
  0
LAYER
  2
DEFPOINTS
 70
     0
 62
     7
  6
CONTINUOUS
  0
ENDTAB
  0
TABLE
  2
STYLE
 70
     2
  0
STYLE
  2
STANDARD
 70
     0
 40
0.0
 41
1.0
 50
0.0
 71
     0
 42
0.2
  3
TXT
  4
BIGFONT
  0
STYLE
  2
STANDARD1
 70
     0
 40
0.0
 41
1.0
 50
0.0
 71
     0
 42
3.0
  3
txt
  4

  0
ENDTAB
  0
TABLE
  2
VIEW
 70
     0
  0
ENDTAB
  0
TABLE
  2
UCS
 70
     0
  0
ENDTAB
  0
TABLE
  2
APPID
 70
     3
  0
APPID
  2
ACAD
 70
     0
  0
APPID
  2
ACAD_MLEADERVER
 70
     0
  0
APPID
  2
ACAD_NAV_VCDISPLAY
 70
     0
  0
ENDTAB
  0
TABLE
  2
DIMSTYLE
 70
     1
  0
DIMSTYLE
  2
STANDARD
 70
     0
  3

  4

  5

  6

  7

 40
1.0
 41
0.18
 42
0.0625
 43
0.38
 44
0.18
 45
0.0
 46
0.0
 47
0.0
 48
0.0
140
0.18
141
0.09
142
0.0
143
25.399999999999999
144
1.0
145
0.0
146
1.0
147
0.09
 71
     0
 72
     0
 73
     1
 74
     1
 75
     0
 76
     0
 77
     0
 78
     0
170
     0
171
     2
172
     0
173
     0
174
     0
175
     0
176
     0
177
     0
178
     0
  0
ENDTAB
  0
ENDSEC
  0
SECTION
  2
BLOCKS
  0
BLOCK
  8
0
  2
$MODEL_SPACE
 70
     0
 10
0.0
 20
0.0
 30
0.0
  3
$MODEL_SPACE
  1

  0
ENDBLK
  5
BB
  8
0
  0
BLOCK
 67
     1
  8
0
  2
$PAPER_SPACE
 70
     0
 10
0.0
 20
0.0
 30
0.0
  3
$PAPER_SPACE
  1

  0
ENDBLK
  5
B9
 67
     1
  8
0
  0
ENDSEC
  0
SECTION
  2
ENTITIES
  0
LINE
  5
152
  8
1
 10
42.36275056231181
 20
17.637397149177151
 30
0.0
 11
42.362750562311732
 21
62.63739636686612
 31
0.0
  0
LINE
  5
162
  8
0
 10
31.01745067018425
 20
22.637397149177161
 30
0.0
 11
53.708050454439217
 21
22.637397149177161
 31
0.0
  0
LINE
  5
163
  8
0
 10
23.362751173259369
 20
37.637396813901042
 30
0.0
 11
61.362749951364123
 21
37.637396813901042
 31
0.0
  0
LINE
  5
167
  8
0
 10
30.362750458003688
 20
37.637396813900963
 30
0.0
 11
30.362750458003632
 21
36.503422172339533
 31
0.0
  0
LINE
  5
168
  8
0
 10
30.362750458003632
 20
36.503422172339533
 30
0.0
 11
29.862750376047249
 21
35.637396718906132
 31
0.0
  0
LINE
  5
169
  8
0
 10
29.862750376047249
 20
35.637396718906132
 30
0.0
 11
29.862750376047249
 21
24.637396545680129
 31
0.0
  0
LINE
  5
16A
  8
2
 10
35.362750346244923
 20
22.637397149177161
 30
0.0
 11
35.362750346244923
 21
44.637397029967843
 31
0.0
  0
LINE
  5
16C
  8
2
 10
32.362750785829178
 20
44.637397029967843
 30
0.0
 11
32.362750785829178
 21
57.637396366866163
 31
0.0
  0
LINE
  5
16E
  8
0
 10
61.362749951364208
 20
57.637396366866049
 30
0.0
 11
23.362751173259369
 21
57.637396366866199
 31
0.0
  0
LINE
  5
16F
  8
0
 10
22.362751009346599
 20
56.637396202953418
 30
0.0
 11
23.362751173259369
 21
57.637396366866199
 31
0.0
  0
LINE
  5
170
  8
0
 10
22.362751009346599
 20
56.637396202953418
 30
0.0
 11
22.362751009346599
 21
38.637396861398493
 31
0.0
  0
LINE
  5
171
  8
0
 10
23.362751173259369
 20
37.637396813901042
 30
0.0
 11
22.362751009346599
 21
38.637396861398493
 31
0.0
  0
LINE
  5
175
  8
0
 10
31.01745067018425
 20
22.637397149177161
 30
0.0
 11
29.862750376047249
 21
24.637396545680129
 31
0.0
  0
LINE
  5
179
  8
0
 10
62.362750115276917
 20
38.637396861398493
 30
0.0
 11
61.362749951364151
 21
37.637396813901042
 31
0.0
  0
LINE
  5
17A
  8
0
 10
62.362750115276917
 20
38.637396861398493
 30
0.0
 11
62.362750115276917
 21
56.637396202953397
 31
0.0
  0
LINE
  5
17B
  8
0
 10
61.362749951364151
 20
57.63739636686617
 30
0.0
 11
62.362750115276917
 21
56.637396202953397
 31
0.0
  0
LINE
  5
17E
  8
2
 10
52.36275033879437
 20
57.637396366866092
 30
0.0
 11
52.362750338794342
 21
44.637397029967843
 31
0.0
  0
LINE
  5
17F
  8
2
 10
52.362750338794342
 20
44.637397029967843
 30
0.0
 11
32.362750785829178
 21
44.63739702996785
 31
0.0
  0
LINE
  5
180
  8
2
 10
49.36275077837859
 20
44.637397029967843
 30
0.0
 11
49.36275077837859
 21
22.637397149177161
 31
0.0
  0
LINE
  5
183
  8
0
 10
54.862750748576268
 20
24.637396545680129
 30
0.0
 11
53.708050454439267
 21
22.637397149177161
 31
0.0
  0
LINE
  5
184
  8
0
 10
54.862750748576268
 20
24.637396545680129
 30
0.0
 11
54.862750748576268
 21
35.637396718906132
 31
0.0
  0
LINE
  5
185
  8
0
 10
54.862750748576268
 20
35.637396718906132
 30
0.0
 11
54.362750666619888
 21
36.503422172339533
 31
0.0
  0
LINE
  5
186
  8
0
 10
54.362750666619888
 20
36.503422172339533
 30
0.0
 11
54.362750666619888
 21
37.637396813900963
 31
0.0
  0
CIRCLE
  5
189
  8
0
 10
42.36275056231181
 20
133.1090305383556
 30
0.0
 40
6.999999999999992
  0
CIRCLE
  5
18A
  8
0
 10
42.36275056231181
 20
133.1090305383556
 30
0.0
 40
20.000000000000011
  0
CIRCLE
  5
18B
  8
0
 10
42.36275056231181
 20
133.1090305383556
 30
0.0
 40
9.9999999999999911
  0
CIRCLE
  5
18D
  8
2
 10
42.36275056231181
 20
133.1090305383556
 30
0.0
 40
12.50000018626457
  0
LINE
  5
1F6
  8
0
 10
22.362751009346599
 20
56.637396202953418
 30
0.0
 11
62.362750115276917
 21
56.637396202953397
 31
0.0
  0
LINE
  5
1F7
  8
0
 10
22.362751009346599
 20
38.637396861398493
 30
0.0
 11
62.362750115276917
 21
38.637396861398493
 31
0.0
  0
LINE
  5
1F8
  8
0
 10
29.862750376047249
 20
24.637396545680129
 30
0.0
 11
54.862750748576268
 21
24.637396545680129
 31
0.0
  0
LINE
  5
1F9
  8
0
 10
29.862750376047249
 20
35.637396718906132
 30
0.0
 11
54.862750748576268
 21
35.637396718906132
 31
0.0
  0
LINE
  5
1FA
  8
0
 10
30.362750458003632
 20
36.503422172339533
 30
0.0
 11
54.362750666619888
 21
36.503422172339533
 31
0.0
  0
LINE
  5
1FB
  8
1
 10
42.36275056231181
 20
158.1090305383556
 30
0.0
 11
42.36275056231181
 21
108.1090305383556
 31
0.0
  0
LINE
  5
1FC
  8
1
 10
67.362750562311817
 20
133.1090305383556
 30
0.0
 11
17.36275056231181
 21
133.1090305383556
 31
0.0
  0
TEXT
  5
2D9
  8
0
 62
     3
 10
0.0
 20
0.0
 30
0.0
 40
10.0
  1
BJ401-12001
  7
STANDARD1
  0
ENDSEC
  0
EOF
