  0
SECTION
  2
HEADER
  9
$ACADVER
  1
AC1009
  9
$INSBASE
 10
0.0
 20
0.0
 30
0.0
  9
$EXTMIN
 10
0.0
 20
-2.960436562073669
 30
0.0
  9
$EXTMAX
 10
185.11787501883711
 20
158.85910521360299
 30
0.0
  9
$LIMMIN
 10
0.0
 20
0.0
  9
$LIMMAX
 10
770.0
 20
540.0
  9
$ORTHOMODE
 70
     1
  9
$REGENMODE
 70
     1
  9
$FILLMODE
 70
     1
  9
$QTEXTMODE
 70
     0
  9
$MIRRTEXT
 70
     0
  9
$DRAGMODE
 70
     2
  9
$LTSCALE
 40
10.0
  9
$OSMODE
 70
  3071
  9
$ATTMODE
 70
     1
  9
$TEXTSIZE
 40
4.000000000000048
  9
$TRACEWID
 40
0.05
  9
$TEXTSTYLE
  7
STANDARD
  9
$CLAYER
  8
0
  9
$CELTYPE
  6
BYLAYER
  9
$CECOLOR
 62
   256
  9
$DIMSCALE
 40
2.0
  9
$DIMASZ
 40
3.0
  9
$DIMEXO
 40
2.0
  9
$DIMDLI
 40
0.38
  9
$DIMRND
 40
0.0
  9
$DIMDLE
 40
0.0
  9
$DIMEXE
 40
2.0
  9
$DIMTP
 40
0.0
  9
$DIMTM
 40
0.0
  9
$DIMTXT
 40
3.0
  9
$DIMCEN
 40
0.0
  9
$DIMTSZ
 40
0.0
  9
$DIMTOL
 70
     0
  9
$DIMLIM
 70
     0
  9
$DIMTIH
 70
     0
  9
$DIMTOH
 70
     0
  9
$DIMSE1
 70
     0
  9
$DIMSE2
 70
     0
  9
$DIMTAD
 70
     1
  9
$DIMZIN
 70
     0
  9
$DIMBLK
  1

  9
$DIMASO
 70
     0
  9
$DIMSHO
 70
     0
  9
$DIMPOST
  1

  9
$DIMAPOST
  1

  9
$DIMALT
 70
     0
  9
$DIMALTD
 70
     2
  9
$DIMALTF
 40
25.399999999999999
  9
$DIMLFAC
 40
1.0
  9
$DIMTOFL
 70
     0
  9
$DIMTVP
 40
1.6000000000000001
  9
$DIMTIX
 70
     1
  9
$DIMSOXD
 70
     0
  9
$DIMSAH
 70
     0
  9
$DIMBLK1
  1

  9
$DIMBLK2
  1

  9
$DIMSTYLE
  2
STANDARD
  9
$DIMCLRD
 70
     4
  9
$DIMCLRE
 70
     4
  9
$DIMCLRT
 70
     4
  9
$DIMTFAC
 40
1.0
  9
$DIMGAP
 40
0.09
  9
$LUNITS
 70
     2
  9
$LUPREC
 70
     1
  9
$SKETCHINC
 40
0.1
  9
$FILLETRAD
 40
0.0
  9
$AUNITS
 70
     0
  9
$AUPREC
 70
     0
  9
$MENU
  1
E:\r13\win\SUPPORT\ACAD
  9
$ELEVATION
 40
0.0
  9
$PELEVATION
 40
0.0
  9
$THICKNESS
 40
0.0
  9
$LIMCHECK
 70
     0
  9
$BLIPMODE
 70
     0
  9
$CHAMFERA
 40
1.1999999999999991
  9
$CHAMFERB
 40
1.1999999999999991
  9
$SKPOLY
 70
     0
  9
$TDCREATE
 40
2450158.583426042
  9
$TDUPDATE
 40
2456597.6710905791
  9
$TDINDWG
 40
0.2512860532
  9
$TDUSRTIMER
 40
0.2512860532
  9
$USRTIMER
 70
     1
  9
$ANGBASE
 50
0.0
  9
$ANGDIR
 70
     0
  9
$PDMODE
 70
     0
  9
$PDSIZE
 40
0.0
  9
$PLINEWID
 40
0.0
  9
$COORDS
 70
     1
  9
$SPLFRAME
 70
     0
  9
$SPLINETYPE
 70
     6
  9
$SPLINESEGS
 70
     8
  9
$ATTDIA
 70
     0
  9
$ATTREQ
 70
     1
  9
$HANDLING
 70
     1
  9
$HANDSEED
  5
29CC
  9
$SURFTAB1
 70
     6
  9
$SURFTAB2
 70
     6
  9
$SURFTYPE
 70
     6
  9
$SURFU
 70
     6
  9
$SURFV
 70
     6
  9
$UCSNAME
  2

  9
$UCSORG
 10
0.0
 20
0.0
 30
0.0
  9
$UCSXDIR
 10
1.0
 20
0.0
 30
0.0
  9
$UCSYDIR
 10
0.0
 20
1.0
 30
0.0
  9
$PUCSNAME
  2

  9
$PUCSORG
 10
0.0
 20
0.0
 30
0.0
  9
$PUCSXDIR
 10
1.0
 20
0.0
 30
0.0
  9
$PUCSYDIR
 10
0.0
 20
1.0
 30
0.0
  9
$USERI1
 70
     3
  9
$USERI2
 70
     1
  9
$USERI3
 70
     0
  9
$USERI4
 70
     0
  9
$USERI5
 70
     0
  9
$USERR1
 40
2.0
  9
$USERR2
 40
3.0
  9
$USERR3
 40
3.0
  9
$USERR4
 40
3.0
  9
$USERR5
 40
10.0
  9
$WORLDVIEW
 70
     1
  9
$SHADEDGE
 70
     3
  9
$SHADEDIF
 70
    70
  9
$TILEMODE
 70
     1
  9
$MAXACTVP
 70
    16
  9
$PLIMCHECK
 70
     0
  9
$PEXTMIN
 10
1.0000000000000000E+020
 20
1.0000000000000000E+020
 30
1.0000000000000000E+020
  9
$PEXTMAX
 10
-1.0000000000000000E+020
 20
-1.0000000000000000E+020
 30
-1.0000000000000000E+020
  9
$PLIMMIN
 10
0.0
 20
0.0
  9
$PLIMMAX
 10
12.0
 20
9.0
  9
$UNITMODE
 70
     0
  9
$VISRETAIN
 70
     0
  9
$PLINEGEN
 70
     0
  9
$PSLTSCALE
 70
     0
  0
ENDSEC
  0
SECTION
  2
TABLES
  0
TABLE
  2
VPORT
 70
     1
  0
VPORT
  2
*ACTIVE
 70
     0
 10
0.0
 20
0.0
 11
1.0
 21
1.0
 12
384.98825162880621
 22
383.69426098410293
 13
0.0
 23
0.0
 14
10.0
 24
10.0
 15
10.0
 25
10.0
 16
0.0
 26
0.0
 36
1.0
 17
0.0
 27
0.0
 37
0.0
 40
780.3175663492849
 41
1.831871345029239
 42
50.0
 43
0.0
 44
0.0
 50
0.0
 51
0.0
 71
     0
 72
   500
 73
     1
 74
     0
 75
     0
 76
     0
 77
     0
 78
     2
  0
ENDTAB
  0
TABLE
  2
LTYPE
 70
     4
  0
LTYPE
  2
CONTINUOUS
 70
     0
  3
Solid Line
 72
    65
 73
     0
 40
0.0
  0
LTYPE
  2
CENTER
 70
     0
  3
____ _ ____ _ ____ _ ____ _ ____ _ ____ _ ____
 72
    65
 73
     4
 40
2.0
 49
1.25
 49
-0.25
 49
0.25
 49
-0.25
  0
LTYPE
  2
HIDDEN
 70
     0
  3
_ _ _ _ _ _ _ _ _ _ _ _ _ _ _ _ _ _ _ _ _ _ _
 72
    65
 73
     2
 40
0.375
 49
0.25
 49
-0.125
  0
LTYPE
  2
PHANTOM2
 70
     0
  3
___ _ _ ___ _ _ ___ _ _ ___ _ _
 72
    65
 73
     6
 40
1.25
 49
0.625
 49
-0.125
 49
0.125
 49
-0.125
 49
0.125
 49
-0.125
  0
ENDTAB
  0
TABLE
  2
LAYER
 70
     5
  0
LAYER
  2
0
 70
     0
 62
     7
  6
CONTINUOUS
  0
LAYER
  2
1
 70
     0
 62
     1
  6
CENTER
  0
LAYER
  2
2
 70
     0
 62
     2
  6
HIDDEN
  0
LAYER
  2
3
 70
     0
 62
     3
  6
CONTINUOUS
  0
LAYER
  2
DEFPOINTS
 70
     0
 62
     7
  6
CONTINUOUS
  0
ENDTAB
  0
TABLE
  2
STYLE
 70
     2
  0
STYLE
  2
STANDARD
 70
     0
 40
0.0
 41
1.0
 50
0.0
 71
     0
 42
4.000000000000048
  3
SIMPLEX
  4
BIGFONT
  0
STYLE
  2
STANDARD1
 70
     0
 40
0.0
 41
1.0
 50
0.0
 71
     0
 42
3.0
  3
txt
  4

  0
ENDTAB
  0
TABLE
  2
VIEW
 70
     1
  0
VIEW
  2
ALL
 70
     0
 40
179.5384664489153
 10
146.94997169852391
 20
89.769233224457665
 41
0.0
 11
0.0
 21
0.0
 31
1.0
 12
0.0
 22
0.0
 32
0.0
 42
50.0
 43
0.0
 44
0.0
 50
0.0
 71
     0
  0
ENDTAB
  0
TABLE
  2
UCS
 70
     0
  0
ENDTAB
  0
TABLE
  2
APPID
 70
     4
  0
APPID
  2
ACAD
 70
     0
  0
APPID
  2
ACAD_MLEADERVER
 70
     0
  0
APPID
  2
ACAD_NAV_VCDISPLAY
 70
     0
  0
APPID
  2
ACAD_EXEMPT_FROM_CAD_STANDARDS
 70
     0
  0
ENDTAB
  0
TABLE
  2
DIMSTYLE
 70
     1
  0
DIMSTYLE
  2
STANDARD
 70
     0
  3

  4

  5

  6

  7

 40
1.0
 41
0.18
 42
0.0625
 43
0.38
 44
0.18
 45
0.0
 46
0.0
 47
0.0
 48
0.0
140
0.18
141
0.09
142
0.0
143
25.399999999999999
144
1.0
145
0.0
146
1.0
147
0.09
 71
     0
 72
     0
 73
     1
 74
     1
 75
     0
 76
     0
 77
     0
 78
     0
170
     0
171
     2
172
     0
173
     0
174
     0
175
     0
176
     0
177
     0
178
     0
  0
ENDTAB
  0
ENDSEC
  0
SECTION
  2
BLOCKS
  0
BLOCK
  8
0
  2
$MODEL_SPACE
 70
     0
 10
0.0
 20
0.0
 30
0.0
  3
$MODEL_SPACE
  1

  0
ENDBLK
  5
644
  8
0
  0
BLOCK
 67
     1
  8
0
  2
$PAPER_SPACE
 70
     0
 10
0.0
 20
0.0
 30
0.0
  3
$PAPER_SPACE
  1

  0
ENDBLK
  5
642
 67
     1
  8
0
  0
ENDSEC
  0
SECTION
  2
ENTITIES
  0
ARC
  5
1E6F
  8
0
 10
100.8428740279098
 20
88.400739875159204
 30
0.0
 40
0.7999999999999997
 50
329.99999999999812
 51
148.1357537703025
  0
CIRCLE
  5
1E70
  8
0
 10
103.39287402791
 20
88.400739875159204
 30
0.0
 40
0.4000000000000057
  0
CIRCLE
  5
1E71
  8
0
 10
100.8428740279098
 20
88.400739875159204
 30
0.0
 40
0.4000000000000057
  0
ARC
  5
1E72
  8
0
 10
103.39287402791
 20
88.400739875159204
 30
0.0
 40
0.7999999999999997
 50
31.864246229697461
 51
210.00000000000199
  0
LINE
  5
1E73
  8
0
 10
102.8966600389501
 20
87.660207881650066
 30
0.0
 11
102.7000541181585
 21
88.000739461800194
 31
0.0
  0
ARC
  5
1E74
  8
0
 10
102.11787402790991
 20
90.447610466786529
 30
0.0
 40
2.8114941880230582
 50
324.43368427505709
 51
215.56631572494291
  0
LINE
  5
1E75
  8
0
 10
101.53569414627761
 20
88.000739461800194
 30
0.0
 11
101.3390882254859
 21
87.660207881650066
 31
0.0
  0
ARC
  5
1E76
  8
0
 10
104.24217530684631
 20
88.928648330856944
 30
0.0
 40
0.1999999999999976
 50
211.8642462296981
 51
324.43368427505709
  0
ARC
  5
1E77
  8
0
 10
99.99357274897352
 20
88.928648330856944
 30
0.0
 40
0.2000000000000119
 50
215.56631572493771
 51
328.13575377030179
  0
ARC
  5
1E78
  8
0
 10
102.11787402790991
 20
90.609104654809528
 30
0.0
 40
3.0000000000000022
 50
255.46600995342169
 51
284.53399004658161
  0
LINE
  5
1E87
  8
0
 10
128.61787381929361
 20
103.1091050273386
 30
0.0
 11
129.1178748325726
 21
102.6091040140596
 31
0.0
  0
LINE
  5
1E88
  8
0
 10
93.057169051589639
 20
102.6091040140596
 30
0.0
 11
93.168016228573606
 21
103.1091050273386
 31
0.0
  0
LINE
  5
1E8A
  8
0
 10
79.117874087514565
 20
102.6091040140596
 30
0.0
 11
79.617874169470952
 21
103.1091050273386
 31
0.0
  0
LINE
  5
1E8B
  8
0
 10
79.617874169470952
 20
103.1091050273386
 30
0.0
 11
128.61787381929369
 21
103.1091050273386
 31
0.0
  0
LINE
  5
1E8C
  8
0
 10
79.117874087514565
 20
78.609104678558282
 30
0.0
 11
79.117874087514565
 21
102.6091040140596
 31
0.0
  0
LINE
  5
1E8D
  8
0
 10
93.057169051589639
 20
78.609104678558282
 30
0.0
 11
93.057169051589639
 21
102.6091040140596
 31
0.0
  0
CIRCLE
  5
1E8E
  8
0
 10
102.11787402790991
 20
90.609104654809528
 30
0.0
 40
3.0499999999999821
  0
LINE
  5
1E8F
  8
0
 10
129.1178748325726
 20
102.6091040140596
 30
0.0
 11
129.1178748325726
 21
78.609104678558282
 31
0.0
  0
LINE
  5
1E90
  8
0
 10
128.61787381929361
 20
78.109104654809528
 30
0.0
 11
79.617874169470952
 21
78.109104654809556
 31
0.0
  0
LINE
  5
1E91
  8
0
 10
79.617874169470952
 20
78.109104654809556
 30
0.0
 11
79.117874087514565
 21
78.609104678558282
 31
0.0
  0
LINE
  5
1E92
  8
0
 10
93.057169051589639
 20
78.609104678558282
 30
0.0
 11
93.168016228573606
 21
78.109104654809556
 31
0.0
  0
LINE
  5
1E94
  8
0
 10
129.1178748325726
 20
78.609104678558282
 30
0.0
 11
128.61787381929361
 21
78.109104654809556
 31
0.0
  0
LINE
  5
1E95
  8
2
 10
97.367873819293663
 20
102.8091055369583
 30
0.0
 11
90.867874034429164
 21
102.8091055369583
 31
0.0
  0
LINE
  5
1E97
  8
2
 10
97.367873819293663
 20
78.409104669058792
 30
0.0
 11
90.867874034429164
 21
78.409104669058792
 31
0.0
  0
LINE
  5
1E99
  8
2
 10
97.367873819293663
 20
99.109104371687494
 30
0.0
 11
90.867874034429164
 21
99.109104371687494
 31
0.0
  0
LINE
  5
1EA4
  8
2
 10
97.367873819293663
 20
82.109104844799376
 30
0.0
 11
90.867874034429292
 21
82.109104844799376
 31
0.0
  0
LINE
  5
1EA5
  8
2
 10
90.567874020179929
 20
103.1091050273386
 30
0.0
 11
90.867874034429164
 21
102.8091055369583
 31
0.0
  0
LINE
  5
1EA6
  8
2
 10
97.367873819293663
 20
102.8091055369583
 30
0.0
 11
97.667874240996525
 21
103.1091050273386
 31
0.0
  0
LINE
  5
1EA7
  8
2
 10
97.667874240996525
 20
78.109104654809556
 30
0.0
 11
97.367873819293663
 21
78.409104669058792
 31
0.0
  0
LINE
  5
1EA8
  8
2
 10
90.867874034429164
 20
78.409104669058792
 30
0.0
 11
90.567874020179929
 21
78.109104654809556
 31
0.0
  0
LINE
  5
1EA9
  8
2
 10
90.867874034429164
 20
102.8091055369583
 30
0.0
 11
90.867874034429164
 21
99.109104371687494
 31
0.0
  0
LINE
  5
1EAA
  8
2
 10
97.367873819293663
 20
99.109104371687494
 30
0.0
 11
97.367873819293663
 21
102.8091055369583
 31
0.0
  0
LINE
  5
1EAB
  8
2
 10
97.367873819293663
 20
78.409104669058792
 30
0.0
 11
97.367873819293663
 21
82.109104844799376
 31
0.0
  0
LINE
  5
1EAC
  8
2
 10
90.867874034429164
 20
82.109104844799376
 30
0.0
 11
90.867874034429164
 21
78.409104669058792
 31
0.0
  0
LINE
  5
1EAD
  8
2
 10
92.417874078946383
 20
99.109104371687494
 30
0.0
 11
92.417874078946383
 21
82.109104844799376
 31
0.0
  0
LINE
  5
1EAE
  8
2
 10
95.817874124022396
 20
82.109104844799376
 30
0.0
 11
95.817874124022396
 21
99.109104371687494
 31
0.0
  0
LINE
  5
1EC7
  8
1
 10
94.11787402790992
 20
105.1091050273386
 30
0.0
 11
94.11787402790992
 21
76.109104654809585
 31
0.0
  0
LINE
  5
1EC8
  8
0
 10
94.117874217899725
 20
106.40910500945721
 30
0.0
 11
93.917874091984899
 21
106.6091046697107
 31
0.0
  0
LINE
  5
1EC9
  8
0
 10
86.317873963834927
 20
106.6091046697107
 30
0.0
 11
86.117873837920115
 21
106.40910500945721
 31
0.0
  0
LINE
  5
1ECA
  8
0
 10
94.117874217899725
 20
103.1091050273386
 30
0.0
 11
94.117874217899725
 21
106.40910500945721
 31
0.0
  0
LINE
  5
1ECB
  8
0
 10
86.117873837920115
 20
106.40910500945721
 30
0.0
 11
86.117873837920115
 21
103.1091050273386
 31
0.0
  0
LINE
  5
1ECC
  8
0
 10
86.317873963834927
 20
110.9091048157421
 30
0.0
 11
86.317873963834927
 21
106.6091046697107
 31
0.0
  0
LINE
  5
1ECD
  8
0
 10
93.917874091984899
 20
106.6091046697107
 30
0.0
 11
93.917874091984899
 21
110.9091048157421
 31
0.0
  0
LINE
  5
1ECE
  8
0
 10
93.917874091984899
 20
110.9091048157421
 30
0.0
 11
93.717873966070087
 21
111.10910447599559
 31
0.0
  0
LINE
  5
1ECF
  8
0
 10
86.517874089749725
 20
111.10910447599559
 30
0.0
 11
86.317873963834927
 21
110.9091048157421
 31
0.0
  0
LINE
  5
1EDA
  8
0
 10
94.117874217899725
 20
106.40910500945721
 30
0.0
 11
86.117873837920115
 21
106.40910500945721
 31
0.0
  0
LINE
  5
1EDC
  8
0
 10
93.917874091985027
 20
106.6091046697107
 30
0.0
 11
86.317873963834927
 21
106.6091046697107
 31
0.0
  0
LINE
  5
1EDE
  8
0
 10
93.917874091985027
 20
110.9091048157421
 30
0.0
 11
86.317873963834927
 21
110.9091048157421
 31
0.0
  0
LINE
  5
1EDF
  8
0
 10
88.638009208934577
 20
110.9091048157421
 30
0.0
 11
88.638009208934577
 21
106.6091046697107
 31
0.0
  0
LINE
  5
1EE0
  8
0
 10
91.597738846885235
 20
106.6091046697107
 30
0.0
 11
91.597738846885235
 21
110.9091048157421
 31
0.0
  0
LINE
  5
1EE4
  8
0
 10
91.556623516353056
 20
111.10910447599559
 30
0.0
 11
91.597738846885235
 21
110.9091048157421
 31
0.0
  0
LINE
  5
1EE5
  8
0
 10
88.638009208934577
 20
110.9091048157421
 30
0.0
 11
88.679124539466784
 21
111.10910447599559
 31
0.0
  0
LINE
  5
1EE7
  8
0
 10
86.517874089749725
 20
111.10910447599559
 30
0.0
 11
93.717873966070087
 21
111.10910447599559
 31
0.0
  0
LINE
  5
1EF6
  8
0
 10
113.91202959579429
 20
140.1332479185071
 30
0.0
 11
113.4214051381966
 21
140.1332479185071
 31
0.0
  0
LINE
  5
1EF7
  8
0
 10
113.91202959579429
 20
139.79017289640569
 30
0.0
 11
113.91202959579429
 21
140.1332479185071
 31
0.0
  0
LINE
  5
1EF8
  8
0
 10
113.91202959579429
 20
139.79017289640569
 30
0.0
 11
114.11787423652611
 21
139.79017289640569
 31
0.0
  0
ARC
  5
1EF9
  8
0
 10
114.11787402790991
 20
138.10910521360299
 30
0.0
 40
1.6810675199994689
 50
7.033461315383807
 51
90.0
  0
LINE
  5
1EFA
  8
0
 10
116.16600531500779
 20
138.31495002197289
 30
0.0
 11
115.786292062821
 21
138.31495002197289
 31
0.0
  0
ARC
  5
1EFB
  8
0
 10
114.11787402790991
 20
138.10910521360299
 30
0.0
 40
2.058450024489328
 50
5.7391704772706174
 51
32.797168295819439
  0
ARC
  5
1EFC
  8
0
 10
114.11787402790991
 20
140.3390927401332
 30
0.0
 40
2.058450024489658
 50
327.20283170417332
 51
212.79716829582671
  0
ARC
  5
1EFD
  8
0
 10
114.11787402790991
 20
138.10910521360299
 30
0.0
 40
2.0584500244894199
 50
147.20283170418571
 51
354.26082952272702
  0
LINE
  5
1EFE
  8
0
 10
116.16600531500779
 20
137.90326027484801
 30
0.0
 11
115.786292062821
 21
137.90326027484801
 31
0.0
  0
ARC
  5
1EFF
  8
0
 10
114.11787402790991
 20
138.10910521360299
 30
0.0
 40
1.6810675199999949
 50
270.0000000000033
 51
352.96653868461459
  0
LINE
  5
1F00
  8
0
 10
114.11787423652611
 20
136.42803786607649
 30
0.0
 11
113.91202959579429
 21
136.42803786607649
 31
0.0
  0
LINE
  5
1F01
  8
0
 10
113.91202959579429
 20
136.42803786607649
 30
0.0
 11
113.91202959579429
 21
136.80542001785901
 31
0.0
  0
LINE
  5
1F02
  8
0
 10
113.91202959579429
 20
136.80542001785901
 30
0.0
 11
114.11787423652611
 21
136.80542001785901
 31
0.0
  0
ARC
  5
1F03
  8
0
 10
114.11787402790991
 20
138.10910521360299
 30
0.0
 40
1.303685015510041
 50
270.0
 51
350.91527971259961
  0
LINE
  5
1F04
  8
0
 10
115.4052060411593
 20
137.90326027484801
 30
0.0
 11
115.02101499003381
 21
137.90326027484801
 31
0.0
  0
ARC
  5
1F05
  8
0
 10
114.11787402790991
 20
138.10910521360299
 30
0.0
 40
0.9263025110202686
 50
270.0
 51
347.16041159308293
  0
LINE
  5
1F06
  8
0
 10
114.11787423652611
 20
137.18280310096409
 30
0.0
 11
113.91202959579429
 21
137.18280310096409
 31
0.0
  0
LINE
  5
1F07
  8
0
 10
113.91202959579429
 20
137.18280310096409
 30
0.0
 11
113.91202959579429
 21
137.56018525274661
 31
0.0
  0
LINE
  5
1F08
  8
0
 10
113.91202959579429
 20
137.56018525274661
 30
0.0
 11
114.11787423652611
 21
137.56018525274661
 31
0.0
  0
ARC
  5
1F09
  8
0
 10
114.11787402790991
 20
138.10910521360299
 30
0.0
 40
0.5489200065301816
 50
270.0
 51
90.0
  0
ARC
  5
1F0A
  8
0
 10
114.11787402790991
 20
140.3390927401332
 30
0.0
 40
1.681067520000024
 50
228.44085240813999
 51
270.0000000000033
  0
ARC
  5
1F0B
  8
0
 10
111.37327399525719
 20
140.3390927401332
 30
0.0
 40
2.058450024489769
 50
322.33177022328653
 51
354.26082952273418
  0
LINE
  5
1F0C
  8
0
 10
111.2678744213005
 20
153.6091055935826
 30
0.0
 11
111.2678744213005
 21
137.60910483362341
 31
0.0
  0
LINE
  5
1F0D
  8
0
 10
116.96787405175171
 20
137.60910483362341
 30
0.0
 11
116.96787405175171
 21
153.6091055935826
 31
0.0
  0
ARC
  5
1F0E
  8
0
 10
114.11787402790991
 20
137.60910521360299
 30
0.0
 40
2.8500000000000218
 50
180.0
 51
0.0
  0
LINE
  5
1F0F
  8
0
 10
115.718890385451
 20
144.0080892975088
 30
0.0
 11
112.51685808760131
 21
144.0080892975088
 31
0.0
  0
LINE
  5
1F10
  8
0
 10
112.51685808760131
 20
144.0080892975088
 30
0.0
 11
112.51685808760131
 21
143.0074539716002
 31
0.0
  0
LINE
  5
1F11
  8
0
 10
112.51685808760131
 20
143.0074539716002
 30
0.0
 11
115.718890385451
 21
143.0074539716002
 31
0.0
  0
LINE
  5
1F12
  8
0
 10
115.718890385451
 20
143.0074539716002
 30
0.0
 11
115.718890385451
 21
144.0080892975088
 31
0.0
  0
ARC
  5
1F13
  8
0
 10
113.81768339933841
 20
145.7091695401331
 30
0.0
 40
1.3008260571428421
 50
142.02012755514841
 51
270.0
  0
LINE
  5
1F14
  8
0
 10
113.8176828936955
 20
144.40834345115539
 30
0.0
 11
115.718890385451
 21
144.40834345115539
 31
0.0
  0
LINE
  5
1F15
  8
0
 10
115.718890385451
 20
144.40834345115539
 30
0.0
 11
115.718890385451
 21
145.40897890803129
 31
0.0
  0
LINE
  5
1F16
  8
0
 10
115.718890385451
 20
145.40897890803129
 30
0.0
 11
113.8176828936955
 21
145.40897890803129
 31
0.0
  0
ARC
  5
1F17
  8
0
 10
113.81768339933841
 20
145.7091695401331
 30
0.0
 40
0.3001906285714426
 50
90.0
 51
270.0
  0
LINE
  5
1F18
  8
0
 10
113.8176828936955
 20
146.0093601821568
 30
0.0
 11
115.718890385451
 21
146.0093601821568
 31
0.0
  0
LINE
  5
1F19
  8
0
 10
115.718890385451
 20
146.0093601821568
 30
0.0
 11
115.718890385451
 21
147.00999562448081
 31
0.0
  0
LINE
  5
1F1A
  8
0
 10
115.718890385451
 20
147.00999562448081
 30
0.0
 11
113.8176828936955
 21
147.00999562448081
 31
0.0
  0
ARC
  5
1F1B
  8
0
 10
113.81768339933841
 20
147.31018622584739
 30
0.0
 40
0.3001906285714426
 50
90.0
 51
270.0
  0
LINE
  5
1F1C
  8
0
 10
113.8176828936955
 20
147.61037679674291
 30
0.0
 11
115.718890385451
 21
147.61037679674291
 31
0.0
  0
LINE
  5
1F1D
  8
0
 10
115.718890385451
 20
147.61037679674291
 30
0.0
 11
115.718890385451
 21
148.61101235548219
 31
0.0
  0
LINE
  5
1F1E
  8
0
 10
115.718890385451
 20
148.61101235548219
 30
0.0
 11
113.8176828936955
 21
148.61101235548219
 31
0.0
  0
ARC
  5
1F1F
  8
0
 10
113.81768339933841
 20
147.31018622584739
 30
0.0
 40
1.30082605714287
 50
90.0
 51
217.97987244485159
  0
ARC
  5
1F20
  8
0
 10
113.8176831184426
 20
150.3120925115617
 30
0.0
 40
1.3008260571428989
 50
90.0
 51
270.0
  0
LINE
  5
1F21
  8
0
 10
113.8176828936955
 20
149.0112663927134
 30
0.0
 11
115.718890385451
 21
149.0112663927134
 31
0.0
  0
LINE
  5
1F22
  8
0
 10
115.718890385451
 20
149.0112663927134
 30
0.0
 11
115.718890385451
 21
150.0119019514527
 31
0.0
  0
LINE
  5
1F23
  8
0
 10
115.718890385451
 20
150.0119019514527
 30
0.0
 11
115.018446402373
 21
150.0119019514527
 31
0.0
  0
LINE
  5
1F24
  8
0
 10
115.018446402373
 20
150.0119019514527
 30
0.0
 11
115.018446402373
 21
150.61228324013021
 31
0.0
  0
LINE
  5
1F25
  8
0
 10
115.718890385451
 20
150.61228324013021
 30
0.0
 11
115.018446402373
 21
150.61228324013021
 31
0.0
  0
LINE
  5
1F26
  8
0
 10
115.718890385451
 20
150.61228324013021
 30
0.0
 11
115.718890385451
 21
151.61291856603879
 31
0.0
  0
LINE
  5
1F27
  8
0
 10
115.718890385451
 20
151.61291856603879
 30
0.0
 11
113.8176828936955
 21
151.61291856603879
 31
0.0
  0
CIRCLE
  5
1F28
  8
0
 10
114.11787402790991
 20
153.6141894258474
 30
0.0
 40
1.6010166857142281
  0
ARC
  5
1F29
  8
0
 10
114.11787402790991
 20
153.60910521360299
 30
0.0
 40
2.8500000000000218
 50
0.0
 51
180.0
  0
CIRCLE
  5
1F2A
  8
0
 10
114.11787402790991
 20
153.6141894258474
 30
0.0
 40
0.6003812571428853
  0
LINE
  5
1F2B
  8
0
 10
113.8176828936955
 20
150.0119019514527
 30
0.0
 11
114.217937396588
 21
150.0119019514527
 31
0.0
  0
LINE
  5
1F2C
  8
0
 10
114.217937396588
 20
150.61228324013021
 30
0.0
 11
113.8176828936955
 21
150.61228324013021
 31
0.0
  0
LINE
  5
1F2D
  8
0
 10
114.217937396588
 20
150.0119019514527
 30
0.0
 11
114.217937396588
 21
150.61228324013021
 31
0.0
  0
ARC
  5
1F2E
  8
0
 10
113.8176831184426
 20
150.3120925115617
 30
0.0
 40
0.3001906285714426
 50
90.0
 51
270.0
  0
ARC
  5
1F2F
  8
0
 10
114.11787402790991
 20
140.3390927401332
 30
0.0
 40
1.6810675199999641
 50
144.71873817273291
 51
172.96653868460891
  0
ARC
  5
1F30
  8
0
 10
111.37327399525719
 20
140.3390927401332
 30
0.0
 40
1.6810675199995539
 50
7.0334613153902721
 51
35.281261827273589
  0
LINE
  5
1F31
  8
0
 10
113.0416918860098
 20
140.54493766563201
 30
0.0
 11
112.44945641023121
 21
140.54493766563201
 31
0.0
  0
LINE
  5
1F32
  8
0
 10
115.786292062821
 20
140.54493766563201
 30
0.0
 11
115.1940565870425
 21
140.54493766563201
 31
0.0
  0
ARC
  5
1F33
  8
0
 10
116.8624740605626
 20
140.339092740133
 30
0.0
 40
1.6810675199999641
 50
144.7187381727212
 51
172.96653868462181
  0
ARC
  5
1F34
  8
0
 10
114.11787402790991
 20
140.3390927401332
 30
0.0
 40
1.681067520000002
 50
7.0334613153733017
 51
35.281261827272921
  0
LINE
  5
1F35
  8
0
 10
113.91202959579429
 20
140.54493766563201
 30
0.0
 11
113.91202959579429
 21
142.00750991987249
 31
0.0
  0
LINE
  5
1F36
  8
0
 10
113.91202959579429
 20
140.54493766563201
 30
0.0
 11
113.4214051381966
 21
140.54493766563201
 31
0.0
  0
ARC
  5
1F37
  8
0
 10
111.37327399525719
 20
140.3390927401332
 30
0.0
 40
2.0584500244896282
 50
5.7391704772738583
 51
37.668229776708273
  0
ARC
  5
1F38
  8
0
 10
114.11787402790991
 20
140.3390927401332
 30
0.0
 40
1.681067519999988
 50
97.033461315383803
 51
131.55914759186399
  0
LINE
  5
1F39
  8
0
 10
114.8143414722105
 20
140.54493766563201
 30
0.0
 11
114.323718877258
 21
140.54493766563201
 31
0.0
  0
LINE
  5
1F3A
  8
0
 10
114.323718877258
 20
140.54493766563201
 30
0.0
 11
114.323718877258
 21
142.00750991987249
 31
0.0
  0
ARC
  5
1F3B
  8
0
 10
114.11787402790991
 20
140.3390927401332
 30
0.0
 40
1.6810675199999909
 50
48.440852408135399
 51
82.966538684616197
  0
ARC
  5
1F3C
  8
0
 10
116.8624740605626
 20
140.339092740133
 30
0.0
 40
2.058450024489761
 50
142.3317702232917
 51
174.2608295227285
  0
ARC
  5
1F3D
  8
0
 10
116.8624740605626
 20
140.339092740133
 30
0.0
 40
1.681067519999959
 50
187.03346131538061
 51
198.0201607483821
  0
LINE
  5
1F3E
  8
0
 10
115.786292062821
 20
140.1332479185071
 30
0.0
 11
115.1940565870425
 21
140.1332479185071
 31
0.0
  0
ARC
  5
1F3F
  8
0
 10
114.11787402790991
 20
140.3390927401332
 30
0.0
 40
1.6810675200000409
 50
331.63809460783813
 51
352.96653868461618
  0
ARC
  5
1F40
  8
0
 10
114.11787402790991
 20
138.10910521360299
 30
0.0
 40
2.0584500244897401
 50
44.057874012226407
 51
56.170318352947668
  0
LINE
  5
1F41
  8
0
 10
113.0416918860098
 20
140.1332479185071
 30
0.0
 11
112.44945641023121
 21
140.1332479185071
 31
0.0
  0
ARC
  5
1F42
  8
0
 10
111.37327399525719
 20
140.3390927401332
 30
0.0
 40
1.6810675199999381
 50
324.71873817271597
 51
352.96653868460209
  0
ARC
  5
1F43
  8
0
 10
114.11787402790991
 20
140.3390927401332
 30
0.0
 40
1.68106752000003
 50
187.03346131539709
 51
215.2812618272788
  0
ARC
  5
1F44
  8
0
 10
114.11787402790991
 20
138.10910521360299
 30
0.0
 40
2.0584500244897641
 50
69.891571451518104
 51
79.524686156681469
  0
LINE
  5
1F45
  8
0
 10
114.8143414722105
 20
140.1332479185071
 30
0.0
 11
114.4921243504902
 21
140.1332479185071
 31
0.0
  0
LINE
  5
1F46
  8
0
 10
114.8255639092347
 20
140.04207982035541
 30
0.0
 11
114.8143414722105
 21
140.1332479185071
 31
0.0
  0
LINE
  5
1F4F
  8
0
 10
88.638009208934577
 20
149.10910532163641
 30
0.0
 11
91.597738846885235
 21
149.10910532163641
 31
0.0
  0
CIRCLE
  5
1F53
  8
0
 10
90.117874027909906
 20
145.60910521360299
 30
0.0
 40
2.0999999999999939
  0
LINE
  5
1F54
  8
0
 10
91.597738846885235
 20
142.1091051055696
 30
0.0
 11
88.638009208934577
 21
142.1091051055696
 31
0.0
  0
CIRCLE
  5
1F56
  8
0
 10
90.117874027909906
 20
145.60910521360299
 30
0.0
 40
4.0
  0
LINE
  5
1F58
  8
0
 10
79.117874087514565
 20
151.60910526575711
 30
0.0
 11
93.057169051589639
 21
158.10910539986759
 31
0.0
  0
LINE
  5
1F59
  8
0
 10
129.1178748325726
 20
157.6091053179112
 30
0.0
 11
128.61787381929361
 21
158.10910539986759
 31
0.0
  0
LINE
  5
1F5A
  8
0
 10
93.057169051589639
 20
158.10910539986759
 30
0.0
 11
128.61787381929361
 21
158.10910539986759
 31
0.0
  0
CIRCLE
  5
1F5B
  8
0
 10
94.11787402790992
 20
153.60910521360299
 30
0.0
 40
3.25
  0
LINE
  5
1F60
  8
0
 10
129.1178748325726
 20
157.6091053179112
 30
0.0
 11
129.1178748325726
 21
133.60910510929489
 31
0.0
  0
LINE
  5
1F61
  8
0
 10
79.117874087514565
 20
139.60910516144901
 30
0.0
 11
79.117874087514565
 21
151.60910526575711
 31
0.0
  0
CIRCLE
  5
1F62
  8
0
 10
94.11787402790992
 20
137.6091052136031
 30
0.0
 40
3.2499999999999711
  0
LINE
  5
1F63
  8
0
 10
93.057169051589639
 20
133.1091050273385
 30
0.0
 11
79.117874087514565
 21
139.60910516144901
 31
0.0
  0
LINE
  5
1F64
  8
0
 10
128.61787381929361
 20
133.1091050273385
 30
0.0
 11
93.057169051589639
 21
133.1091050273385
 31
0.0
  0
LINE
  5
1F65
  8
0
 10
128.61787381929361
 20
133.1091050273385
 30
0.0
 11
129.1178748325726
 21
133.60910510929489
 31
0.0
  0
CIRCLE
  5
1F66
  8
0
 10
94.11787402790992
 20
153.60910521360299
 30
0.0
 40
1.699999999999988
  0
CIRCLE
  5
1F67
  8
0
 10
94.11787402790992
 20
137.6091052136031
 30
0.0
 40
1.699999999999988
  0
LINE
  5
1F73
  8
1
 10
74.117874087514679
 20
145.6091052136031
 30
0.0
 11
134.1178748325726
 21
145.6091052136031
 31
0.0
  0
CIRCLE
  5
1F7A
  8
3
 10
90.117874027909906
 20
145.60910521360299
 30
0.0
 40
2.4999999441206451
  0
CIRCLE
  5
1F7B
  8
0
 10
83.11787402790992
 20
35.60910446854502
 30
0.0
 40
2.25
  0
LINE
  5
1F7D
  8
0
 10
83.695224424572856
 20
36.609104516042471
 30
0.0
 11
82.540523664774568
 21
36.609104516042471
 31
0.0
  0
LINE
  5
1F7E
  8
0
 10
82.540523664774568
 20
36.609104516042471
 30
0.0
 11
81.963173517706068
 21
35.60910446854502
 31
0.0
  0
LINE
  5
1F7F
  8
0
 10
81.963173517706068
 20
35.60910446854502
 30
0.0
 11
82.540523664774568
 21
34.609104421047562
 31
0.0
  0
LINE
  5
1F80
  8
0
 10
82.540523664774568
 20
34.609104421047562
 30
0.0
 11
83.695224424572856
 21
34.609104421047562
 31
0.0
  0
LINE
  5
1F81
  8
0
 10
83.695224424572856
 20
34.609104421047562
 30
0.0
 11
84.272574571641357
 21
35.60910446854502
 31
0.0
  0
LINE
  5
1F82
  8
0
 10
84.272574571641357
 20
35.60910446854502
 30
0.0
 11
83.695224424572856
 21
36.609104516042471
 31
0.0
  0
LINE
  5
1F83
  8
0
 10
93.057169051589639
 20
23.109104282280502
 30
0.0
 11
79.117874087514565
 21
29.609104416390949
 31
0.0
  0
LINE
  5
1F84
  8
0
 10
128.61787381929361
 20
23.109104282280502
 30
0.0
 11
93.057169051589639
 21
23.109104282280502
 31
0.0
  0
LINE
  5
1F85
  8
0
 10
129.1178748325726
 20
23.609104364236881
 30
0.0
 11
128.61787381929361
 21
23.109104282280502
 31
0.0
  0
LINE
  5
1F86
  8
0
 10
129.1178748325726
 20
47.609104572853141
 30
0.0
 11
129.1178748325726
 21
23.609104364236881
 31
0.0
  0
CIRCLE
  5
1F87
  8
0
 10
94.11787402790992
 20
27.609104468545009
 30
0.0
 40
3.2499999999999711
  0
LINE
  5
1F88
  8
0
 10
79.117874087514565
 20
29.609104416390949
 30
0.0
 11
79.117874087514565
 21
41.609104520699077
 31
0.0
  0
CIRCLE
  5
1F89
  8
0
 10
83.11787402790992
 20
35.60910446854502
 30
0.0
 40
2.5
  0
CIRCLE
  5
1F8A
  8
0
 10
94.11787402790992
 20
43.609104468545013
 30
0.0
 40
3.2499999999999711
  0
LINE
  5
1F8B
  8
0
 10
79.117874087514565
 20
41.609104520699077
 30
0.0
 11
93.057169051589639
 21
48.109104654809528
 31
0.0
  0
LINE
  5
1F8C
  8
0
 10
93.057169051589639
 20
48.109104654809528
 30
0.0
 11
128.61787381929361
 21
48.109104654809528
 31
0.0
  0
LINE
  5
1F8D
  8
0
 10
128.61787381929361
 20
48.109104654809528
 30
0.0
 11
129.1178748325726
 21
47.609104572853141
 31
0.0
  0
CIRCLE
  5
1F8E
  8
0
 10
94.11787402790992
 20
27.609104468545009
 30
0.0
 40
1.7000000000000171
  0
CIRCLE
  5
1F8F
  8
0
 10
94.11787402790992
 20
43.609104468544992
 30
0.0
 40
1.7000000000000171
  0
LINE
  5
1F93
  8
1
 10
74.117874087514679
 20
35.60910446854502
 30
0.0
 11
134.1178748325726
 21
35.609104468545027
 31
0.0
  0
LINE
  5
1F94
  8
0
 10
40.617874091239862
 20
106.40910500945721
 30
0.0
 11
40.417873965325043
 21
106.6091046697107
 31
0.0
  0
LINE
  5
1F95
  8
0
 10
32.817873837175057
 20
106.6091046697107
 30
0.0
 11
32.617873711260252
 21
106.40910500945721
 31
0.0
  0
LINE
  5
1F96
  8
0
 10
40.617874091239862
 20
103.1091050273386
 30
0.0
 11
40.617874091239862
 21
106.40910500945721
 31
0.0
  0
LINE
  5
1F97
  8
0
 10
32.617873711260252
 20
106.40910500945721
 30
0.0
 11
32.617873711260252
 21
103.1091050273386
 31
0.0
  0
LINE
  5
1F98
  8
0
 10
36.61787390125005
 20
91.763805135211086
 30
0.0
 11
35.617873853752599
 21
91.186454988142586
 31
0.0
  0
LINE
  5
1F99
  8
0
 10
35.617873853752599
 20
90.031754694005585
 30
0.0
 11
36.61787390125005
 21
89.454404546937084
 31
0.0
  0
LINE
  5
1F9A
  8
0
 10
37.617873948747501
 20
90.031754694005585
 30
0.0
 11
37.617873948747501
 21
91.186454988142586
 31
0.0
  0
LINE
  5
1F9B
  8
0
 10
37.617873948747501
 20
91.186454988142586
 30
0.0
 11
36.61787390125005
 21
91.763805135211086
 31
0.0
  0
CIRCLE
  5
1F9C
  8
0
 10
36.61787390125005
 20
90.609104654809528
 30
0.0
 40
2.0
  0
LINE
  5
1F9D
  8
0
 10
36.61787390125005
 20
89.454404546937084
 30
0.0
 11
37.617873948747501
 21
90.031754694005585
 31
0.0
  0
LINE
  5
1F9E
  8
0
 10
35.617873853752599
 20
91.186454988142586
 30
0.0
 11
35.617873853752599
 21
90.031754694005585
 31
0.0
  0
LINE
  5
1FA1
  8
0
 10
40.617874091239862
 20
106.40910500945721
 30
0.0
 11
32.617873711260252
 21
106.40910500945721
 31
0.0
  0
LINE
  5
1FA4
  8
0
 10
40.417873965325043
 20
106.6091046697107
 30
0.0
 11
32.817873837175057
 21
106.6091046697107
 31
0.0
  0
LINE
  5
1FA5
  8
0
 10
33.117873793216631
 20
106.6091046697107
 30
0.0
 11
33.117873793216631
 21
110.9091048157421
 31
0.0
  0
LINE
  5
1FA6
  8
0
 10
40.117874009283469
 20
110.9091048157421
 30
0.0
 11
33.117873793216631
 21
110.9091048157421
 31
0.0
  0
LINE
  5
1FA7
  8
0
 10
40.117874009283469
 20
110.9091048157421
 30
0.0
 11
40.117874009283469
 21
106.6091046697107
 31
0.0
  0
LINE
  5
1FA8
  8
0
 10
33.117873793216631
 20
110.9091048157421
 30
0.0
 11
33.317873919131443
 21
111.10910447599559
 31
0.0
  0
LINE
  5
1FA9
  8
0
 10
33.317873919131443
 20
111.10910447599559
 30
0.0
 11
39.917873883368657
 21
111.10910447599559
 31
0.0
  0
LINE
  5
1FAA
  8
0
 10
40.117874009283469
 20
110.9091048157421
 30
0.0
 11
39.917873883368657
 21
111.10910447599559
 31
0.0
  0
CIRCLE
  5
1FAB
  8
0
 10
36.61787390125005
 20
90.609104654809528
 30
0.0
 40
5.5
  0
LINE
  5
1FAC
  8
0
 10
30.617873849095989
 20
78.609104678558282
 30
0.0
 11
30.617873849095989
 21
102.6091040140596
 31
0.0
  0
LINE
  5
1FAD
  8
0
 10
42.617873953404107
 20
78.609104678558282
 30
0.0
 11
42.617873953404107
 21
102.6091040140596
 31
0.0
  0
LINE
  5
1FAE
  8
0
 10
24.617873796941922
 20
103.1091050273386
 30
0.0
 11
24.117873714985539
 21
102.6091040140596
 31
0.0
  0
LINE
  5
1FAF
  8
0
 10
24.617873796941922
 20
103.1091050273386
 30
0.0
 11
48.617874005558178
 21
103.1091050273385
 31
0.0
  0
LINE
  5
1FB0
  8
0
 10
30.617873849095989
 20
102.6091040140596
 30
0.0
 11
30.936408987017561
 21
103.1091050273386
 31
0.0
  0
LINE
  5
1FB2
  8
0
 10
24.617873796941922
 20
78.109104654809556
 30
0.0
 11
24.117873714985539
 21
78.609104678558282
 31
0.0
  0
LINE
  5
1FB3
  8
0
 10
30.936408987017561
 20
78.109104654809556
 30
0.0
 11
30.617873849095989
 21
78.609104678558282
 31
0.0
  0
LINE
  5
1FB5
  8
0
 10
42.299338815482542
 20
78.109104654809556
 30
0.0
 11
42.617873953404107
 21
78.609104678558282
 31
0.0
  0
LINE
  5
1FB6
  8
0
 10
24.117873714985539
 20
78.609104678558282
 30
0.0
 11
24.117873714985539
 21
102.6091040140596
 31
0.0
  0
LINE
  5
1FB8
  8
0
 10
42.617873953404107
 20
102.6091040140596
 30
0.0
 11
42.299338815482542
 21
103.1091050273386
 31
0.0
  0
LINE
  5
1FB9
  8
0
 10
49.117874087514572
 20
78.609104678558282
 30
0.0
 11
49.117874087514572
 21
102.6091040140596
 31
0.0
  0
LINE
  5
1FBA
  8
0
 10
48.617874005558178
 20
78.109104654809556
 30
0.0
 11
24.617873796941812
 21
78.109104654809556
 31
0.0
  0
LINE
  5
1FBB
  8
0
 10
49.117874087514572
 20
78.609104678558282
 30
0.0
 11
48.617874005558178
 21
78.109104654809556
 31
0.0
  0
LINE
  5
1FBD
  8
0
 10
49.117874087514572
 20
102.6091040140596
 30
0.0
 11
48.617874005558178
 21
103.1091050273386
 31
0.0
  0
CIRCLE
  5
1FC1
  8
3
 10
36.61787390125005
 20
90.609104654809556
 30
0.0
 40
1.6499999910593171
  0
LINE
  5
1FC2
  8
1
 10
36.61787390125005
 20
116.10910447599559
 30
0.0
 11
36.61787390125005
 21
73.109104654809585
 31
0.0
  0
LINE
  5
1FC4
  8
0
 10
175.61787520882709
 20
103.1091050273386
 30
0.0
 11
175.61787520882709
 21
106.40910500945721
 31
0.0
  0
LINE
  5
1FC5
  8
0
 10
167.6178748288475
 20
106.40910500945721
 30
0.0
 11
167.6178748288475
 21
103.1091050273386
 31
0.0
  0
LINE
  5
1FC6
  8
0
 10
175.61787520882709
 20
106.40910500945721
 30
0.0
 11
175.4178750829123
 21
106.6091046697107
 31
0.0
  0
LINE
  5
1FC7
  8
0
 10
167.81787495476229
 20
106.6091046697107
 30
0.0
 11
167.6178748288475
 21
106.40910500945721
 31
0.0
  0
ARC
  5
1FC8
  8
0
 10
176.21787501883699
 20
82.641670939992665
 30
0.0
 40
2.050000000000042
 50
11.124585795178911
 51
203.603222259522
  0
ARC
  5
1FC9
  8
0
 10
171.61787501883711
 20
89.859104654809528
 30
0.0
 40
9.4999999999999858
 50
314.10259394812039
 51
225.89740605187961
  0
ARC
  5
1FCA
  8
0
 10
167.017875018837
 20
82.64167093999265
 30
0.0
 40
2.0500000000000189
 50
336.396777740478
 51
168.87541420482029
  0
LINE
  5
1FCB
  8
0
 10
168.2319395744523
 20
80.670018217584214
 30
0.0
 11
168.89637234036829
 21
81.820849797746277
 31
0.0
  0
LINE
  5
1FCC
  8
0
 10
174.33937769730591
 20
81.820849797746277
 30
0.0
 11
175.0038104632219
 21
80.670018217584214
 31
0.0
  0
CIRCLE
  5
1FCD
  8
0
 10
176.21787501883699
 20
82.641670939992736
 30
0.0
 40
1.0
  0
CIRCLE
  5
1FCE
  8
0
 10
167.017875018837
 20
82.641670939992736
 30
0.0
 40
1.0
  0
CIRCLE
  5
1FD0
  8
0
 10
171.61787501883711
 20
90.609104654809528
 30
0.0
 40
2.1499999999999768
  0
LINE
  5
1FD2
  8
0
 10
175.61787520882709
 20
106.40910500945721
 30
0.0
 11
167.61787482884759
 21
106.40910500945721
 31
0.0
  0
LINE
  5
1FD4
  8
0
 10
175.4178750829123
 20
106.6091046697107
 30
0.0
 11
167.8178749547624
 21
106.6091046697107
 31
0.0
  0
LINE
  5
1FD6
  8
0
 10
168.11787491080389
 20
106.6091046697107
 30
0.0
 11
168.11787491080389
 21
110.9091048157421
 31
0.0
  0
LINE
  5
1FD7
  8
0
 10
175.11787512687081
 20
110.9091048157421
 30
0.0
 11
168.11787491080389
 21
110.9091048157421
 31
0.0
  0
LINE
  5
1FD8
  8
0
 10
175.11787512687081
 20
110.9091048157421
 30
0.0
 11
175.11787512687081
 21
106.6091046697107
 31
0.0
  0
LINE
  5
1FD9
  8
0
 10
168.3178750367187
 20
111.10910447599559
 30
0.0
 11
174.91787500095589
 21
111.10910447599559
 31
0.0
  0
LINE
  5
1FDA
  8
0
 10
174.91787500095589
 20
111.10910447599559
 30
0.0
 11
175.11787512687081
 21
110.9091048157421
 31
0.0
  0
LINE
  5
1FDB
  8
0
 10
168.3178750367187
 20
111.10910447599559
 30
0.0
 11
168.11787491080389
 21
110.9091048157421
 31
0.0
  0
LINE
  5
1FDC
  8
0
 10
183.61787512314521
 20
103.1091050273386
 30
0.0
 11
184.1178752051016
 21
102.6091040140596
 31
0.0
  0
CIRCLE
  5
1FDD
  8
0
 10
171.61787501883711
 20
90.609104654809528
 30
0.0
 40
10.49999999999997
  0
LINE
  5
1FDE
  8
0
 10
184.1178752051016
 20
102.6091040140596
 30
0.0
 11
184.1178752051016
 21
78.609104678558282
 31
0.0
  0
LINE
  5
1FDF
  8
0
 10
183.61787512314521
 20
78.109104654809556
 30
0.0
 11
159.61787491452901
 21
78.109104654809556
 31
0.0
  0
LINE
  5
1FE0
  8
0
 10
159.61787491452901
 20
103.1091050273386
 30
0.0
 11
183.61787512314521
 21
103.1091050273386
 31
0.0
  0
LINE
  5
1FE1
  8
0
 10
183.61787512314521
 20
78.109104654809556
 30
0.0
 11
184.1178752051016
 21
78.609104678558282
 31
0.0
  0
LINE
  5
1FE2
  8
0
 10
159.1178748325726
 20
102.6091040140596
 30
0.0
 11
159.61787491452901
 21
103.1091050273386
 31
0.0
  0
LINE
  5
1FE3
  8
0
 10
159.1178748325726
 20
78.609104678558282
 30
0.0
 11
159.61787491452901
 21
78.109104654809556
 31
0.0
  0
LINE
  5
1FE4
  8
0
 10
159.1178748325726
 20
78.609104678558282
 30
0.0
 11
159.1178748325726
 21
102.6091040140596
 31
0.0
  0
CIRCLE
  5
1FE9
  8
3
 10
171.61787501883711
 20
90.609104654809556
 30
0.0
 40
2.4999999441206451
  0
CIRCLE
  5
27E2
  8
0
 10
90.117874027909906
 20
145.60910521360299
 30
0.0
 40
3.8000000000000109
  0
LINE
  5
27E9
  8
1
 10
90.117874027909906
 20
151.60910521360299
 30
0.0
 11
90.117874027909906
 21
139.60910521360299
 31
0.0
  0
LINE
  5
27EA
  8
1
 10
94.11787402790992
 20
158.85910521360299
 30
0.0
 11
94.11787402790992
 21
148.35910521360299
 31
0.0
  0
LINE
  5
27EB
  8
1
 10
99.36787402790992
 20
153.60910521360299
 30
0.0
 11
88.867874027909906
 21
153.60910521360299
 31
0.0
  0
LINE
  5
27EC
  8
1
 10
99.36787402790992
 20
137.6091052136031
 30
0.0
 11
88.867874027909906
 21
137.6091052136031
 31
0.0
  0
LINE
  5
27F0
  8
1
 10
94.11787402790992
 20
142.85910521360299
 30
0.0
 11
94.11787402790992
 21
132.3591052136031
 31
0.0
  0
LINE
  5
27FD
  8
1
 10
90.117874027909807
 20
116.10910447599559
 30
0.0
 11
90.117874027909807
 21
98.109105027338586
 31
0.0
  0
LINE
  5
2855
  8
1
 10
94.11787402790992
 20
48.859104468544949
 30
0.0
 11
94.11787402790992
 21
38.359104468545027
 31
0.0
  0
LINE
  5
2856
  8
1
 10
99.36787402790992
 20
43.609104468544992
 30
0.0
 11
88.867874027909906
 21
43.609104468544992
 31
0.0
  0
LINE
  5
2857
  8
1
 10
94.11787402790992
 20
32.859104468544992
 30
0.0
 11
94.11787402790992
 21
22.359104468545041
 31
0.0
  0
LINE
  5
2858
  8
1
 10
99.36787402790992
 20
27.609104468545009
 30
0.0
 11
88.867874027909906
 21
27.609104468545009
 31
0.0
  0
LINE
  5
2861
  8
1
 10
171.61787501883711
 20
116.10910447599559
 30
0.0
 11
171.61787501883711
 21
73.109104654809556
 31
0.0
  0
LINE
  5
2862
  8
1
 10
28.11787390125005
 20
90.609104654809556
 30
0.0
 11
45.11787390125005
 21
90.609104654809556
 31
0.0
  0
LINE
  5
2869
  8
1
 10
158.11787501883711
 20
90.609104654809556
 30
0.0
 11
185.11787501883711
 21
90.609104654809556
 31
0.0
  0
TEXT
  5
2975
  8
0
 62
     3
 10
0.0
 20
0.0
 30
0.0
 40
10.0
  1
BJ370-05001
  7
STANDARD1
  0
ENDSEC
  0
EOF
