  0
SECTION
  2
HEADER
  9
$ACADVER
  1
AC1009
  9
$INSBASE
 10
0.0
 20
0.0
 30
0.0
  9
$EXTMIN
 10
0.0
 20
-2.960436562073669
 30
0.0
  9
$EXTMAX
 10
220.8092304170131968
 20
220.9999986588954926
 30
0.0
  9
$LIMMIN
 10
0.0
 20
0.0
  9
$LIMMAX
 10
187.5
 20
135.0
  9
$ORTHOMODE
 70
     1
  9
$REGENMODE
 70
     1
  9
$FILLMODE
 70
     1
  9
$QTEXTMODE
 70
     0
  9
$MIRRTEXT
 70
     0
  9
$DRAGMODE
 70
     2
  9
$LTSCALE
 40
5.0
  9
$OSMODE
 70
    37
  9
$ATTMODE
 70
     1
  9
$TEXTSIZE
 40
0.2
  9
$TRACEWID
 40
0.05
  9
$TEXTSTYLE
  7
STANDARD
  9
$CLAYER
  8
0
  9
$CELTYPE
  6
BYLAYER
  9
$CECOLOR
 62
   256
  9
$DIMSCALE
 40
0.5
  9
$DIMASZ
 40
3.0
  9
$DIMEXO
 40
2.0
  9
$DIMDLI
 40
0.38
  9
$DIMRND
 40
0.0
  9
$DIMDLE
 40
0.0
  9
$DIMEXE
 40
2.0
  9
$DIMTP
 40
0.0
  9
$DIMTM
 40
0.0
  9
$DIMTXT
 40
3.0
  9
$DIMCEN
 40
0.0
  9
$DIMTSZ
 40
0.0
  9
$DIMTOL
 70
     0
  9
$DIMLIM
 70
     0
  9
$DIMTIH
 70
     0
  9
$DIMTOH
 70
     0
  9
$DIMSE1
 70
     0
  9
$DIMSE2
 70
     0
  9
$DIMTAD
 70
     1
  9
$DIMZIN
 70
     0
  9
$DIMBLK
  1

  9
$DIMASO
 70
     0
  9
$DIMSHO
 70
     0
  9
$DIMPOST
  1

  9
$DIMAPOST
  1

  9
$DIMALT
 70
     0
  9
$DIMALTD
 70
     2
  9
$DIMALTF
 40
25.3999999999999986
  9
$DIMLFAC
 40
1.0
  9
$DIMTOFL
 70
     1
  9
$DIMTVP
 40
1.6000000000000001
  9
$DIMTIX
 70
     1
  9
$DIMSOXD
 70
     0
  9
$DIMSAH
 70
     0
  9
$DIMBLK1
  1

  9
$DIMBLK2
  1

  9
$DIMSTYLE
  2
STANDARD
  9
$DIMCLRD
 70
     0
  9
$DIMCLRE
 70
     0
  9
$DIMCLRT
 70
     0
  9
$DIMTFAC
 40
1.0
  9
$DIMGAP
 40
0.09
  9
$LUNITS
 70
     2
  9
$LUPREC
 70
     4
  9
$SKETCHINC
 40
0.1
  9
$FILLETRAD
 40
0.0
  9
$AUNITS
 70
     0
  9
$AUPREC
 70
     4
  9
$MENU
  1
E:\r13\win\SUPPORT\ACAD
  9
$ELEVATION
 40
0.0
  9
$PELEVATION
 40
0.0
  9
$THICKNESS
 40
0.0
  9
$LIMCHECK
 70
     0
  9
$BLIPMODE
 70
     0
  9
$CHAMFERA
 40
0.0
  9
$CHAMFERB
 40
0.0
  9
$SKPOLY
 70
     0
  9
$TDCREATE
 40
2449840.3512499998323619
  9
$TDUPDATE
 40
2460788.5158680560998619
  9
$TDINDWG
 40
0.2712414468
  9
$TDUSRTIMER
 40
0.2712414468
  9
$USRTIMER
 70
     1
  9
$ANGBASE
 50
0.0
  9
$ANGDIR
 70
     0
  9
$PDMODE
 70
     0
  9
$PDSIZE
 40
0.0
  9
$PLINEWID
 40
0.0
  9
$COORDS
 70
     1
  9
$SPLFRAME
 70
     0
  9
$SPLINETYPE
 70
     6
  9
$SPLINESEGS
 70
     8
  9
$ATTDIA
 70
     1
  9
$ATTREQ
 70
     1
  9
$HANDLING
 70
     1
  9
$HANDSEED
  5
2B40
  9
$SURFTAB1
 70
     6
  9
$SURFTAB2
 70
     6
  9
$SURFTYPE
 70
     6
  9
$SURFU
 70
     6
  9
$SURFV
 70
     6
  9
$UCSNAME
  2

  9
$UCSORG
 10
0.0
 20
0.0
 30
0.0
  9
$UCSXDIR
 10
1.0
 20
0.0
 30
0.0
  9
$UCSYDIR
 10
0.0
 20
1.0
 30
0.0
  9
$PUCSNAME
  2

  9
$PUCSORG
 10
0.0
 20
0.0
 30
0.0
  9
$PUCSXDIR
 10
1.0
 20
0.0
 30
0.0
  9
$PUCSYDIR
 10
0.0
 20
1.0
 30
0.0
  9
$USERI1
 70
     3
  9
$USERI2
 70
     1
  9
$USERI3
 70
     0
  9
$USERI4
 70
     0
  9
$USERI5
 70
     0
  9
$USERR1
 40
0.5
  9
$USERR2
 40
3.0
  9
$USERR3
 40
3.0
  9
$USERR4
 40
3.0
  9
$USERR5
 40
10.0
  9
$WORLDVIEW
 70
     1
  9
$SHADEDGE
 70
     3
  9
$SHADEDIF
 70
    70
  9
$TILEMODE
 70
     1
  9
$MAXACTVP
 70
    16
  9
$PLIMCHECK
 70
     0
  9
$PEXTMIN
 10
1.0000000000000000E+20
 20
1.0000000000000000E+20
 30
1.0000000000000000E+20
  9
$PEXTMAX
 10
-1.0000000000000000E+20
 20
-1.0000000000000000E+20
 30
-1.0000000000000000E+20
  9
$PLIMMIN
 10
0.0
 20
0.0
  9
$PLIMMAX
 10
12.0
 20
9.0
  9
$UNITMODE
 70
     0
  9
$VISRETAIN
 70
     0
  9
$PLINEGEN
 70
     0
  9
$PSLTSCALE
 70
     0
  0
ENDSEC
  0
SECTION
  2
TABLES
  0
TABLE
  2
VPORT
 70
     1
  0
VPORT
  2
*ACTIVE
 70
     0
 10
0.0
 20
0.0
 11
1.0
 21
1.0
 12
157.096870757571196
 22
109.0197815698594042
 13
0.0
 23
0.0
 14
5.0
 24
5.0
 15
10.0
 25
10.0
 16
0.0
 26
0.0
 36
1.0
 17
0.0
 27
0.0
 37
0.0
 40
225.7239023739639947
 41
2.3485221674876842
 42
50.0
 43
0.0
 44
0.0
 50
0.0
 51
0.0
 71
     0
 72
   100
 73
     1
 74
     0
 75
     0
 76
     0
 77
     0
 78
     2
  0
ENDTAB
  0
TABLE
  2
LTYPE
 70
     4
  0
LTYPE
  2
CONTINUOUS
 70
     0
  3
Solid Line
 72
    65
 73
     0
 40
0.0
  0
LTYPE
  2
CENTER
 70
     0
  3
____ _ ____ _ ____ _ ____ _ ____ _ ____ _ ____
 72
    65
 73
     4
 40
2.0
 49
1.25
 49
-0.25
 49
0.25
 49
-0.25
  0
LTYPE
  2
HIDDEN
 70
     0
  3
__ __ __ __ __ __ __ __ __ __ __ __ __ __ __ __
 72
    65
 73
     2
 40
0.375
 49
0.25
 49
-0.125
  0
LTYPE
  2
PHANTOM2
 70
     0
  3
___ _ _ ___ _ _ ___ _ _ ___ _ _
 72
    65
 73
     6
 40
1.25
 49
0.625
 49
-0.125
 49
0.125
 49
-0.125
 49
0.125
 49
-0.125
  0
ENDTAB
  0
TABLE
  2
LAYER
 70
     5
  0
LAYER
  2
0
 70
     0
 62
     7
  6
CONTINUOUS
  0
LAYER
  2
1
 70
     0
 62
     1
  6
CENTER
  0
LAYER
  2
3
 70
     0
 62
     3
  6
CONTINUOUS
  0
LAYER
  2
2
 70
     0
 62
     2
  6
HIDDEN
  0
LAYER
  2
DEFPOINTS
 70
     0
 62
     7
  6
CONTINUOUS
  0
ENDTAB
  0
TABLE
  2
STYLE
 70
     2
  0
STYLE
  2
STANDARD
 70
     0
 40
0.0
 41
1.0
 50
0.0
 71
     0
 42
0.2
  3
TXT
  4
BIGFONT
  0
STYLE
  2
STANDARD1
 70
     0
 40
0.0
 41
1.0
 50
0.0
 71
     0
 42
3.0
  3
txt
  4

  0
ENDTAB
  0
TABLE
  2
VIEW
 70
     0
  0
ENDTAB
  0
TABLE
  2
UCS
 70
     0
  0
ENDTAB
  0
TABLE
  2
APPID
 70
    39
  0
APPID
  2
ACAD
 70
     0
  0
APPID
  2
ACAD_MLEADERVER
 70
     0
  0
APPID
  2
ACAD_EXEMPT_FROM_CAD_STANDARDS
 70
     0
  0
APPID
  2
_CALL_MAC$
 70
     0
  0
APPID
  2
DCO15
 70
     0
  0
APPID
  2
GENIUS_GENOREF_13
 70
     0
  0
APPID
  2
GENIUS_GENOENT_13
 70
     0
  0
APPID
  2
GENIUS_GENBH_13
 70
     0
  0
APPID
  2
GENIUS_GENOBJ_13
 70
     0
  0
APPID
  2
GENIUS_GENODEF_13
 70
     0
  0
APPID
  2
GENIUS_GENOLIS_13
 70
     0
  0
APPID
  2
GENIUS_GENOBJ-NBEHI-BHF_13
 70
     0
  0
APPID
  2
GENIUS_GENOBJ-NBEHI-BHB_13
 70
     0
  0
APPID
  2
GENIUS_GENOBJ-F-PART_13
 70
     0
  0
APPID
  2
GENIUS_GEFSTDP_13
 70
     0
  0
APPID
  2
GENIUS_GENOBJ-N-RSSYM_13
 70
     0
  0
APPID
  2
GENIUS_GENSYMENT_13
 70
     0
  0
APPID
  2
GENIUS_GENOBJ-N-TIT_13
 70
     0
  0
APPID
  2
GENIUS_GENTITLE_13
 70
     0
  0
APPID
  2
GENIUS_GENZVEED_13
 70
     0
  0
APPID
  2
GENIUS_GENOBJ-N-LEADER_13
 70
     0
  0
APPID
  2
GENIUS_GENOBJ-N-FIL_13
 70
     0
  0
APPID
  2
GENIUS_GENOBJ-N-SEC_13
 70
     0
  0
APPID
  2
GENIUS_GENOBJ-N-CRS_13
 70
     0
  0
APPID
  2
GENIUS_GENOBJ-N-ZOO_13
 70
     0
  0
APPID
  2
GENIUS_GENZOO_13
 70
     0
  0
APPID
  2
GENIUS_GENOBJ-F-TOL_13
 70
     0
  0
APPID
  2
GENIUS_GENFIL_13
 70
     0
  0
APPID
  2
GENIUS_GENOBJ-N-CHA_13
 70
     0
  0
APPID
  2
ASM_BASE
 70
     0
  0
APPID
  2
ASM_EXPLO_VER_2_00
 70
     0
  0
APPID
  2
ASM_CADM_VER_12_00
 70
     0
  0
APPID
  2
ASM_BASEFORO
 70
     0
  0
APPID
  2
ASM_BASETRAVI
 70
     0
  0
APPID
  2
ASM_BASETRAVI1
 70
     0
  0
APPID
  2
ASM_GRUPPI
 70
     0
  0
APPID
  2
ASM_CADM_ALBERO
 70
     0
  0
APPID
  2
ASM_GOLE
 70
     0
  0
APPID
  2
ACAD_NAV_VCDISPLAY
 70
     0
  0
ENDTAB
  0
TABLE
  2
DIMSTYLE
 70
     1
  0
DIMSTYLE
  2
STANDARD
 70
     0
  3

  4

  5

  6

  7

 40
1.0
 41
0.18
 42
0.0625
 43
0.38
 44
0.18
 45
0.0
 46
0.0
 47
0.0
 48
0.0
140
0.18
141
0.09
142
0.0
143
25.3999999999999986
144
1.0
145
0.0
146
1.0
147
0.09
 71
     0
 72
     0
 73
     1
 74
     1
 75
     0
 76
     0
 77
     0
 78
     0
170
     0
171
     2
172
     0
173
     0
174
     0
175
     0
176
     0
177
     0
178
     0
  0
ENDTAB
  0
ENDSEC
  0
SECTION
  2
BLOCKS
  0
BLOCK
  8
0
  2
$MODEL_SPACE
 70
     0
 10
0.0
 20
0.0
 30
0.0
  3
$MODEL_SPACE
  1

  0
ENDBLK
  5
196
  8
0
  0
BLOCK
 67
     1
  8
0
  2
$PAPER_SPACE
 70
     0
 10
0.0
 20
0.0
 30
0.0
  3
$PAPER_SPACE
  1

  0
ENDBLK
  5
194
 67
     1
  8
0
  0
ENDSEC
  0
SECTION
  2
ENTITIES
  0
LINE
  5
14A7
  8
0
 10
198.3092304170133104
 20
49.9999999999999716
 30
0.0
 11
191.3092304170133104
 21
50.0000000000000284
 31
0.0
  0
LINE
  5
14A8
  8
0
 10
199.8092304170133104
 20
51.4999999999999076
 30
0.0
 11
198.3092304170133104
 21
49.9999999999999716
 31
0.0
  0
LINE
  5
14A9
  8
0
 10
191.3092304170133104
 20
50.0000000000000284
 30
0.0
 11
189.8092304170131968
 21
51.5000000000000284
 31
0.0
  0
LINE
  5
14AA
  8
0
 10
199.8092304170133957
 20
51.4999999999999076
 30
0.0
 11
189.8092304170133957
 21
51.5000000000000284
 31
0.0
  0
LINE
  5
14AB
  8
0
 10
189.8092304170131968
 20
63.9999999999999716
 30
0.0
 11
189.8092304170131968
 21
51.5000000000000284
 31
0.0
  0
LINE
  5
14AC
  8
3
 10
190.6212304170132938
 20
63.9999999999999076
 30
0.0
 11
190.6212304170132938
 21
50.6880000000000734
 31
0.0
  0
LINE
  5
14AD
  8
3
 10
198.9972304170134976
 20
64.0000000000000284
 30
0.0
 11
198.9972304170134123
 21
50.6880000000000166
 31
0.0
  0
LINE
  5
14AE
  8
0
 10
199.8092304170133957
 20
63.9999999999999716
 30
0.0
 11
199.8092304170133104
 21
51.4999999999999076
 31
0.0
  0
LINE
  5
14AF
  8
0
 10
195.8092304161988864
 20
98.5773502687199539
 30
0.0
 11
195.8092304161988864
 21
97.4226497303407655
 31
0.0
  0
LINE
  5
14B0
  8
0
 10
193.8092304178269103
 20
97.4226497312806146
 30
0.0
 11
193.8092304178269103
 21
98.577350269659803
 31
0.0
  0
LINE
  5
14B1
  8
0
 10
193.8092304178269103
 20
98.5773502687198544
 30
0.0
 11
194.8092304178269103
 21
99.1547005379096049
 31
0.0
  0
LINE
  5
14B2
  8
0
 10
194.8092304170129125
 20
99.1547005374389556
 30
0.0
 11
195.8092304170129125
 21
98.5773502682495177
 31
0.0
  0
CIRCLE
  5
14B3
  8
3
 10
194.8092304170131115
 20
97.9999999999999432
 30
0.0
 40
1.6499999999999131
  0
CIRCLE
  5
14B4
  8
0
 10
194.8092304170131115
 20
97.9999999999999432
 30
0.0
 40
2.0
  0
LINE
  5
14B5
  8
0
 10
195.8092304161980053
 20
97.4226497312800461
 30
0.0
 11
194.8092304161988864
 21
96.8452994620902814
 31
0.0
  0
LINE
  5
14B6
  8
0
 10
194.8092304170129125
 20
96.8452994625609449
 30
0.0
 11
193.8092304170129125
 21
97.4226497317503686
 31
0.0
  0
LINE
  5
14B7
  8
1
 10
190.8092304170131115
 20
97.9999999999999432
 30
0.0
 11
198.8092304170131115
 21
97.9999999999999432
 31
0.0
  0
LINE
  5
159D
  8
3
 10
166.6138438890029931
 20
92.620159083045877
 30
0.0
 11
165.3517588475970115
 21
91.5981427679810452
 31
0.0
  0
LINE
  5
159E
  8
0
 10
165.1765240242133927
 20
101.6950395564339971
 30
0.0
 11
166.7408686746155126
 21
91.8181561504826362
 31
0.0
  0
LINE
  5
159F
  8
3
 10
165.3035488098259975
 20
100.8930366238708984
 30
0.0
 11
163.7874141971946926
 21
101.475026173932406
 31
0.0
  0
LINE
  5
15A8
  8
3
 10
166.6138438890029931
 20
92.6201590830457633
 30
0.0
 11
173.8092307001352026
 21
93.7597963960455161
 31
0.0
  0
LINE
  5
15A9
  8
0
 10
165.3517588475970115
 20
91.598142767981102
 30
0.0
 11
173.8092307001352026
 21
92.9376747139059347
 31
0.0
  0
LINE
  5
15AA
  8
3
 10
165.3035488098259975
 20
100.8930366238708984
 30
0.0
 11
173.8092307001352026
 21
102.2402042896460017
 31
0.0
  0
LINE
  5
15AB
  8
0
 10
173.8092307001352026
 20
103.0623259717858957
 30
0.0
 11
163.7874141971946926
 21
101.4750261739325055
 31
0.0
  0
TEXT
  5
16E0
  8
0
 62
     3
 10
0.0
 20
0.0
 30
0.0
 40
10.0
  1
BJ351-10001C
  7
STANDARD1
  0
LINE
  5
1C22
  8
2
 10
189.809230673596403
 20
76.0000001043080999
 30
0.0
 11
199.8092303052544025
 21
76.0000001043080999
 31
0.0
  0
ARC
  5
1C23
  8
2
 10
197.3613454929848956
 20
69.9785500584397795
 30
0.0
 40
6.500000000000024
 50
7.2602777824158693
 51
67.8769062752385111
  0
LINE
  5
1C24
  8
2
 10
203.8092300295830057
 20
70.8000000901519968
 30
0.0
 11
203.8092300295830057
 21
70.0000000521540358
 31
0.0
  0
LINE
  5
1C2A
  8
2
 10
185.8092308044433025
 20
70.0000000521540358
 30
0.0
 11
185.8092308044433025
 21
70.8000000901519968
 31
0.0
  0
ARC
  5
1C2B
  8
2
 10
192.2571153410414126
 20
69.9785500584397795
 30
0.0
 40
6.5000000000000098
 50
112.1230937247615032
 51
172.7397222175841023
  0
LINE
  5
1C62
  8
0
 10
160.8335392804164883
 20
81.7703374464417294
 30
0.0
 11
166.7596701532602026
 21
82.7089480459689668
 31
0.0
  0
LINE
  5
1C63
  8
0
 10
162.3795054852961925
 20
110.3642217218875032
 30
0.0
 11
156.4533720687524863
 21
109.4256154223701003
 31
0.0
  0
LINE
  5
1C66
  8
0
 10
161.4592768251895905
 20
77.8195874169468595
 30
0.0
 11
155.8276340922880081
 21
113.3763681774564986
 31
0.0
  0
LINE
  5
1C67
  8
0
 10
161.4592768251895905
 20
77.8195874169468595
 30
0.0
 11
147.6316399872303009
 21
75.6295050829648687
 31
0.0
  0
LINE
  5
1C68
  8
0
 10
147.6316399872303009
 20
75.6295050829648687
 30
0.0
 11
141.9999994337557894
 21
111.1862852573394065
 31
0.0
  0
LINE
  5
1C69
  8
0
 10
141.9999994337557894
 20
111.1862852573394065
 30
0.0
 11
155.8276362717151073
 21
113.3763685226440003
 31
0.0
  0
LINE
  5
1C6C
  8
0
 10
166.7596701532602026
 20
82.7089480459689668
 30
0.0
 11
162.3795050275828942
 21
110.3642216493930022
 31
0.0
  0
LINE
  5
1C7F
  8
2
 10
185.8092308044433025
 20
87.4999991953372529
 30
0.0
 11
186.3092299550770861
 21
87.0000000447034552
 31
0.0
  0
LINE
  5
1C80
  8
2
 10
203.3092308789491938
 20
87.0000000447034552
 30
0.0
 11
203.8092300295830057
 21
87.4999991953372529
 31
0.0
  0
LINE
  5
1C81
  8
2
 10
199.9252558685838892
 20
87.0000000447034552
 30
0.0
 11
199.05923064798111
 21
88.499999359250026
 31
0.0
  0
LINE
  5
1C82
  8
2
 10
190.559230186045113
 20
88.499999359250026
 30
0.0
 11
189.6932049654423906
 21
87.0000000447034552
 31
0.0
  0
LINE
  5
1C83
  8
2
 10
190.559230186045113
 20
88.499999359250026
 30
0.0
 11
199.05923064798111
 21
88.499999359250026
 31
0.0
  0
LINE
  5
1C85
  8
0
 10
205.3092302754521086
 20
123.9999986588953931
 30
0.0
 11
184.3092305585741997
 21
123.9999986588953931
 31
0.0
  0
LINE
  5
1C86
  8
2
 10
189.1158548183738901
 20
123.9999986588953931
 30
0.0
 11
190.559230186045113
 21
121.5000010430811983
 31
0.0
  0
LINE
  5
1C87
  8
2
 10
190.559230186045113
 20
88.499999359250026
 30
0.0
 11
190.559230186045113
 21
121.5000010430811983
 31
0.0
  0
LINE
  5
1C88
  8
2
 10
185.8092308044433025
 20
91.0000007003545335
 30
0.0
 11
185.8092308044433025
 21
87.4999991953372529
 31
0.0
  0
LINE
  5
1C89
  8
2
 10
184.3865806236863136
 20
91.0000007003545335
 30
0.0
 11
185.8092308044433025
 21
91.0000007003545335
 31
0.0
  0
LINE
  5
1C8A
  8
2
 10
183.8092304766178131
 20
92.0000008642673066
 30
0.0
 11
184.3865806236863136
 21
91.0000007003545335
 31
0.0
  0
LINE
  5
1C8E
  8
0
 10
183.8092304766178131
 20
123.5000013709068014
 30
0.0
 11
183.8092304766178131
 21
114.0000007450580028
 31
0.0
  0
LINE
  5
1C8F
  8
0
 10
184.3092305585741997
 20
123.9999986588953931
 30
0.0
 11
183.8092304766178131
 21
123.5000013709068014
 31
0.0
  0
LINE
  5
1C91
  8
0
 10
205.8092303574084951
 20
114.0000007450580028
 30
0.0
 11
205.8092303574084951
 21
123.5000013709068014
 31
0.0
  0
LINE
  5
1C92
  8
2
 10
205.2318802103399946
 20
91.0000007003545335
 30
0.0
 11
205.8092303574084951
 21
92.0000008642673066
 31
0.0
  0
LINE
  5
1C93
  8
2
 10
203.8092300295830057
 20
91.0000007003545335
 30
0.0
 11
205.2318802103399946
 21
91.0000007003545335
 31
0.0
  0
LINE
  5
1C94
  8
2
 10
203.8092300295830057
 20
87.4999991953372529
 30
0.0
 11
203.8092300295830057
 21
91.0000007003545335
 31
0.0
  0
LINE
  5
1C95
  8
2
 10
199.05923064798111
 20
121.5000010430811983
 30
0.0
 11
199.05923064798111
 21
88.499999359250026
 31
0.0
  0
LINE
  5
1C96
  8
2
 10
199.05923064798111
 20
121.5000010430811983
 30
0.0
 11
200.5026060156523897
 21
123.9999986588953931
 31
0.0
  0
LINE
  5
1C98
  8
0
 10
205.8092303574084951
 20
123.5000013709068014
 30
0.0
 11
205.3092302754521086
 21
123.9999986588953931
 31
0.0
  0
LINE
  5
1C99
  8
2
 10
186.3092299550770008
 20
87.0000000447034552
 30
0.0
 11
203.3092308789491938
 21
87.0000000447034552
 31
0.0
  0
LINE
  5
1C9A
  8
2
 10
199.05923064798111
 20
121.5000010430811983
 30
0.0
 11
190.559230186045113
 21
121.5000010430811983
 31
0.0
  0
LINE
  5
1C9E
  8
2
 10
183.8092304766178131
 20
70.8000005222849751
 30
0.0
 11
183.8092304766178131
 21
114.0000007450580028
 31
0.0
  0
LINE
  5
1CA1
  8
2
 10
205.8092303574084951
 20
114.0000007450580028
 30
0.0
 11
205.8092303574086088
 21
70.8000005222851172
 31
0.0
  0
LINE
  5
1CA4
  8
0
 10
215.8092301338911057
 20
112.9999987185000947
 30
0.0
 11
215.8092301338911057
 21
65.0000000474974229
 31
0.0
  0
LINE
  5
1CA5
  8
0
 10
173.8092307001352026
 20
65.0000000474974797
 30
0.0
 11
173.8092307001352026
 21
112.9999987185000947
 31
0.0
  0
LINE
  5
1CA9
  8
2
 10
183.8092304766178131
 20
74.318263433873625
 30
0.0
 11
173.8092307001352026
 21
72.7344190105795576
 31
0.0
  0
LINE
  5
1CAA
  8
2
 10
173.8092307001352026
 20
75.2655814737081243
 30
0.0
 11
183.8092304766178131
 21
76.8494258970021917
 31
0.0
  0
LINE
  5
1CAB
  8
0
 10
174.8092308640480042
 20
63.9999999999999716
 30
0.0
 11
173.8092307001352026
 21
65.0000000474974229
 31
0.0
  0
LINE
  5
1CAC
  8
0
 10
215.8092301338911057
 20
65.0000000474974229
 30
0.0
 11
214.8092299699783041
 21
63.9999999999999716
 31
0.0
  0
LINE
  5
1CB3
  8
0
 10
174.8092308640480042
 20
114.0000007450580028
 30
0.0
 11
214.8092299699783041
 21
114.0000007450580028
 31
0.0
  0
LINE
  5
1CB4
  8
0
 10
214.8092299699783041
 20
114.0000007450580028
 30
0.0
 11
215.8092301338911057
 21
112.9999987185000947
 31
0.0
  0
LINE
  5
1CB6
  8
0
 10
214.8092299699783041
 20
63.9999999999999716
 30
0.0
 11
174.8092308640480894
 21
63.9999999999999716
 31
0.0
  0
LINE
  5
1CBB
  8
0
 10
173.8092307001352026
 20
112.9999987185000947
 30
0.0
 11
174.8092308640480042
 21
114.0000007450580028
 31
0.0
  0
LINE
  5
1CD1
  8
2
 10
199.8092304170131968
 20
122.7990381056766012
 30
0.0
 11
199.8092304170131968
 21
104.0
 31
0.0
  0
LINE
  5
1CD2
  8
2
 10
189.8092304170131115
 20
122.7990381056766012
 30
0.0
 11
189.8092304170131115
 21
104.0
 31
0.0
  0
LINE
  5
1CD3
  8
2
 10
189.8092304170131115
 20
104.0
 30
0.0
 11
199.8092304170131968
 21
104.0
 31
0.0
  0
LINE
  5
1CDA
  8
1
 10
194.8092304170129978
 20
128.9999986588954073
 30
0.0
 11
194.8092304170131115
 21
45.0
 31
0.0
  0
LINE
  5
1CDB
  8
1
 10
142.3465989050492908
 20
93.0168087168405719
 30
0.0
 11
187.7802626941964093
 21
100.2127941279777019
 31
0.0
  0
LINE
  5
1CDC
  8
1
 10
185.784607098203395
 20
75.8967133333258062
 30
0.0
 11
171.8338537358229132
 21
73.6871310699195163
 31
0.0
  0
LINE
  5
2093
  8
0
 10
174.4131524115801142
 20
199.9999985471366983
 30
0.0
 11
164.5695868879556087
 21
199.9999985471366983
 31
0.0
  0
LINE
  5
2094
  8
0
 10
164.5695868879556087
 20
189.9999987706540878
 30
0.0
 11
174.4131524115801142
 21
189.9999987706540878
 31
0.0
  0
LINE
  5
2095
  8
0
 10
144.8158197104928888
 20
176.9999994337557894
 30
0.0
 11
158.6434565484522068
 21
176.9999994337557894
 31
0.0
  0
LINE
  5
2096
  8
0
 10
158.6434565484522068
 20
212.9999978840351105
 30
0.0
 11
144.8158197104928888
 21
212.9999978840351105
 31
0.0
  0
LINE
  5
2097
  8
0
 10
158.6434565484522068
 20
180.9999982267617895
 30
0.0
 11
164.5695868879556087
 21
180.9999982267617895
 31
0.0
  0
LINE
  5
2098
  8
0
 10
164.5695868879556087
 20
208.9999990910291103
 30
0.0
 11
158.6434565484522068
 21
208.9999990910291103
 31
0.0
  0
LINE
  5
2099
  8
0
 10
193.0771796265617013
 20
197.9999986849724962
 30
0.0
 11
191.3451288361102058
 21
194.9999986588954073
 31
0.0
  0
LINE
  5
209A
  8
0
 10
193.0771796265617013
 20
191.9999986328184036
 30
0.0
 11
196.541281207464607
 21
191.9999986328184036
 31
0.0
  0
LINE
  5
209B
  8
0
 10
196.541281207464607
 20
197.9999986849724962
 30
0.0
 11
193.0771796265617013
 21
197.9999986849724962
 31
0.0
  0
LINE
  5
209C
  8
0
 10
196.541281207464607
 20
191.9999986328184036
 30
0.0
 11
198.2733319979161024
 21
194.9999986588954073
 31
0.0
  0
LINE
  5
209D
  8
0
 10
191.3451288361102058
 20
194.9999986588954073
 30
0.0
 11
193.0771796265617013
 21
191.9999986328184036
 31
0.0
  0
LINE
  5
209E
  8
0
 10
198.2733319979161024
 20
194.9999986588954073
 30
0.0
 11
196.541281207464607
 21
197.9999986849724962
 31
0.0
  0
CIRCLE
  5
20A0
  8
0
 10
158.4287520173400878
 20
194.9999986588954073
 30
0.0
 40
1.4321481321341021
  0
POLYLINE
  5
20A1
  8
0
 66
     1
 10
0.0
 20
0.0
 30
0.0
 70
   128
  0
VERTEX
  5
29BB
  8
0
 10
144.8158197104928888
 20
176.9999994337557894
 30
0.0
  0
VERTEX
  5
29BC
  8
0
 10
144.5921011269091139
 20
177.0568995177744966
 30
0.0
  0
VERTEX
  5
29BD
  8
0
 10
144.3697981536386976
 20
177.2272421419619945
 30
0.0
  0
VERTEX
  5
29BE
  8
0
 10
144.1503152251241886
 20
177.5099506974219992
 30
0.0
  0
VERTEX
  5
29BF
  8
0
 10
143.9350418746469984
 20
177.9032370448111919
 30
0.0
  0
VERTEX
  5
29C0
  8
0
 10
143.7253341078757103
 20
178.404612690210314
 30
0.0
  0
VERTEX
  5
29C1
  8
0
 10
143.5225218534467899
 20
179.0109111368655022
 30
0.0
  0
VERTEX
  5
29C2
  8
0
 10
143.3278866112231071
 20
179.7182981297372919
 30
0.0
  0
VERTEX
  5
29C3
  8
0
 10
143.1426577270030123
 20
180.5223005264996914
 30
0.0
  0
VERTEX
  5
29C4
  8
0
 10
142.9680049419401939
 20
181.4178351685403925
 30
0.0
  0
VERTEX
  5
29C5
  8
0
 10
142.8050383925437075
 20
182.399241477250996
 30
0.0
  0
VERTEX
  5
29C6
  8
0
 10
142.6547825336454878
 20
183.4603131189942076
 30
0.0
  0
VERTEX
  5
29C7
  8
0
 10
142.5181910395621117
 20
184.5943427085875896
 30
0.0
  0
VERTEX
  5
29C8
  8
0
 10
142.3961244523524101
 20
185.7941599935292913
 30
0.0
  0
VERTEX
  5
29C9
  8
0
 10
142.2893576323984917
 20
187.0521793514488991
 30
0.0
  0
VERTEX
  5
29CA
  8
0
 10
142.1985611319541079
 20
188.3604482188819986
 30
0.0
  0
VERTEX
  5
29CB
  8
0
 10
142.1243123710154066
 20
189.7106936573981955
 30
0.0
  0
VERTEX
  5
29CC
  8
0
 10
142.0670844614504063
 20
191.0943800956009966
 30
0.0
  0
VERTEX
  5
29CD
  8
0
 10
142.0272313058374891
 20
192.5027591548860073
 30
0.0
  0
VERTEX
  5
29CE
  8
0
 10
142.0050062239168938
 20
193.9269264601171017
 30
0.0
  0
VERTEX
  5
29CF
  8
0
 10
142.0005545020102034
 20
195.3578780428505866
 30
0.0
  0
VERTEX
  5
29D0
  8
0
 10
142.0139022171495924
 20
196.7865670938043934
 30
0.0
  0
VERTEX
  5
29D1
  8
0
 10
142.0449674129484947
 20
198.2039608899503094
 30
0.0
  0
VERTEX
  5
29D2
  8
0
 10
142.0935451984404096
 20
199.601098187267695
 30
0.0
  0
VERTEX
  5
29D3
  8
0
 10
142.1593375504014887
 20
200.9691458567976952
 30
0.0
  0
VERTEX
  5
29D4
  8
0
 10
142.2419235110282045
 20
202.2994544729590132
 30
0.0
  0
VERTEX
  5
29D5
  8
0
 10
142.3407852649687015
 20
203.5836132615804104
 30
0.0
  0
VERTEX
  5
29D6
  8
0
 10
142.4552895128726107
 20
204.8135048151015951
 30
0.0
  0
VERTEX
  5
29D7
  8
0
 10
142.584724724292613
 20
205.9813516587018967
 30
0.0
  0
VERTEX
  5
29D8
  8
0
 10
142.7282601594924074
 20
207.0797702670097067
 30
0.0
  0
VERTEX
  5
29D9
  8
0
 10
142.8849942982195103
 20
208.1018176302312952
 30
0.0
  0
VERTEX
  5
29DA
  8
0
 10
143.0539399385451134
 20
209.0410303696990013
 30
0.0
  0
VERTEX
  5
29DB
  8
0
 10
143.2340204715727054
 20
209.8914713039993956
 30
0.0
  0
VERTEX
  5
29DC
  8
0
 10
143.4241034090518099
 20
210.6477639079093933
 30
0.0
  0
VERTEX
  5
29DD
  8
0
 10
143.6229854822157108
 20
211.3051249086855989
 30
0.0
  0
VERTEX
  5
29DE
  8
0
 10
143.8294075429438124
 20
211.859401538968001
 30
0.0
  0
VERTEX
  5
29DF
  8
0
 10
144.0420657396315107
 20
212.3070864379405975
 30
0.0
  0
VERTEX
  5
29E0
  8
0
 10
144.259618967771388
 20
212.6453521102666002
 30
0.0
  0
VERTEX
  5
29E1
  8
0
 10
144.4806851446626865
 20
212.8720565140247061
 30
0.0
  0
VERTEX
  5
29E2
  8
0
 10
144.7038710117338951
 20
212.9857672750949007
 30
0.0
  0
VERTEX
  5
29E3
  8
0
 10
144.8158197104928888
 20
212.9999978840351105
 30
0.0
  0
SEQEND
  5
29E4
  8
0
  0
POLYLINE
  5
20A2
  8
0
 66
     1
 10
0.0
 20
0.0
 30
0.0
 70
   128
  0
VERTEX
  5
29E5
  8
0
 10
158.6434565484522068
 20
176.9999994337557894
 30
0.0
  0
VERTEX
  5
29E6
  8
0
 10
158.4197379648684034
 20
177.0568995177744966
 30
0.0
  0
VERTEX
  5
29E7
  8
0
 10
158.1974349915979872
 20
177.2272421419619945
 30
0.0
  0
VERTEX
  5
29E8
  8
0
 10
157.9779520630835066
 20
177.5099506974219992
 30
0.0
  0
VERTEX
  5
29E9
  8
0
 10
157.7626787126062879
 20
177.9032370448111919
 30
0.0
  0
VERTEX
  5
29EA
  8
0
 10
157.5529709458349998
 20
178.404612690210314
 30
0.0
  0
VERTEX
  5
29EB
  8
0
 10
157.3501586914061079
 20
179.0109111368655022
 30
0.0
  0
VERTEX
  5
29EC
  8
0
 10
157.1555234491823967
 20
179.7182981297372919
 30
0.0
  0
VERTEX
  5
29ED
  8
0
 10
156.9702945649621881
 20
180.5223005264996914
 30
0.0
  0
VERTEX
  5
29EE
  8
0
 10
156.7956417798995119
 20
181.4178351685403925
 30
0.0
  0
VERTEX
  5
29EF
  8
0
 10
156.6326752305029117
 20
182.399241477250996
 30
0.0
  0
VERTEX
  5
29F0
  8
0
 10
156.4824193716048057
 20
183.4603131189942076
 30
0.0
  0
VERTEX
  5
29F1
  8
0
 10
156.3458278775214012
 20
184.5943427085875896
 30
0.0
  0
VERTEX
  5
29F2
  8
0
 10
156.2237612903116997
 20
185.7941599935292913
 30
0.0
  0
VERTEX
  5
29F3
  8
0
 10
156.1169944703578096
 20
187.0521793514488991
 30
0.0
  0
VERTEX
  5
29F4
  8
0
 10
156.0261979699133121
 20
188.3604482188819986
 30
0.0
  0
VERTEX
  5
29F5
  8
0
 10
155.9519492089746961
 20
189.7106936573981955
 30
0.0
  0
VERTEX
  5
29F6
  8
0
 10
155.8947212994096958
 20
191.0943800956009966
 30
0.0
  0
VERTEX
  5
29F7
  8
0
 10
155.8548681437968071
 20
192.5027591548860073
 30
0.0
  0
VERTEX
  5
29F8
  8
0
 10
155.8326430618762117
 20
193.9269264601171017
 30
0.0
  0
VERTEX
  5
29F9
  8
0
 10
155.8281913399694929
 20
195.3578780428505866
 30
0.0
  0
VERTEX
  5
29FA
  8
0
 10
155.8415390551089104
 20
196.7865670938043934
 30
0.0
  0
VERTEX
  5
29FB
  8
0
 10
155.8726042509078127
 20
198.2039608899503094
 30
0.0
  0
VERTEX
  5
29FC
  8
0
 10
155.9211820363996992
 20
199.601098187267695
 30
0.0
  0
VERTEX
  5
29FD
  8
0
 10
155.9869743883608066
 20
200.9691458567976952
 30
0.0
  0
VERTEX
  5
29FE
  8
0
 10
156.0695603489874088
 20
202.2994544729590132
 30
0.0
  0
VERTEX
  5
29FF
  8
0
 10
156.1684221029279911
 20
203.5836132615804104
 30
0.0
  0
VERTEX
  5
2A00
  8
0
 10
156.2829263508317865
 20
204.8135048151015951
 30
0.0
  0
VERTEX
  5
2A01
  8
0
 10
156.4123615622519026
 20
205.9813516587018967
 30
0.0
  0
VERTEX
  5
2A02
  8
0
 10
156.5558969974516117
 20
207.0797702670097067
 30
0.0
  0
VERTEX
  5
2A03
  8
0
 10
156.7126311361787998
 20
208.1018176302312952
 30
0.0
  0
VERTEX
  5
2A04
  8
0
 10
156.8815767765044029
 20
209.0410303696990013
 30
0.0
  0
VERTEX
  5
2A05
  8
0
 10
157.061657309531995
 20
209.8914713039993956
 30
0.0
  0
VERTEX
  5
2A06
  8
0
 10
157.2517402470110142
 20
210.6477639079093933
 30
0.0
  0
VERTEX
  5
2A07
  8
0
 10
157.4506223201750004
 20
211.3051249086855989
 30
0.0
  0
VERTEX
  5
2A08
  8
0
 10
157.6570443809031019
 20
211.859401538968001
 30
0.0
  0
VERTEX
  5
2A09
  8
0
 10
157.8697025775908003
 20
212.3070864379405975
 30
0.0
  0
VERTEX
  5
2A0A
  8
0
 10
158.087255805730706
 20
212.6453521102666002
 30
0.0
  0
VERTEX
  5
2A0B
  8
0
 10
158.3083219826220045
 20
212.8720565140247061
 30
0.0
  0
VERTEX
  5
2A0C
  8
0
 10
158.5315078496932131
 20
212.9857672750949007
 30
0.0
  0
VERTEX
  5
2A0D
  8
0
 10
158.7554052472113995
 20
212.9857672750949007
 30
0.0
  0
VERTEX
  5
2A0E
  8
0
 10
158.978591114282608
 20
212.8720565140247061
 30
0.0
  0
VERTEX
  5
2A0F
  8
0
 10
159.1996572911739065
 20
212.6453521102666002
 30
0.0
  0
VERTEX
  5
2A10
  8
0
 10
159.4172105193138123
 20
212.3070864379405975
 30
0.0
  0
VERTEX
  5
2A11
  8
0
 10
159.6298687160015106
 20
211.859401538968001
 30
0.0
  0
VERTEX
  5
2A12
  8
0
 10
159.8362907767296122
 20
211.3051249086855989
 30
0.0
  0
VERTEX
  5
2A13
  8
0
 10
160.0351728498935131
 20
210.6477639079093933
 30
0.0
  0
VERTEX
  5
2A14
  8
0
 10
160.2252557873725891
 20
209.8914713039993956
 30
0.0
  0
VERTEX
  5
2A15
  8
0
 10
160.4053400456905081
 20
209.0410303696990013
 30
0.0
  0
VERTEX
  5
2A16
  8
0
 10
160.4133121669291882
 20
208.9999990910291103
 30
0.0
  0
SEQEND
  5
2A17
  8
0
  0
POLYLINE
  5
20A3
  8
0
 66
     1
 10
0.0
 20
0.0
 30
0.0
 70
   128
  0
VERTEX
  5
2A18
  8
0
 10
160.4133121669291882
 20
180.9999982267617895
 30
0.0
  0
VERTEX
  5
2A19
  8
0
 10
160.3166185319423107
 20
180.5223005264996914
 30
0.0
  0
VERTEX
  5
2A1A
  8
0
 10
160.1313896477221874
 20
179.7182981297372919
 30
0.0
  0
VERTEX
  5
2A1B
  8
0
 10
159.9367544054985046
 20
179.0109111368655022
 30
0.0
  0
VERTEX
  5
2A1C
  8
0
 10
159.7339421510696127
 20
178.404612690210314
 30
0.0
  0
VERTEX
  5
2A1D
  8
0
 10
159.5242343842982962
 20
177.9032370448111919
 30
0.0
  0
VERTEX
  5
2A1E
  8
0
 10
159.308961033821106
 20
177.5099506974219992
 30
0.0
  0
VERTEX
  5
2A1F
  8
0
 10
159.0894781053065969
 20
177.2272421419619945
 30
0.0
  0
VERTEX
  5
2A20
  8
0
 10
158.8671751320362091
 20
177.0568995177744966
 30
0.0
  0
VERTEX
  5
2A21
  8
0
 10
158.6434565484522068
 20
176.9999994337557894
 30
0.0
  0
SEQEND
  5
2A22
  8
0
  0
POLYLINE
  5
20A4
  8
0
 66
     1
 10
0.0
 20
0.0
 30
0.0
 70
   128
  0
VERTEX
  5
2A23
  8
0
 10
158.6434565484522068
 20
180.9999982267617895
 30
0.0
  0
VERTEX
  5
2A24
  8
0
 10
158.5451982915400038
 20
181.0140956565736872
 30
0.0
  0
VERTEX
  5
2A25
  8
0
 10
158.3494752645491133
 20
181.1267018690705015
 30
0.0
  0
VERTEX
  5
2A26
  8
0
 10
158.1561177968976892
 20
181.3510081171988872
 30
0.0
  0
VERTEX
  5
2A27
  8
0
 10
157.9666830599306877
 20
181.685207635164204
 30
0.0
  0
VERTEX
  5
2A28
  8
0
 10
157.7826984226701938
 20
182.1266098320483025
 30
0.0
  0
VERTEX
  5
2A29
  8
0
 10
157.6056465506551945
 20
182.671660780906592
 30
0.0
  0
VERTEX
  5
2A2A
  8
0
 10
157.4369467794894035
 20
183.3159730210900022
 30
0.0
  0
VERTEX
  5
2A2B
  8
0
 10
157.2779625654218876
 20
184.0543581545352083
 30
0.0
  0
VERTEX
  5
2A2C
  8
0
 10
157.1299716830251896
 20
184.8808706179260923
 30
0.0
  0
VERTEX
  5
2A2D
  8
0
 10
156.9941699504850874
 20
185.7888561114667993
 30
0.0
  0
VERTEX
  5
2A2E
  8
0
 10
156.871641427278405
 20
186.7710046842693998
 30
0.0
  0
VERTEX
  5
2A2F
  8
0
 10
156.7633844912051018
 20
187.8194089420138937
 30
0.0
  0
VERTEX
  5
2A30
  8
0
 10
156.670259684324094
 20
188.9256264455615906
 30
0.0
  0
VERTEX
  5
2A31
  8
0
 10
156.59302696585641
 20
190.0807509571313005
 30
0.0
  0
VERTEX
  5
2A32
  8
0
 10
156.5322972834109123
 20
191.275482755154286
 30
0.0
  0
VERTEX
  5
2A33
  8
0
 10
156.4885698258875095
 20
192.5002022087574005
 30
0.0
  0
VERTEX
  5
2A34
  8
0
 10
156.4621910452841007
 20
193.7450483581050946
 30
0.0
  0
VERTEX
  5
2A35
  8
0
 10
156.4533732831476982
 20
194.9999986588954073
 30
0.0
  0
SEQEND
  5
2A36
  8
0
  0
POLYLINE
  5
20A5
  8
0
 66
     1
 10
0.0
 20
0.0
 30
0.0
 70
   128
  0
VERTEX
  5
2A37
  8
0
 10
156.4533732831476982
 20
194.9999986588954073
 30
0.0
  0
VERTEX
  5
2A38
  8
0
 10
156.4621910452841007
 20
196.2549489596858052
 30
0.0
  0
VERTEX
  5
2A39
  8
0
 10
156.4885698258875095
 20
197.4997951090334993
 30
0.0
  0
VERTEX
  5
2A3A
  8
0
 10
156.5322972834109123
 20
198.7245145626366138
 30
0.0
  0
VERTEX
  5
2A3B
  8
0
 10
156.59302696585641
 20
199.919246360659514
 30
0.0
  0
VERTEX
  5
2A3C
  8
0
 10
156.670259684324094
 20
201.0743708722293093
 30
0.0
  0
VERTEX
  5
2A3D
  8
0
 10
156.7633844912051018
 20
202.1805883757770061
 30
0.0
  0
VERTEX
  5
2A3E
  8
0
 10
156.871641427278405
 20
203.2289926335215
 30
0.0
  0
VERTEX
  5
2A3F
  8
0
 10
156.9941699504850874
 20
204.2111412063241005
 30
0.0
  0
VERTEX
  5
2A40
  8
0
 10
157.1299716830251896
 20
205.1191266998648075
 30
0.0
  0
VERTEX
  5
2A41
  8
0
 10
157.2779625654218876
 20
205.9456391632556915
 30
0.0
  0
VERTEX
  5
2A42
  8
0
 10
157.4369467794894035
 20
206.6840242967008976
 30
0.0
  0
VERTEX
  5
2A43
  8
0
 10
157.6056465506551945
 20
207.3283365368843079
 30
0.0
  0
VERTEX
  5
2A44
  8
0
 10
157.7826984226701938
 20
207.8733874857425121
 30
0.0
  0
VERTEX
  5
2A45
  8
0
 10
157.9666830599306877
 20
208.3147896826266958
 30
0.0
  0
VERTEX
  5
2A46
  8
0
 10
158.1561177968976892
 20
208.6489892005920126
 30
0.0
  0
VERTEX
  5
2A47
  8
0
 10
158.3494752645491133
 20
208.8732954487203983
 30
0.0
  0
VERTEX
  5
2A48
  8
0
 10
158.5451982915400038
 20
208.9859016612172127
 30
0.0
  0
VERTEX
  5
2A49
  8
0
 10
158.6434565484522068
 20
208.9999990910291103
 30
0.0
  0
SEQEND
  5
2A4A
  8
0
  0
POLYLINE
  5
20A6
  8
0
 66
     1
 10
0.0
 20
0.0
 30
0.0
 70
   128
  0
VERTEX
  5
2A4B
  8
0
 10
164.5695868879556087
 20
180.9999982267617895
 30
0.0
  0
VERTEX
  5
2A4C
  8
0
 10
164.3732696771621136
 20
181.0563581436871914
 30
0.0
  0
VERTEX
  5
2A4D
  8
0
 10
164.1785319894551947
 20
181.2249843403695877
 30
0.0
  0
VERTEX
  5
2A4E
  8
0
 10
163.9869440346955969
 20
181.5045189484953028
 30
0.0
  0
VERTEX
  5
2A4F
  8
0
 10
163.8000462204217911
 20
181.8927100300788027
 30
0.0
  0
VERTEX
  5
2A50
  8
0
 10
163.6193454265593914
 20
182.3864348605274017
 30
0.0
  0
VERTEX
  5
2A51
  8
0
 10
163.4462945163249969
 20
182.9817157611250025
 30
0.0
  0
VERTEX
  5
2A52
  8
0
 10
163.2822886109352112
 20
183.6737610772250946
 30
0.0
  0
VERTEX
  5
2A53
  8
0
 10
163.1286464631556896
 20
184.4569977745412928
 30
0.0
  0
VERTEX
  5
2A54
  8
0
 10
162.9866048693656921
 20
185.3251217305659964
 30
0.0
  0
VERTEX
  5
2A55
  8
0
 10
162.8573112189768892
 20
186.2711415067313965
 30
0.0
  0
VERTEX
  5
2A56
  8
0
 10
162.7418011426925091
 20
187.2874407470226004
 30
0.0
  0
VERTEX
  5
2A57
  8
0
 10
162.6410096883772951
 20
188.3658373169600111
 30
0.0
  0
VERTEX
  5
2A58
  8
0
 10
162.5557452440262125
 20
189.4976480305194002
 30
0.0
  0
VERTEX
  5
2A59
  8
0
 10
162.486693263053894
 20
190.6737608276307014
 30
0.0
  0
VERTEX
  5
2A5A
  8
0
 10
162.4344125390051943
 20
191.8847055546939089
 30
0.0
  0
VERTEX
  5
2A5B
  8
0
 10
162.3993240296840099
 20
193.120732894167304
 30
0.0
  0
VERTEX
  5
2A5C
  8
0
 10
162.3817108571529104
 20
194.3718910240567936
 30
0.0
  0
VERTEX
  5
2A5D
  8
0
 10
162.3817108571529104
 20
195.6281062937341062
 30
0.0
  0
VERTEX
  5
2A5E
  8
0
 10
162.3993240296840099
 20
196.8792644236235958
 30
0.0
  0
VERTEX
  5
2A5F
  8
0
 10
162.4344125390051943
 20
198.115291763096991
 30
0.0
  0
VERTEX
  5
2A60
  8
0
 10
162.486693263053894
 20
199.3262364901601984
 30
0.0
  0
VERTEX
  5
2A61
  8
0
 10
162.5557452440262125
 20
200.5023492872714996
 30
0.0
  0
VERTEX
  5
2A62
  8
0
 10
162.6410096883772951
 20
201.6341600008308035
 30
0.0
  0
VERTEX
  5
2A63
  8
0
 10
162.7418011426925091
 20
202.7125565707682995
 30
0.0
  0
VERTEX
  5
2A64
  8
0
 10
162.8573112189768892
 20
203.7288558110593897
 30
0.0
  0
VERTEX
  5
2A65
  8
0
 10
162.9866048693656921
 20
204.6748755872249035
 30
0.0
  0
VERTEX
  5
2A66
  8
0
 10
163.1286464631556896
 20
205.5429995432496071
 30
0.0
  0
VERTEX
  5
2A67
  8
0
 10
163.2822886109352112
 20
206.3262362405656916
 30
0.0
  0
VERTEX
  5
2A68
  8
0
 10
163.4462945163249969
 20
207.0182815566658974
 30
0.0
  0
VERTEX
  5
2A69
  8
0
 10
163.6193454265593914
 20
207.6135624572634129
 30
0.0
  0
VERTEX
  5
2A6A
  8
0
 10
163.8000462204217911
 20
208.1072872877120972
 30
0.0
  0
VERTEX
  5
2A6B
  8
0
 10
163.9869440346955969
 20
208.4954783692955971
 30
0.0
  0
VERTEX
  5
2A6C
  8
0
 10
164.1785319894551947
 20
208.7750129774211985
 30
0.0
  0
VERTEX
  5
2A6D
  8
0
 10
164.3732696771621136
 20
208.9436391741037085
 30
0.0
  0
VERTEX
  5
2A6E
  8
0
 10
164.5695868879556087
 20
208.9999990910291103
 30
0.0
  0
VERTEX
  5
2A6F
  8
0
 10
164.7659040987491039
 20
208.9436391741037085
 30
0.0
  0
VERTEX
  5
2A70
  8
0
 10
164.9606417864561081
 20
208.7750129774211985
 30
0.0
  0
VERTEX
  5
2A71
  8
0
 10
165.1522297412157059
 20
208.4954783692955971
 30
0.0
  0
VERTEX
  5
2A72
  8
0
 10
165.3391275554895117
 20
208.1072872877120972
 30
0.0
  0
VERTEX
  5
2A73
  8
0
 10
165.5198283493519114
 20
207.6135624572634129
 30
0.0
  0
VERTEX
  5
2A74
  8
0
 10
165.6928792595863058
 20
207.0182815566658974
 30
0.0
  0
VERTEX
  5
2A75
  8
0
 10
165.8568851649760916
 20
206.3262362405656916
 30
0.0
  0
VERTEX
  5
2A76
  8
0
 10
166.0105273127556131
 20
205.5429995432496071
 30
0.0
  0
VERTEX
  5
2A77
  8
0
 10
166.1525670439004898
 20
204.6748755872249035
 30
0.0
  0
VERTEX
  5
2A78
  8
0
 10
166.2818625569342998
 20
203.7288558110593897
 30
0.0
  0
VERTEX
  5
2A79
  8
0
 10
166.3973707705735876
 20
202.7125565707682995
 30
0.0
  0
VERTEX
  5
2A7A
  8
0
 10
166.498164087533894
 20
201.6341600008308035
 30
0.0
  0
VERTEX
  5
2A7B
  8
0
 10
166.5834285318850903
 20
200.5023492872714996
 30
0.0
  0
VERTEX
  5
2A7C
  8
0
 10
166.6152331978082088
 20
199.9999985471366983
 30
0.0
  0
SEQEND
  5
2A7D
  8
0
  0
POLYLINE
  5
20A7
  8
0
 66
     1
 10
0.0
 20
0.0
 30
0.0
 70
   128
  0
VERTEX
  5
2A7E
  8
0
 10
166.6152331978082088
 20
189.9999987706540878
 30
0.0
  0
VERTEX
  5
2A7F
  8
0
 10
166.5834285318850903
 20
189.4976480305194002
 30
0.0
  0
VERTEX
  5
2A80
  8
0
 10
166.498164087533894
 20
188.3658373169600111
 30
0.0
  0
VERTEX
  5
2A81
  8
0
 10
166.3973707705735876
 20
187.2874407470226004
 30
0.0
  0
VERTEX
  5
2A82
  8
0
 10
166.2818625569342998
 20
186.2711415067313965
 30
0.0
  0
VERTEX
  5
2A83
  8
0
 10
166.1525670439004898
 20
185.3251217305659964
 30
0.0
  0
VERTEX
  5
2A84
  8
0
 10
166.0105273127556131
 20
184.4569977745412928
 30
0.0
  0
VERTEX
  5
2A85
  8
0
 10
165.8568851649760916
 20
183.6737610772250946
 30
0.0
  0
VERTEX
  5
2A86
  8
0
 10
165.6928792595863058
 20
182.9817157611250025
 30
0.0
  0
VERTEX
  5
2A87
  8
0
 10
165.5198283493519114
 20
182.3864348605274017
 30
0.0
  0
VERTEX
  5
2A88
  8
0
 10
165.3391275554895117
 20
181.8927100300788027
 30
0.0
  0
VERTEX
  5
2A89
  8
0
 10
165.1522297412157059
 20
181.5045189484953028
 30
0.0
  0
VERTEX
  5
2A8A
  8
0
 10
164.9606417864561081
 20
181.2249843403695877
 30
0.0
  0
VERTEX
  5
2A8B
  8
0
 10
164.7659040987491039
 20
181.0563581436871914
 30
0.0
  0
VERTEX
  5
2A8C
  8
0
 10
164.5695868879556087
 20
180.9999982267617895
 30
0.0
  0
SEQEND
  5
2A8D
  8
0
  0
POLYLINE
  5
20A9
  8
0
 66
     1
 10
0.0
 20
0.0
 30
0.0
 70
   128
  0
VERTEX
  5
2A8E
  8
0
 10
164.5695868879556087
 20
189.9999987706540878
 30
0.0
  0
VERTEX
  5
2A8F
  8
0
 10
164.450189471244812
 20
190.0585966557264044
 30
0.0
  0
VERTEX
  5
2A90
  8
0
 10
164.3335897475481033
 20
190.233016610145512
 30
0.0
  0
VERTEX
  5
2A91
  8
0
 10
164.2225220799446106
 20
190.5191710591315939
 30
0.0
  0
VERTEX
  5
2A92
  8
0
 10
164.1195885837078094
 20
190.9103516861796095
 30
0.0
  0
VERTEX
  5
2A93
  8
0
 10
164.0272032469511032
 20
191.3973907846956877
 30
0.0
  0
VERTEX
  5
2A94
  8
0
 10
163.9475304633378983
 20
191.9688715040682894
 30
0.0
  0
VERTEX
  5
2A95
  8
0
 10
163.882438465952788
 20
192.6113995630294085
 30
0.0
  0
VERTEX
  5
2A96
  8
0
 10
163.8334527611731914
 20
193.3099143113940102
 30
0.0
  0
VERTEX
  5
2A97
  8
0
 10
163.8017226010560989
 20
194.0480430983006102
 30
0.0
  0
VERTEX
  5
2A98
  8
0
 10
163.7879893183707907
 20
194.8084849916631072
 30
0.0
  0
VERTEX
  5
2A99
  8
0
 10
163.7925751507281973
 20
195.5734157725237026
 30
0.0
  0
VERTEX
  5
2A9A
  8
0
 10
163.8153739273548126
 20
196.3249061862005931
 30
0.0
  0
VERTEX
  5
2A9B
  8
0
 10
163.8558510690926937
 20
197.0453418232499985
 30
0.0
  0
VERTEX
  5
2A9C
  8
0
 10
163.9130584895609957
 20
197.7178363502025036
 30
0.0
  0
VERTEX
  5
2A9D
  8
0
 10
163.9856532216072083
 20
198.3266272488980917
 30
0.0
  0
VERTEX
  5
2A9E
  8
0
 10
164.0719365328550055
 20
198.8574445620178892
 30
0.0
  0
VERTEX
  5
2A9F
  8
0
 10
164.1698818653821945
 20
199.2978465184569075
 30
0.0
  0
VERTEX
  5
2AA0
  8
0
 10
164.2771981656551077
 20
199.637511037290011
 30
0.0
  0
VERTEX
  5
2AA1
  8
0
 10
164.3913652747868923
 20
199.8684757761656954
 30
0.0
  0
VERTEX
  5
2AA2
  8
0
 10
164.5097121596336081
 20
199.9853278882800964
 30
0.0
  0
VERTEX
  5
2AA3
  8
0
 10
164.5695868879556087
 20
199.9999985471366983
 30
0.0
  0
SEQEND
  5
2AA4
  8
0
  0
CIRCLE
  5
20AC
  8
0
 10
194.8092304170131115
 20
194.9999986588954073
 30
0.0
 40
4.25
  0
CIRCLE
  5
20AD
  8
3
 10
194.8092304170131115
 20
194.9999986588954073
 30
0.0
 40
5.0
  0
CIRCLE
  5
20AF
  8
0
 10
194.8092304170131115
 20
194.9999986588954073
 30
0.0
 40
11.0
  0
CIRCLE
  5
20B0
  8
0
 10
194.8092304170131115
 20
194.9999986588954073
 30
0.0
 40
21.0
  0
LINE
  5
23A1
  8
1
 10
220.8092304170131968
 20
194.9999986588954073
 30
0.0
 11
137.0016436765733943
 21
194.9999986588954073
 31
0.0
  0
LINE
  5
23A2
  8
1
 10
194.8092304170131115
 20
220.9999986588954926
 30
0.0
 11
194.8092304170131115
 21
168.9999986588954073
 31
0.0
  0
LINE
  5
23B2
  8
3
 10
164.145468753286309
 20
190.8119986588953907
 30
0.0
 11
174.2310707325322028
 21
190.8119986588953907
 31
0.0
  0
LINE
  5
23B3
  8
3
 10
164.1454517170259919
 20
199.1879986588955944
 30
0.0
 11
174.2310707325322028
 21
199.1879986588955092
 31
0.0
  0
LINE
  5
23CA
  8
2
 10
185.8092304170131968
 20
70.7999999999999687
 30
0.0
 11
203.8092304170131115
 21
70.7999999999999687
 31
0.0
  0
LINE
  5
249A
  8
2
 10
199.05923064798111
 20
102.7009632584582022
 30
0.0
 11
199.8092304170131968
 21
104.0
 31
0.0
  0
LINE
  5
249B
  8
2
 10
190.559230186045113
 20
102.7009632584582022
 30
0.0
 11
189.8092304170131115
 21
104.0
 31
0.0
  0
LINE
  5
24A9
  8
0
 10
183.8092304766178131
 20
123.5000013709068014
 30
0.0
 11
205.8092303574084951
 21
123.5000013709068014
 31
0.0
  0
LINE
  5
24AA
  8
0
 10
173.8092307001352026
 20
112.9999987185000947
 30
0.0
 11
215.8092301338911057
 21
112.9999987185000947
 31
0.0
  0
LINE
  5
24AC
  8
0
 10
173.8092307001352026
 20
65.0000000474974797
 30
0.0
 11
215.8092301338911057
 21
65.0000000474974229
 31
0.0
  0
LINE
  5
24B1
  8
2
 10
189.8092304170131968
 20
70.0000000521540358
 30
0.0
 11
189.8092304170131968
 21
63.9999999999999716
 31
0.0
  0
LINE
  5
24B2
  8
2
 10
190.6212304170132938
 20
66.9999995678663254
 30
0.0
 11
190.6212304170132938
 21
63.9999999999999716
 31
0.0
  0
LINE
  5
24B3
  8
2
 10
198.9972304170136113
 20
66.9999995678662543
 30
0.0
 11
198.9972304170136113
 21
63.9999999999999716
 31
0.0
  0
LINE
  5
24B4
  8
2
 10
199.8092304170133957
 20
70.0000000521540358
 30
0.0
 11
199.8092304170133104
 21
63.9999999999999716
 31
0.0
  0
LINE
  5
2574
  8
2
 10
190.6212304170130949
 20
66.9999995678662401
 30
0.0
 11
189.8092304170131968
 21
68.4064248236120136
 31
0.0
  0
LINE
  5
2575
  8
2
 10
198.9972304170134123
 20
66.9999995678662401
 30
0.0
 11
199.8092304170133104
 21
68.4064248236120136
 31
0.0
  0
LINE
  5
2576
  8
2
 10
199.8092304170133104
 20
66.9999995678662401
 30
0.0
 11
189.8092304170131968
 21
66.9999995678663538
 31
0.0
  0
LINE
  5
25B5
  8
0
 10
74.499999716878051
 20
49.9999999999999716
 30
0.0
 11
67.499999716878051
 21
50.0000000000000284
 31
0.0
  0
LINE
  5
25B6
  8
0
 10
75.999999716878051
 20
51.4999999999999076
 30
0.0
 11
74.499999716878051
 21
49.9999999999999716
 31
0.0
  0
LINE
  5
25B7
  8
0
 10
67.499999716878051
 20
50.0000000000000284
 30
0.0
 11
65.999999716878051
 21
51.5000000000000284
 31
0.0
  0
LINE
  5
25B8
  8
0
 10
75.9999997168781647
 20
51.4999999999999076
 30
0.0
 11
65.9999997168781647
 21
51.5000000000000284
 31
0.0
  0
LINE
  5
25B9
  8
0
 10
65.999999716878051
 20
63.9999999999999716
 30
0.0
 11
65.999999716878051
 21
51.5000000000000284
 31
0.0
  0
LINE
  5
25BA
  8
3
 10
66.8119997168780628
 20
63.9999999999999076
 30
0.0
 11
66.8119997168780628
 21
50.6880000000000734
 31
0.0
  0
LINE
  5
25BB
  8
3
 10
75.1879997168782666
 20
64.0000000000000284
 30
0.0
 11
75.1879997168781529
 21
50.6880000000000166
 31
0.0
  0
LINE
  5
25BC
  8
0
 10
75.9999997168781647
 20
63.9999999999999716
 30
0.0
 11
75.999999716878051
 21
51.4999999999999076
 31
0.0
  0
LINE
  5
25DE
  8
0
 10
81.499999575316906
 20
123.9999986588953931
 30
0.0
 11
60.4999998584389616
 21
123.9999986588953931
 31
0.0
  0
LINE
  5
25E4
  8
0
 10
59.9999997764825821
 20
123.5000013709068014
 30
0.0
 11
59.9999997764825821
 21
114.0000007450580028
 31
0.0
  0
LINE
  5
25E5
  8
0
 10
60.4999998584389616
 20
123.9999986588953931
 30
0.0
 11
59.9999997764825821
 21
123.5000013709068014
 31
0.0
  0
LINE
  5
25E6
  8
0
 10
81.9999996572732925
 20
114.0000007450580028
 30
0.0
 11
81.9999996572732925
 21
123.5000013709068014
 31
0.0
  0
LINE
  5
25EC
  8
0
 10
81.9999996572732925
 20
123.5000013709068014
 30
0.0
 11
81.499999575316906
 21
123.9999986588953931
 31
0.0
  0
LINE
  5
25F1
  8
0
 10
91.9999994337558746
 20
112.9999987185000947
 30
0.0
 11
91.9999994337558746
 21
65.0000000474974229
 31
0.0
  0
LINE
  5
25F2
  8
0
 10
50.0
 20
65.0000000474974797
 30
0.0
 11
50.0
 21
112.9999987185000947
 31
0.0
  0
LINE
  5
25F5
  8
0
 10
51.0000001639127731
 20
63.9999999999999716
 30
0.0
 11
50.0
 21
65.0000000474974229
 31
0.0
  0
LINE
  5
25F6
  8
0
 10
91.9999994337558746
 20
65.0000000474974229
 30
0.0
 11
90.9999992698431015
 21
63.9999999999999716
 31
0.0
  0
LINE
  5
25F8
  8
0
 10
51.0000001639127731
 20
114.0000007450580028
 30
0.0
 11
90.9999992698431015
 21
114.0000007450580028
 31
0.0
  0
LINE
  5
25F9
  8
0
 10
90.9999992698431015
 20
114.0000007450580028
 30
0.0
 11
91.9999994337558746
 21
112.9999987185000947
 31
0.0
  0
LINE
  5
25FA
  8
0
 10
90.9999992698431015
 20
63.9999999999999716
 30
0.0
 11
51.0000001639128797
 21
63.9999999999999716
 31
0.0
  0
LINE
  5
25FB
  8
0
 10
50.0
 20
112.9999987185000947
 30
0.0
 11
51.0000001639127731
 21
114.0000007450580028
 31
0.0
  0
LINE
  5
25FF
  8
1
 10
70.9999997168778236
 20
128.9999986588954073
 30
0.0
 11
70.9999997168779231
 21
45.0
 31
0.0
  0
LINE
  5
2605
  8
0
 10
59.9999997764825821
 20
123.5000013709068014
 30
0.0
 11
81.9999996572732925
 21
123.5000013709068014
 31
0.0
  0
LINE
  5
2606
  8
0
 10
50.0
 20
112.9999987185000947
 30
0.0
 11
67.1319417275431647
 21
112.9999987185000947
 31
0.0
  0
LINE
  5
2607
  8
0
 10
50.0
 20
65.0000000474974797
 30
0.0
 11
91.9999994337558746
 21
65.0000000474974229
 31
0.0
  0
LINE
  5
2649
  8
0
 10
65.999999716878051
 20
94.659370649887137
 30
0.0
 11
65.999999716878051
 21
94.5811534173670054
 31
0.0
  0
LINE
  5
264A
  8
0
 10
75.999999716878051
 20
94.5811534173672754
 30
0.0
 11
75.999999716878051
 21
94.6593706498873928
 31
0.0
  0
LINE
  5
264B
  8
0
 10
88.9999997168781647
 20
93.4078949295658845
 30
0.0
 11
88.999999716878051
 21
95.5979774401290854
 31
0.0
  0
LINE
  5
264C
  8
0
 10
52.999999716878051
 20
95.5979774401281759
 30
0.0
 11
52.9999997168781007
 21
93.4078949295649466
 31
0.0
  0
CIRCLE
  5
2659
  8
0
 10
70.9938883827838936
 20
94.5385887295506961
 30
0.0
 40
4.9810101398728959
  0
CIRCLE
  5
265A
  8
0
 10
70.9945974239498128
 20
94.390588132823666
 30
0.0
 40
3.9848878438164959
  0
LINE
  5
265B
  8
0
 10
72.4433753898521218
 20
91.9554981008390655
 30
0.0
 11
69.5566240439040371
 21
91.9554981008390655
 31
0.0
  0
LINE
  5
265C
  8
0
 10
72.4433753898521218
 20
91.9554981008390655
 30
0.0
 11
73.8867510628261925
 21
94.4247189523268986
 31
0.0
  0
LINE
  5
265D
  8
0
 10
72.4433753898521218
 20
96.8939398038147601
 30
0.0
 11
73.8867510628261925
 21
94.4247189523268986
 31
0.0
  0
LINE
  5
265E
  8
0
 10
72.4433753898521218
 20
96.8939398038147601
 30
0.0
 11
69.5566240439039802
 21
96.8939398038147459
 31
0.0
  0
LINE
  5
265F
  8
0
 10
69.5566240439039802
 20
96.8939398038147459
 30
0.0
 11
68.1132483709299663
 21
94.4247189523268844
 31
0.0
  0
LINE
  5
2660
  8
0
 10
69.5566240439040371
 20
91.9554981008390655
 30
0.0
 11
68.1132483709299663
 21
94.4247189523268844
 31
0.0
  0
POLYLINE
  5
2668
  8
0
 66
     1
 10
0.0
 20
0.0
 30
0.0
 70
   128
  0
VERTEX
  5
2AA5
  8
0
 10
85.9999997168781647
 20
93.4078949295654439
 30
0.0
  0
VERTEX
  5
2AA6
  8
0
 10
85.9429201882542202
 20
94.6991355934820547
 30
0.0
  0
VERTEX
  5
2AA7
  8
0
 10
85.772116012061133
 20
95.9805491362737655
 30
0.0
  0
VERTEX
  5
2AA8
  8
0
 10
85.488887111214126
 20
97.2423832271413744
 30
0.0
  0
VERTEX
  5
2AA9
  8
0
 10
85.095389028666645
 20
98.4750345467370778
 30
0.0
  0
VERTEX
  5
2AAA
  8
0
 10
84.5946165224278275
 20
99.6691218742235918
 30
0.0
  0
VERTEX
  5
2AAB
  8
0
 10
83.9903807736445742
 20
100.8155574840290001
 30
0.0
  0
VERTEX
  5
2AAC
  8
0
 10
83.287280381212895
 20
101.9056163089259996
 30
0.0
  0
VERTEX
  5
2AAD
  8
0
 10
82.49066636366274
 20
102.931002343061607
 30
0.0
  0
VERTEX
  5
2AAE
  8
0
 10
81.6066014346762358
 20
103.8839117795710933
 30
0.0
  0
VERTEX
  5
2AAF
  8
0
 10
80.64181386217615
 20
104.7570924022600991
 30
0.0
  0
VERTEX
  5
2AB0
  8
0
 10
79.603646262143684
 20
105.5438987793491066
 30
0.0
  0
VERTEX
  5
2AB1
  8
0
 10
78.499999716878051
 20
106.2383428392217013
 30
0.0
  0
VERTEX
  5
2AB2
  8
0
 10
77.3392736429884735
 20
106.8351394432656036
 30
0.0
  0
VERTEX
  5
2AB3
  8
0
 10
76.130301866763034
 20
107.3297466089684065
 30
0.0
  0
VERTEX
  5
2AB4
  8
0
 10
74.8822853934158275
 20
107.7184000771469954
 30
0.0
  0
VERTEX
  5
2AB5
  8
0
 10
73.6047223818819703
 20
107.9981419602331982
 30
0.0
  0
VERTEX
  5
2AB6
  8
0
 10
72.3073358580928698
 20
108.1668432535841049
 30
0.0
  0
VERTEX
  5
2AB7
  8
0
 10
70.9999997168779942
 20
108.2232200384924994
 30
0.0
  0
VERTEX
  5
2AB8
  8
0
 10
69.6926635756631043
 20
108.1668432535840054
 30
0.0
  0
VERTEX
  5
2AB9
  8
0
 10
68.3952770518740181
 20
107.9981419602331982
 30
0.0
  0
VERTEX
  5
2ABA
  8
0
 10
67.1177140403401609
 20
107.7184000771468959
 30
0.0
  0
VERTEX
  5
2ABB
  8
0
 10
65.8696975669929543
 20
107.329746608968307
 30
0.0
  0
VERTEX
  5
2ABC
  8
0
 10
64.6607257907675148
 20
106.8351394432655042
 30
0.0
  0
VERTEX
  5
2ABD
  8
0
 10
63.4999997168779871
 20
106.2383428392216018
 30
0.0
  0
VERTEX
  5
2ABE
  8
0
 10
62.3963531716122972
 20
105.5438987793490071
 30
0.0
  0
VERTEX
  5
2ABF
  8
0
 10
61.3581855715798881
 20
104.7570924022599996
 30
0.0
  0
VERTEX
  5
2AC0
  8
0
 10
60.3933979990798093
 20
103.8839117795709939
 30
0.0
  0
VERTEX
  5
2AC1
  8
0
 10
59.509333070093362
 20
102.9310023430614933
 30
0.0
  0
VERTEX
  5
2AC2
  8
0
 10
58.7127190525431502
 20
101.9056163089259002
 30
0.0
  0
VERTEX
  5
2AC3
  8
0
 10
58.009618660111407
 20
100.8155574840288011
 30
0.0
  0
VERTEX
  5
2AC4
  8
0
 10
57.4053829113282674
 20
99.6691218742234071
 30
0.0
  0
VERTEX
  5
2AC5
  8
0
 10
56.9046104050893931
 20
98.4750345467369215
 30
0.0
  0
VERTEX
  5
2AC6
  8
0
 10
56.5111123225420329
 20
97.2423832271412039
 30
0.0
  0
VERTEX
  5
2AC7
  8
0
 10
56.2278834216949122
 20
95.980549136273595
 30
0.0
  0
VERTEX
  5
2AC8
  8
0
 10
56.0570792455018818
 20
94.6991355934818557
 30
0.0
  0
VERTEX
  5
2AC9
  8
0
 10
55.999999716878051
 20
93.4078949295652592
 30
0.0
  0
VERTEX
  5
2ACA
  8
0
 10
56.0570792455018818
 20
92.1166542656486769
 30
0.0
  0
VERTEX
  5
2ACB
  8
0
 10
56.227883421694969
 20
90.835240722856966
 30
0.0
  0
VERTEX
  5
2ACC
  8
0
 10
56.5111123225420826
 20
89.5734066319893429
 30
0.0
  0
VERTEX
  5
2ACD
  8
0
 10
56.9046104050894925
 20
88.3407553123936253
 30
0.0
  0
VERTEX
  5
2ACE
  8
0
 10
57.4053829113283882
 20
87.1466679849071539
 30
0.0
  0
VERTEX
  5
2ACF
  8
0
 10
58.0096186601115775
 20
86.0002323751017457
 30
0.0
  0
VERTEX
  5
2AD0
  8
0
 10
58.7127190525433207
 20
84.9101735502046893
 30
0.0
  0
VERTEX
  5
2AD1
  8
0
 10
59.5093330700935326
 20
83.8847875160690961
 30
0.0
  0
VERTEX
  5
2AD2
  8
0
 10
60.3933979990799799
 20
82.931878079559624
 30
0.0
  0
VERTEX
  5
2AD3
  8
0
 10
61.3581855715801225
 20
82.0586974568706466
 30
0.0
  0
VERTEX
  5
2AD4
  8
0
 10
62.3963531716125317
 20
81.2718910797816534
 30
0.0
  0
VERTEX
  5
2AD5
  8
0
 10
63.4999997168782215
 20
80.577447019909016
 30
0.0
  0
VERTEX
  5
2AD6
  8
0
 10
64.6607257907677422
 20
79.9806504158651137
 30
0.0
  0
VERTEX
  5
2AD7
  8
0
 10
65.8696975669932385
 20
79.4860432501623677
 30
0.0
  0
VERTEX
  5
2AD8
  8
0
 10
67.1177140403404451
 20
79.097389781983793
 30
0.0
  0
VERTEX
  5
2AD9
  8
0
 10
68.3952770518743023
 20
78.8176478988975333
 30
0.0
  0
VERTEX
  5
2ADA
  8
0
 10
69.6926635756634028
 20
78.6489466055467119
 30
0.0
  0
VERTEX
  5
2ADB
  8
0
 10
70.9999997168782784
 20
78.5925698206383174
 30
0.0
  0
VERTEX
  5
2ADC
  8
0
 10
72.307335858093154
 20
78.6489466055467688
 30
0.0
  0
VERTEX
  5
2ADD
  8
0
 10
73.6047223818822545
 20
78.8176478988976044
 30
0.0
  0
VERTEX
  5
2ADE
  8
0
 10
74.8822853934161117
 20
79.0973897819839067
 30
0.0
  0
VERTEX
  5
2ADF
  8
0
 10
76.1303018667633182
 20
79.4860432501625098
 30
0.0
  0
VERTEX
  5
2AE0
  8
0
 10
77.3392736429887009
 20
79.9806504158652842
 30
0.0
  0
VERTEX
  5
2AE1
  8
0
 10
78.4999997168782784
 20
80.577447019909215
 30
0.0
  0
VERTEX
  5
2AE2
  8
0
 10
79.6036462621439114
 20
81.2718910797818666
 30
0.0
  0
VERTEX
  5
2AE3
  8
0
 10
80.6418138621763774
 20
82.058697456870874
 30
0.0
  0
VERTEX
  5
2AE4
  8
0
 10
81.6066014346764632
 20
82.9318780795599082
 30
0.0
  0
VERTEX
  5
2AE5
  8
0
 10
82.4906663636629673
 20
83.8847875160693945
 30
0.0
  0
VERTEX
  5
2AE6
  8
0
 10
83.2872803812131224
 20
84.9101735502050303
 30
0.0
  0
VERTEX
  5
2AE7
  8
0
 10
83.9903807736448016
 20
86.0002323751020441
 30
0.0
  0
VERTEX
  5
2AE8
  8
0
 10
84.5946165224279412
 20
87.1466679849075234
 30
0.0
  0
VERTEX
  5
2AE9
  8
0
 10
85.0953890286668866
 20
88.340755312394009
 30
0.0
  0
VERTEX
  5
2AEA
  8
0
 10
85.488887111214126
 20
89.5734066319897551
 30
0.0
  0
VERTEX
  5
2AEB
  8
0
 10
85.7721160120613462
 20
90.8352407228573497
 30
0.0
  0
VERTEX
  5
2AEC
  8
0
 10
85.9429201882543339
 20
92.116654265649089
 30
0.0
  0
VERTEX
  5
2AED
  8
0
 10
85.9999997168781647
 20
93.4078949295654439
 30
0.0
  0
SEQEND
  5
2AEE
  8
0
  0
POLYLINE
  5
2669
  8
0
 66
     1
 10
0.0
 20
0.0
 30
0.0
 70
   128
  0
VERTEX
  5
2AEF
  8
0
 10
88.9999997168781647
 20
93.4078949295654866
 30
0.0
  0
VERTEX
  5
2AF0
  8
0
 10
88.9430988191426195
 20
94.8203909939388723
 30
0.0
  0
VERTEX
  5
2AF1
  8
0
 10
88.7727558717321017
 20
96.2239568034110704
 30
0.0
  0
VERTEX
  5
2AF2
  8
0
 10
88.4900478376055162
 20
97.609718563027684
 30
0.0
  0
VERTEX
  5
2AF3
  8
0
 10
88.0967620879781492
 20
98.9689150407698151
 30
0.0
  0
VERTEX
  5
2AF4
  8
0
 10
87.5953851019858121
 20
100.2929529588838022
 30
0.0
  0
VERTEX
  5
2AF5
  8
0
 10
86.9890867463624318
 20
101.5734613233503012
 30
0.0
  0
VERTEX
  5
2AF6
  8
0
 10
86.2817002345225461
 20
102.802344348002805
 30
0.0
  0
VERTEX
  5
2AF7
  8
0
 10
85.4776978917518591
 20
103.9718326386953038
 30
0.0
  0
VERTEX
  5
2AF8
  8
0
 10
84.5821628797261837
 20
105.074532313913295
 30
0.0
  0
VERTEX
  5
2AF9
  8
0
 10
83.600757059127659
 20
106.1034717512731049
 30
0.0
  0
VERTEX
  5
2AFA
  8
0
 10
82.5396851935379345
 20
107.0521456643634934
 30
0.0
  0
VERTEX
  5
2AFB
  8
0
 10
81.4056557209253242
 20
107.9145562312608035
 30
0.0
  0
VERTEX
  5
2AFC
  8
0
 10
80.2058383407395468
 20
108.6852510146900954
 30
0.0
  0
VERTEX
  5
2AFD
  8
0
 10
78.9478186847643428
 20
109.3593574340898016
 30
0.0
  0
VERTEX
  5
2AFE
  8
0
 10
77.639550358310089
 20
109.932613571633695
 30
0.0
  0
VERTEX
  5
2AFF
  8
0
 10
76.2893046549605742
 20
110.4013951174487005
 30
0.0
  0
VERTEX
  5
2B00
  8
0
 10
74.9056182627917337
 20
110.7627382836683978
 30
0.0
  0
VERTEX
  5
2B01
  8
0
 10
73.4972392926812148
 20
111.0143585424539054
 30
0.0
  0
VERTEX
  5
2B02
  8
0
 10
72.0730719699347446
 20
111.1546650695149054
 30
0.0
  0
VERTEX
  5
2B03
  8
0
 10
70.6421203389066932
 20
111.1827708018128931
 30
0.0
  0
VERTEX
  5
2B04
  8
0
 10
69.2134313365328353
 20
111.0984980458588041
 30
0.0
  0
VERTEX
  5
2B05
  8
0
 10
67.7960375946820477
 20
110.9023796011493062
 30
0.0
  0
VERTEX
  5
2B06
  8
0
 10
66.3989003329494238
 20
110.5956553916362992
 30
0.0
  0
VERTEX
  5
2B07
  8
0
 10
65.0308527029407628
 20
110.1802646265282988
 30
0.0
  0
VERTEX
  5
2B08
  8
0
 10
63.7005439422441029
 20
109.6588335399860057
 30
0.0
  0
VERTEX
  5
2B09
  8
0
 10
62.4163846911648719
 20
109.0346587872240036
 30
0.0
  0
VERTEX
  5
2B0A
  8
0
 10
61.1864938179499518
 20
108.3116866019953051
 30
0.0
  0
VERTEX
  5
2B0B
  8
0
 10
60.0186470886885672
 20
107.4944878472305021
 30
0.0
  0
VERTEX
  5
2B0C
  8
0
 10
58.9202280064153001
 20
106.5882291165714975
 30
0.0
  0
VERTEX
  5
2B0D
  8
0
 10
57.8981811302271012
 20
105.5986400695018972
 30
0.0
  0
VERTEX
  5
2B0E
  8
0
 10
56.958968169544157
 20
104.5319772065960962
 30
0.0
  0
VERTEX
  5
2B0F
  8
0
 10
56.1085271311029601
 20
103.394984313907301
 30
0.0
  0
VERTEX
  5
2B10
  8
0
 10
55.3522347769655312
 20
102.1948498265814038
 30
0.0
  0
VERTEX
  5
2B11
  8
0
 10
54.6948726308986011
 20
100.9391613812554027
 30
0.0
  0
VERTEX
  5
2B12
  8
0
 10
54.1405967480409274
 20
99.6358578445754688
 30
0.0
  0
VERTEX
  5
2B13
  8
0
 10
53.6929114389844813
 20
98.2931791211257746
 30
0.0
  0
VERTEX
  5
2B14
  8
0
 10
53.3546471143946022
 20
96.9196140580990857
 30
0.0
  0
VERTEX
  5
2B15
  8
0
 10
53.1279423902425307
 20
95.5238467760714514
 30
0.0
  0
VERTEX
  5
2B16
  8
0
 10
53.0142305667866367
 20
94.1147017651959459
 30
0.0
  0
VERTEX
  5
2B17
  8
0
 10
53.0142305667866935
 20
92.7010880939345157
 30
0.0
  0
VERTEX
  5
2B18
  8
0
 10
53.1279423902426018
 20
91.2919430830590102
 30
0.0
  0
VERTEX
  5
2B19
  8
0
 10
53.3546471143947016
 20
89.8961758010313758
 30
0.0
  0
VERTEX
  5
2B1A
  8
0
 10
53.6929114389845878
 20
88.5226107380047154
 30
0.0
  0
VERTEX
  5
2B1B
  8
0
 10
54.1405967480410411
 20
87.1799320145550212
 30
0.0
  0
VERTEX
  5
2B1C
  8
0
 10
54.6948726308987716
 20
85.8766284778750162
 30
0.0
  0
VERTEX
  5
2B1D
  8
0
 10
55.3522347769657017
 20
84.6209400325490435
 30
0.0
  0
VERTEX
  5
2B1E
  8
0
 10
56.1085271311031804
 20
83.4208055452232458
 30
0.0
  0
VERTEX
  5
2B1F
  8
0
 10
56.9589681695443915
 20
82.2838126525344649
 30
0.0
  0
VERTEX
  5
2B20
  8
0
 10
57.8981811302273215
 20
81.217149789628607
 30
0.0
  0
VERTEX
  5
2B21
  8
0
 10
58.9202280064155914
 20
80.227560742559092
 30
0.0
  0
VERTEX
  5
2B22
  8
0
 10
60.0186470886887875
 20
79.3213020119000305
 30
0.0
  0
VERTEX
  5
2B23
  8
0
 10
61.1864938179502289
 20
78.5041032571353412
 30
0.0
  0
VERTEX
  5
2B24
  8
0
 10
62.416384691165149
 20
77.7811310719066142
 30
0.0
  0
VERTEX
  5
2B25
  8
0
 10
63.7005439422443871
 20
77.1569563191447116
 30
0.0
  0
VERTEX
  5
2B26
  8
0
 10
65.0308527029411039
 20
76.635525232602447
 30
0.0
  0
VERTEX
  5
2B27
  8
0
 10
66.3989003329497791
 20
76.2201344674944608
 30
0.0
  0
VERTEX
  5
2B28
  8
0
 10
67.7960375946823888
 20
75.9134102579813828
 30
0.0
  0
VERTEX
  5
2B29
  8
0
 10
69.2134313365332332
 20
75.7172918132719417
 30
0.0
  0
VERTEX
  5
2B2A
  8
0
 10
70.6421203389070911
 20
75.6330190573179379
 30
0.0
  0
VERTEX
  5
2B2B
  8
0
 10
72.0730719699350857
 20
75.6611247896158829
 30
0.0
  0
VERTEX
  5
2B2C
  8
0
 10
73.4972392926815701
 20
75.801431316676954
 30
0.0
  0
VERTEX
  5
2B2D
  8
0
 10
74.9056182627920748
 20
76.0530515754625185
 30
0.0
  0
VERTEX
  5
2B2E
  8
0
 10
76.2893046549609153
 20
76.4143947416822016
 30
0.0
  0
VERTEX
  5
2B2F
  8
0
 10
77.6395503583105437
 20
76.8831762874972924
 30
0.0
  0
VERTEX
  5
2B30
  8
0
 10
78.9478186847647976
 20
77.4564324250412142
 30
0.0
  0
VERTEX
  5
2B31
  8
0
 10
80.2058383407398736
 20
78.1305388444408493
 30
0.0
  0
VERTEX
  5
2B32
  8
0
 10
81.4056557209255516
 20
78.9012336278702548
 30
0.0
  0
VERTEX
  5
2B33
  8
0
 10
82.5396851935382756
 20
79.7636441947675507
 30
0.0
  0
VERTEX
  5
2B34
  8
0
 10
83.600757059128
 20
80.7123181078579393
 30
0.0
  0
VERTEX
  5
2B35
  8
0
 10
84.5821628797264111
 20
81.7412575452178061
 30
0.0
  0
VERTEX
  5
2B36
  8
0
 10
85.4776978917520864
 20
82.843957220435783
 30
0.0
  0
VERTEX
  5
2B37
  8
0
 10
86.2817002345227451
 20
84.0134455111283671
 30
0.0
  0
VERTEX
  5
2B38
  8
0
 10
86.9890867463625455
 20
85.2423285357808709
 30
0.0
  0
VERTEX
  5
2B39
  8
0
 10
87.5953851019859258
 20
86.5228369002472846
 30
0.0
  0
VERTEX
  5
2B3A
  8
0
 10
88.0967620879782771
 20
87.8468748183613855
 30
0.0
  0
VERTEX
  5
2B3B
  8
0
 10
88.4900478376055162
 20
89.2060712961035165
 30
0.0
  0
VERTEX
  5
2B3C
  8
0
 10
88.7727558717322154
 20
90.5918330557201159
 30
0.0
  0
VERTEX
  5
2B3D
  8
0
 10
88.9430988191426195
 20
91.995398865192314
 30
0.0
  0
VERTEX
  5
2B3E
  8
0
 10
88.9999997168781647
 20
93.4078949295654866
 30
0.0
  0
SEQEND
  5
2B3F
  8
0
  0
ARC
  5
266A
  8
0
 10
70.999999716878051
 20
95.4196135960973351
 30
0.0
 40
18.0008836911096708
 50
0.5677311675157818
 51
179.4322688324857893
  0
ARC
  5
266B
  8
0
 10
70.999999716878051
 20
94.8167602915104339
 30
0.0
 40
15.0070622904371493
 50
182.9912776713385085
 51
357.0087223286647031
  0
ARC
  5
266C
  8
0
 10
70.999999716878051
 20
94.6114053326954689
 30
0.0
 40
5.0002300618724869
 50
0.549625187937912
 51
179.4503748120629041
  0
CIRCLE
  5
2672
  8
0
 10
70.9999997168778947
 20
74.0000000448421105
 30
0.0
 40
1.2545491062706771
  0
LINE
  5
2684
  8
0
 10
74.8680577062129373
 20
112.9999987185000947
 30
0.0
 11
91.9999994337558746
 21
112.9999987185000947
 31
0.0
  0
LINE
  5
27A2
  8
2
 10
183.8092304766176994
 20
70.8000005222850319
 30
0.0
 11
184.6092300489544016
 21
70.0000004842870709
 31
0.0
  0
LINE
  5
27A3
  8
2
 10
205.009230785071793
 20
70.0000004842870709
 30
0.0
 11
205.8092303574084951
 21
70.8000005222850319
 31
0.0
  0
LINE
  5
280E
  8
2
 10
184.6092300489544016
 20
70.0000004842870709
 30
0.0
 11
205.009230785071793
 21
70.0000004842870709
 31
0.0
  0
LINE
  5
2862
  8
1
 10
74.2545488231485535
 20
74.0000000448421105
 30
0.0
 11
67.7454506106072216
 21
74.0000000448421105
 31
0.0
  0
ENDSEC
  0
EOF
