  0
SECTION
  2
HEADER
  9
$ACADVER
  1
AC1009
  9
$INSBASE
 10
0.0
 20
0.0
 30
0.0
  9
$EXTMIN
 10
0.0
 20
-2.960436562073669
 30
0.0
  9
$EXTMAX
 10
192.6738724112510113
 20
197.0000007376073938
 30
0.0
  9
$LIMMIN
 10
0.0
 20
0.0
  9
$LIMMAX
 10
187.5
 20
135.0
  9
$ORTHOMODE
 70
     0
  9
$REGENMODE
 70
     1
  9
$FILLMODE
 70
     1
  9
$QTEXTMODE
 70
     0
  9
$MIRRTEXT
 70
     0
  9
$DRAGMODE
 70
     2
  9
$LTSCALE
 40
5.0
  9
$OSMODE
 70
    37
  9
$ATTMODE
 70
     1
  9
$TEXTSIZE
 40
0.2
  9
$TRACEWID
 40
0.05
  9
$TEXTSTYLE
  7
STANDARD
  9
$CLAYER
  8
0
  9
$CELTYPE
  6
BYLAYER
  9
$CECOLOR
 62
   256
  9
$DIMSCALE
 40
0.5
  9
$DIMASZ
 40
3.0
  9
$DIMEXO
 40
2.0
  9
$DIMDLI
 40
0.38
  9
$DIMRND
 40
0.0
  9
$DIMDLE
 40
0.0
  9
$DIMEXE
 40
2.0
  9
$DIMTP
 40
0.0
  9
$DIMTM
 40
0.0
  9
$DIMTXT
 40
3.0
  9
$DIMCEN
 40
0.0
  9
$DIMTSZ
 40
0.0
  9
$DIMTOL
 70
     0
  9
$DIMLIM
 70
     0
  9
$DIMTIH
 70
     0
  9
$DIMTOH
 70
     0
  9
$DIMSE1
 70
     0
  9
$DIMSE2
 70
     0
  9
$DIMTAD
 70
     1
  9
$DIMZIN
 70
     0
  9
$DIMBLK
  1

  9
$DIMASO
 70
     0
  9
$DIMSHO
 70
     0
  9
$DIMPOST
  1

  9
$DIMAPOST
  1

  9
$DIMALT
 70
     0
  9
$DIMALTD
 70
     2
  9
$DIMALTF
 40
25.3999999999999986
  9
$DIMLFAC
 40
1.0
  9
$DIMTOFL
 70
     1
  9
$DIMTVP
 40
1.6000000000000001
  9
$DIMTIX
 70
     1
  9
$DIMSOXD
 70
     0
  9
$DIMSAH
 70
     0
  9
$DIMBLK1
  1

  9
$DIMBLK2
  1

  9
$DIMSTYLE
  2
STANDARD
  9
$DIMCLRD
 70
     0
  9
$DIMCLRE
 70
     0
  9
$DIMCLRT
 70
     0
  9
$DIMTFAC
 40
1.0
  9
$DIMGAP
 40
0.09
  9
$LUNITS
 70
     2
  9
$LUPREC
 70
     4
  9
$SKETCHINC
 40
0.1
  9
$FILLETRAD
 40
0.0
  9
$AUNITS
 70
     0
  9
$AUPREC
 70
     4
  9
$MENU
  1
E:\r13\win\SUPPORT\ACAD
  9
$ELEVATION
 40
0.0
  9
$PELEVATION
 40
0.0
  9
$THICKNESS
 40
0.0
  9
$LIMCHECK
 70
     0
  9
$BLIPMODE
 70
     0
  9
$CHAMFERA
 40
0.0
  9
$CHAMFERB
 40
0.0
  9
$SKPOLY
 70
     0
  9
$TDCREATE
 40
2449840.3512499998323619
  9
$TDUPDATE
 40
2460788.5158680560998619
  9
$TDINDWG
 40
0.2742715856
  9
$TDUSRTIMER
 40
0.2742715856
  9
$USRTIMER
 70
     1
  9
$ANGBASE
 50
0.0
  9
$ANGDIR
 70
     0
  9
$PDMODE
 70
     0
  9
$PDSIZE
 40
0.0
  9
$PLINEWID
 40
0.0
  9
$COORDS
 70
     1
  9
$SPLFRAME
 70
     0
  9
$SPLINETYPE
 70
     6
  9
$SPLINESEGS
 70
     8
  9
$ATTDIA
 70
     1
  9
$ATTREQ
 70
     1
  9
$HANDLING
 70
     1
  9
$HANDSEED
  5
21E9
  9
$SURFTAB1
 70
     6
  9
$SURFTAB2
 70
     6
  9
$SURFTYPE
 70
     6
  9
$SURFU
 70
     6
  9
$SURFV
 70
     6
  9
$UCSNAME
  2

  9
$UCSORG
 10
0.0
 20
0.0
 30
0.0
  9
$UCSXDIR
 10
1.0
 20
0.0
 30
0.0
  9
$UCSYDIR
 10
0.0
 20
1.0
 30
0.0
  9
$PUCSNAME
  2

  9
$PUCSORG
 10
0.0
 20
0.0
 30
0.0
  9
$PUCSXDIR
 10
1.0
 20
0.0
 30
0.0
  9
$PUCSYDIR
 10
0.0
 20
1.0
 30
0.0
  9
$USERI1
 70
     3
  9
$USERI2
 70
     1
  9
$USERI3
 70
     0
  9
$USERI4
 70
     0
  9
$USERI5
 70
     0
  9
$USERR1
 40
0.5
  9
$USERR2
 40
3.0
  9
$USERR3
 40
3.0
  9
$USERR4
 40
3.0
  9
$USERR5
 40
10.0
  9
$WORLDVIEW
 70
     1
  9
$SHADEDGE
 70
     3
  9
$SHADEDIF
 70
    70
  9
$TILEMODE
 70
     1
  9
$MAXACTVP
 70
    16
  9
$PLIMCHECK
 70
     0
  9
$PEXTMIN
 10
1.0000000000000000E+20
 20
1.0000000000000000E+20
 30
1.0000000000000000E+20
  9
$PEXTMAX
 10
-1.0000000000000000E+20
 20
-1.0000000000000000E+20
 30
-1.0000000000000000E+20
  9
$PLIMMIN
 10
0.0
 20
0.0
  9
$PLIMMAX
 10
12.0
 20
9.0
  9
$UNITMODE
 70
     0
  9
$VISRETAIN
 70
     0
  9
$PLINEGEN
 70
     0
  9
$PSLTSCALE
 70
     0
  0
ENDSEC
  0
SECTION
  2
TABLES
  0
TABLE
  2
VPORT
 70
     1
  0
VPORT
  2
*ACTIVE
 70
     0
 10
0.0
 20
0.0
 11
1.0
 21
1.0
 12
138.0255667289368091
 22
97.0197825533361424
 13
0.0
 23
0.0
 14
5.0
 24
5.0
 15
10.0
 25
10.0
 16
0.0
 26
0.0
 36
1.0
 17
0.0
 27
0.0
 37
0.0
 40
201.5349281812003142
 41
2.3485221674876842
 42
50.0
 43
0.0
 44
0.0
 50
0.0
 51
0.0
 71
     0
 72
   100
 73
     1
 74
     0
 75
     0
 76
     0
 77
     0
 78
     2
  0
ENDTAB
  0
TABLE
  2
LTYPE
 70
     4
  0
LTYPE
  2
CONTINUOUS
 70
     0
  3
Solid Line
 72
    65
 73
     0
 40
0.0
  0
LTYPE
  2
CENTER
 70
     0
  3
____ _ ____ _ ____ _ ____ _ ____ _ ____ _ ____
 72
    65
 73
     4
 40
2.0
 49
1.25
 49
-0.25
 49
0.25
 49
-0.25
  0
LTYPE
  2
HIDDEN
 70
     0
  3
__ __ __ __ __ __ __ __ __ __ __ __ __ __ __ __
 72
    65
 73
     2
 40
0.375
 49
0.25
 49
-0.125
  0
LTYPE
  2
PHANTOM2
 70
     0
  3
___ _ _ ___ _ _ ___ _ _ ___ _ _
 72
    65
 73
     6
 40
1.25
 49
0.625
 49
-0.125
 49
0.125
 49
-0.125
 49
0.125
 49
-0.125
  0
ENDTAB
  0
TABLE
  2
LAYER
 70
     5
  0
LAYER
  2
0
 70
     0
 62
     7
  6
CONTINUOUS
  0
LAYER
  2
1
 70
     0
 62
     1
  6
CENTER
  0
LAYER
  2
3
 70
     0
 62
     3
  6
CONTINUOUS
  0
LAYER
  2
2
 70
     0
 62
     2
  6
HIDDEN
  0
LAYER
  2
DEFPOINTS
 70
     0
 62
     7
  6
CONTINUOUS
  0
ENDTAB
  0
TABLE
  2
STYLE
 70
     2
  0
STYLE
  2
STANDARD
 70
     0
 40
0.0
 41
1.0
 50
0.0
 71
     0
 42
0.2
  3
TXT
  4
BIGFONT
  0
STYLE
  2
STANDARD1
 70
     0
 40
0.0
 41
1.0
 50
0.0
 71
     0
 42
3.0
  3
txt
  4

  0
ENDTAB
  0
TABLE
  2
VIEW
 70
     0
  0
ENDTAB
  0
TABLE
  2
UCS
 70
     0
  0
ENDTAB
  0
TABLE
  2
APPID
 70
    41
  0
APPID
  2
ACAD
 70
     0
  0
APPID
  2
ACAD_MLEADERVER
 70
     0
  0
APPID
  2
_CALL_MAC$
 70
     0
  0
APPID
  2
DCO15
 70
     0
  0
APPID
  2
GENIUS_GENOREF_13
 70
     0
  0
APPID
  2
GENIUS_GENOENT_13
 70
     0
  0
APPID
  2
GENIUS_GENBH_13
 70
     0
  0
APPID
  2
GENIUS_GENOBJ_13
 70
     0
  0
APPID
  2
GENIUS_GENODEF_13
 70
     0
  0
APPID
  2
GENIUS_GENOLIS_13
 70
     0
  0
APPID
  2
GENIUS_GENOBJ-NBEHI-BHF_13
 70
     0
  0
APPID
  2
GENIUS_GENOBJ-NBEHI-BHB_13
 70
     0
  0
APPID
  2
GENIUS_GENOBJ-F-PART_13
 70
     0
  0
APPID
  2
GENIUS_GEFSTDP_13
 70
     0
  0
APPID
  2
GENIUS_GENOBJ-N-RSSYM_13
 70
     0
  0
APPID
  2
GENIUS_GENSYMENT_13
 70
     0
  0
APPID
  2
GENIUS_GENOBJ-N-TIT_13
 70
     0
  0
APPID
  2
GENIUS_GENTITLE_13
 70
     0
  0
APPID
  2
GENIUS_GENZVEED_13
 70
     0
  0
APPID
  2
GENIUS_GENOBJ-N-LEADER_13
 70
     0
  0
APPID
  2
GENIUS_GENOBJ-N-FIL_13
 70
     0
  0
APPID
  2
GENIUS_GENOBJ-N-SEC_13
 70
     0
  0
APPID
  2
GENIUS_GENOBJ-N-CRS_13
 70
     0
  0
APPID
  2
GENIUS_GENOBJ-N-ZOO_13
 70
     0
  0
APPID
  2
GENIUS_GENZOO_13
 70
     0
  0
APPID
  2
GENIUS_GENOBJ-F-TOL_13
 70
     0
  0
APPID
  2
GENIUS_GENFIL_13
 70
     0
  0
APPID
  2
GENIUS_GENOBJ-N-CHA_13
 70
     0
  0
APPID
  2
ASM_BASE
 70
     0
  0
APPID
  2
ASM_EXPLO_VER_2_00
 70
     0
  0
APPID
  2
ASM_CADM_VER_12_00
 70
     0
  0
APPID
  2
ASM_BASEFORO
 70
     0
  0
APPID
  2
ASM_BASETRAVI
 70
     0
  0
APPID
  2
ASM_BASETRAVI1
 70
     0
  0
APPID
  2
ASM_GRUPPI
 70
     0
  0
APPID
  2
ASM_CADM_ALBERO
 70
     0
  0
APPID
  2
ASM_GOLE
 70
     0
  0
APPID
  2
ACAD_EXEMPT_FROM_CAD_STANDARDS
 70
     0
  0
APPID
  2
ACAD_NAV_VCDISPLAY
 70
     0
  0
APPID
  2
ACAD_DSTYLE_DIMJAG
 70
     0
  0
APPID
  2
ACAD_DSTYLE_DIMTALN
 70
     0
  0
ENDTAB
  0
TABLE
  2
DIMSTYLE
 70
     1
  0
DIMSTYLE
  2
STANDARD
 70
     0
  3

  4

  5

  6

  7

 40
1.0
 41
0.18
 42
0.0625
 43
0.38
 44
0.18
 45
0.0
 46
0.0
 47
0.0
 48
0.0
140
0.18
141
0.09
142
0.0
143
25.3999999999999986
144
1.0
145
0.0
146
1.0
147
0.09
 71
     0
 72
     0
 73
     1
 74
     1
 75
     0
 76
     0
 77
     0
 78
     0
170
     0
171
     2
172
     0
173
     0
174
     0
175
     0
176
     0
177
     0
178
     0
  0
ENDTAB
  0
ENDSEC
  0
SECTION
  2
BLOCKS
  0
BLOCK
  8
0
  2
$MODEL_SPACE
 70
     0
 10
0.0
 20
0.0
 30
0.0
  3
$MODEL_SPACE
  1

  0
ENDBLK
  5
196
  8
0
  0
BLOCK
 67
     1
  8
0
  2
$PAPER_SPACE
 70
     0
 10
0.0
 20
0.0
 30
0.0
  3
$PAPER_SPACE
  1

  0
ENDBLK
  5
194
 67
     1
  8
0
  0
BLOCK
  8
0
  2
A$CA0D42091
 70
     0
 10
0.0
 20
0.0
 30
0.0
  3
A$CA0D42091
  1

  0
CIRCLE
  5
1FC0
  8
0
 10
14.6098090935330696
 20
0.0
 30
0.0
 40
0.9383039235653853
  0
ENDBLK
  5
1FC4
  8
0
  0
ENDSEC
  0
SECTION
  2
ENTITIES
  0
TEXT
  5
12A0
  8
0
 62
     3
 10
0.0
 20
0.0
 30
0.0
 40
10.0
  1
BJ351-08001C
  7
STANDARD1
  0
LINE
  5
180B
  8
0
 10
153.1371475756168081
 20
178.5000009275971991
 30
0.0
 11
144.1372206062077908
 21
178.5000009275971991
 31
0.0
  0
LINE
  5
180C
  8
0
 10
144.1372206062077908
 20
170.5000005476175886
 30
0.0
 11
153.1371475756168081
 21
170.5000005476175886
 31
0.0
  0
LINE
  5
180D
  8
0
 10
127.3465195298195027
 20
159.500001072883606
 30
0.0
 11
139.1987783461808874
 21
159.500001072883606
 31
0.0
  0
LINE
  5
180E
  8
0
 10
139.1987783461808874
 20
189.5000004023312954
 30
0.0
 11
127.3465195298195027
 21
189.5000004023312954
 31
0.0
  0
LINE
  5
180F
  8
0
 10
139.1987783461808874
 20
164.5000009611248117
 30
0.0
 11
144.1372206062077908
 21
164.5000009611248117
 31
0.0
  0
LINE
  5
1810
  8
0
 10
144.1372206062077908
 20
184.5000005140900043
 30
0.0
 11
139.1987783461808874
 21
184.5000005140900043
 31
0.0
  0
LINE
  5
1811
  8
0
 10
168.7304966943337945
 20
177.0000006817280962
 30
0.0
 11
167.2871209774166061
 21
174.5000007376073938
 31
0.0
  0
LINE
  5
1812
  8
0
 10
168.7304966943337945
 20
172.0000007934868052
 30
0.0
 11
167.2871209774166061
 21
174.5000007376073938
 31
0.0
  0
LINE
  5
1813
  8
0
 10
168.7304966943337945
 20
172.0000007934868052
 30
0.0
 11
171.6172481281683133
 21
172.0000007934868052
 31
0.0
  0
LINE
  5
1814
  8
0
 10
168.7304966943337945
 20
177.0000006817280962
 30
0.0
 11
171.6172481281683133
 21
177.0000006817280962
 31
0.0
  0
LINE
  5
1816
  8
0
 10
171.6172481281683133
 20
172.0000007934868052
 30
0.0
 11
173.0606238450855017
 21
174.5000007376073938
 31
0.0
  0
LINE
  5
1817
  8
0
 10
171.6172481281683133
 20
177.0000006817280962
 30
0.0
 11
173.0606238450855017
 21
174.5000007376073938
 31
0.0
  0
POLYLINE
  5
181A
  8
0
 66
     1
 10
0.0
 20
0.0
 30
0.0
 70
   128
  0
VERTEX
  5
2073
  8
0
 10
139.1987783461808874
 20
164.5000009611248117
 30
0.0
  0
VERTEX
  5
2074
  8
0
 10
139.1208024322986034
 20
164.5124313235282045
 30
0.0
  0
VERTEX
  5
2075
  8
0
 10
138.9656254649162008
 20
164.6116926148532968
 30
0.0
  0
VERTEX
  5
2076
  8
0
 10
138.8127656280994131
 20
164.8092279955743891
 30
0.0
  0
VERTEX
  5
2077
  8
0
 10
138.663742840290098
 20
165.1030742377041918
 30
0.0
  0
VERTEX
  5
2078
  8
0
 10
138.5200360417366028
 20
165.4903116449713139
 30
0.0
  0
VERTEX
  5
2079
  8
0
 10
138.3830757439135937
 20
165.9670919924973873
 30
0.0
  0
VERTEX
  5
207A
  8
0
 10
138.2542216777800945
 20
166.528675779700194
 30
0.0
  0
VERTEX
  5
207B
  8
0
 10
138.1347553431988047
 20
167.1694820560514074
 30
0.0
  0
VERTEX
  5
207C
  8
0
 10
138.0258613824844076
 20
167.883142437785807
 30
0.0
  0
VERTEX
  5
207D
  8
0
 10
137.92862758040431
 20
168.6625639721750929
 30
0.0
  0
VERTEX
  5
207E
  8
0
 10
137.8440150618552877
 20
169.5000008493661028
 30
0.0
  0
VERTEX
  5
207F
  8
0
 10
137.7728694677352905
 20
170.3871298395096971
 30
0.0
  0
VERTEX
  5
2080
  8
0
 10
137.715894877910614
 20
171.3151343446224075
 30
0.0
  0
VERTEX
  5
2081
  8
0
 10
137.6736538112162975
 20
172.2747914772479874
 30
0.0
  0
VERTEX
  5
2082
  8
0
 10
137.6465746760368063
 20
173.2565636793150929
 30
0.0
  0
VERTEX
  5
2083
  8
0
 10
137.634921967983189
 20
174.2506938334553865
 30
0.0
  0
VERTEX
  5
2084
  8
0
 10
137.6388074457645132
 20
175.2473016548900944
 30
0.0
  0
VERTEX
  5
2085
  8
0
 10
137.6582013070583059
 20
176.2364825280382945
 30
0.0
  0
VERTEX
  5
2086
  8
0
 10
137.6929023861885071
 20
177.2084055282174972
 30
0.0
  0
VERTEX
  5
2087
  8
0
 10
137.7425716817378998
 20
178.153411094099198
 30
0.0
  0
VERTEX
  5
2088
  8
0
 10
137.8067137300967886
 20
179.0621071867643934
 30
0.0
  0
VERTEX
  5
2089
  8
0
 10
137.8846877813338949
 20
179.9254632368682962
 30
0.0
  0
VERTEX
  5
208A
  8
0
 10
137.9757264256477072
 20
180.7348989695310024
 30
0.0
  0
VERTEX
  5
208B
  8
0
 10
138.0789169669151022
 20
181.4823686890304089
 30
0.0
  0
VERTEX
  5
208C
  8
0
 10
138.1932386755943014
 20
182.1604450978337866
 30
0.0
  0
VERTEX
  5
208D
  8
0
 10
138.3175516128540039
 20
182.7623882144688992
 30
0.0
  0
VERTEX
  5
208E
  8
0
 10
138.4506264328956036
 20
183.2822161540389061
 30
0.0
  0
VERTEX
  5
208F
  8
0
 10
138.5911332070826916
 20
183.7147624045609859
 30
0.0
  0
VERTEX
  5
2090
  8
0
 10
138.7376786768435863
 20
184.0557289123534872
 30
0.0
  0
VERTEX
  5
2091
  8
0
 10
138.8888099789618877
 20
184.3017256632446959
 30
0.0
  0
VERTEX
  5
2092
  8
0
 10
139.0430202335118963
 20
184.4503088667987925
 30
0.0
  0
VERTEX
  5
2093
  8
0
 10
139.1987783461808874
 20
184.5000005140900043
 30
0.0
  0
VERTEX
  5
2094
  8
0
 10
139.1987783461808874
 20
184.5000005140900043
 30
0.0
  0
SEQEND
  5
2095
  8
0
  0
POLYLINE
  5
181B
  8
0
 66
     1
 10
0.0
 20
0.0
 30
0.0
 70
   128
  0
VERTEX
  5
2096
  8
0
 10
139.1987783461808874
 20
189.5000004023312954
 30
0.0
  0
VERTEX
  5
2097
  8
0
 10
139.3900422006844906
 20
189.4500898942351057
 30
0.0
  0
VERTEX
  5
2098
  8
0
 10
139.580032005906105
 20
189.3006880581378084
 30
0.0
  0
VERTEX
  5
2099
  8
0
 10
139.7674848884344101
 20
189.0527904778718096
 30
0.0
  0
VERTEX
  5
209A
  8
0
 10
139.9511528760195063
 20
188.708045594394207
 30
0.0
  0
VERTEX
  5
209B
  8
0
 10
140.1298140734434128
 20
188.2687491178512005
 30
0.0
  0
VERTEX
  5
209C
  8
0
 10
140.3022801131010056
 20
187.737824469804707
 30
0.0
  0
VERTEX
  5
209D
  8
0
 10
140.4674017429352091
 20
187.1188041567801861
 30
0.0
  0
VERTEX
  5
209E
  8
0
 10
140.6240800023078918
 20
186.4158074185251905
 30
0.0
  0
VERTEX
  5
209F
  8
0
 10
140.7712755352258966
 20
185.6335122883319002
 30
0.0
  0
VERTEX
  5
20A0
  8
0
 10
140.9080048650502874
 20
184.7771267220377069
 30
0.0
  0
VERTEX
  5
20A1
  8
0
 10
140.9477686136960983
 20
184.5000005140900043
 30
0.0
  0
SEQEND
  5
20A2
  8
0
  0
POLYLINE
  5
181C
  8
0
 66
     1
 10
0.0
 20
0.0
 30
0.0
 70
   128
  0
VERTEX
  5
20A3
  8
0
 10
140.9477686136960983
 20
164.5000009611248117
 30
0.0
  0
VERTEX
  5
20A4
  8
0
 10
140.8410073816775991
 20
163.7857659533619028
 30
0.0
  0
VERTEX
  5
20A5
  8
0
 10
140.698926672339411
 20
162.9657429456709963
 30
0.0
  0
VERTEX
  5
20A6
  8
0
 10
140.5468621850014017
 20
162.2224786132574081
 30
0.0
  0
VERTEX
  5
20A7
  8
0
 10
140.3858290612697033
 20
161.5609192103146938
 30
0.0
  0
VERTEX
  5
20A8
  8
0
 10
140.2168945968151093
 20
160.9854680299758058
 30
0.0
  0
VERTEX
  5
20A9
  8
0
 10
140.0411838293074993
 20
160.4999528080224138
 30
0.0
  0
VERTEX
  5
20AA
  8
0
 10
139.8598683625459955
 20
160.1076061651110081
 30
0.0
  0
VERTEX
  5
20AB
  8
0
 10
139.6741533279418945
 20
159.8110385984182074
 30
0.0
  0
VERTEX
  5
20AC
  8
0
 10
139.4852755218743994
 20
159.6122235804795935
 30
0.0
  0
VERTEX
  5
20AD
  8
0
 10
139.2944903671740917
 20
159.512483589351092
 30
0.0
  0
VERTEX
  5
20AE
  8
0
 10
139.1030681878328039
 20
159.512483589351092
 30
0.0
  0
VERTEX
  5
20AF
  8
0
 10
138.9122830331324963
 20
159.6122235804795935
 30
0.0
  0
VERTEX
  5
20B0
  8
0
 10
138.7234033644199087
 20
159.8110385984182074
 30
0.0
  0
VERTEX
  5
20B1
  8
0
 10
138.5376901924610138
 20
160.1076061651110081
 30
0.0
  0
VERTEX
  5
20B2
  8
0
 10
138.3563728630543039
 20
160.4999528080224138
 30
0.0
  0
VERTEX
  5
20B3
  8
0
 10
138.180662095546694
 20
160.9854680299758058
 30
0.0
  0
VERTEX
  5
20B4
  8
0
 10
138.0117276310921
 20
161.5609192103146938
 30
0.0
  0
VERTEX
  5
20B5
  8
0
 10
137.8506945073604015
 20
162.2224786132574081
 30
0.0
  0
VERTEX
  5
20B6
  8
0
 10
137.6986318826675131
 20
162.9657429456709963
 30
0.0
  0
VERTEX
  5
20B7
  8
0
 10
137.5565493106842041
 20
163.7857659533619028
 30
0.0
  0
VERTEX
  5
20B8
  8
0
 10
137.4254004657267956
 20
164.6770900860427957
 30
0.0
  0
VERTEX
  5
20B9
  8
0
 10
137.3060496151447012
 20
165.633783750236006
 30
0.0
  0
VERTEX
  5
20BA
  8
0
 10
137.1992939710617065
 20
166.6494813561438946
 30
0.0
  0
VERTEX
  5
20BB
  8
0
 10
137.1058487892150879
 20
167.717421967536211
 30
0.0
  0
VERTEX
  5
20BC
  8
0
 10
137.0263287425040915
 20
168.8305000588296991
 30
0.0
  0
VERTEX
  5
20BD
  8
0
 10
136.961266547441511
 20
169.9813078902660948
 30
0.0
  0
VERTEX
  5
20BE
  8
0
 10
136.9110943377017975
 20
171.1621867306529907
 30
0.0
  0
VERTEX
  5
20BF
  8
0
 10
136.8761473894118978
 20
172.3652780801056963
 30
0.0
  0
VERTEX
  5
20C0
  8
0
 10
136.8566529452801035
 20
173.5825758241117001
 30
0.0
  0
VERTEX
  5
20C1
  8
0
 10
136.852748841047287
 20
174.8059787950477926
 30
0.0
  0
VERTEX
  5
20C2
  8
0
 10
136.8644574284552959
 20
176.0273455455898954
 30
0.0
  0
VERTEX
  5
20C3
  8
0
 10
136.8917004764080048
 20
177.2385480161755993
 30
0.0
  0
VERTEX
  5
20C4
  8
0
 10
136.9342954456805899
 20
178.4315259009599117
 30
0.0
  0
VERTEX
  5
20C5
  8
0
 10
136.9919592142105103
 20
179.5983403734861952
 30
0.0
  0
VERTEX
  5
20C6
  8
0
 10
137.0643118023872091
 20
180.7312258332966906
 30
0.0
  0
VERTEX
  5
20C7
  8
0
 10
137.1508689224720001
 20
181.8226436898112013
 30
0.0
  0
VERTEX
  5
20C8
  8
0
 10
137.251053154468508
 20
182.8653310239315033
 30
0.0
  0
VERTEX
  5
20C9
  8
0
 10
137.3641976714133932
 20
183.8523476198315052
 30
0.0
  0
VERTEX
  5
20CA
  8
0
 10
137.4895536899566935
 20
184.7771267220377069
 30
0.0
  0
VERTEX
  5
20CB
  8
0
 10
137.6262830197811127
 20
185.6335122883319002
 30
0.0
  0
VERTEX
  5
20CC
  8
0
 10
137.7734766900539114
 20
186.4158074185251905
 30
0.0
  0
VERTEX
  5
20CD
  8
0
 10
137.9301549494265942
 20
187.1188041567801861
 30
0.0
  0
VERTEX
  5
20CE
  8
0
 10
138.0952784419060038
 20
187.737824469804707
 30
0.0
  0
VERTEX
  5
20CF
  8
0
 10
138.2677444815635965
 20
188.2687491178512005
 30
0.0
  0
VERTEX
  5
20D0
  8
0
 10
138.4464056789875031
 20
188.708045594394207
 30
0.0
  0
VERTEX
  5
20D1
  8
0
 10
138.6300736665725992
 20
189.0527904778718096
 30
0.0
  0
VERTEX
  5
20D2
  8
0
 10
138.8175265491009043
 20
189.3006880581378084
 30
0.0
  0
VERTEX
  5
20D3
  8
0
 10
139.007516354322405
 20
189.4500898942351057
 30
0.0
  0
VERTEX
  5
20D4
  8
0
 10
139.1987783461808874
 20
189.5000004023312954
 30
0.0
  0
VERTEX
  5
20D5
  8
0
 10
139.1987783461808874
 20
189.5000004023312954
 30
0.0
  0
SEQEND
  5
20D6
  8
0
  0
POLYLINE
  5
181D
  8
0
 66
     1
 10
0.0
 20
0.0
 30
0.0
 70
   128
  0
VERTEX
  5
20D7
  8
0
 10
127.3465195298195027
 20
159.500001072883606
 30
0.0
  0
VERTEX
  5
20D8
  8
0
 10
127.2508056461811066
 20
159.512483589351092
 30
0.0
  0
VERTEX
  5
20D9
  8
0
 10
127.060022354126005
 20
159.6122235804795935
 30
0.0
  0
VERTEX
  5
20DA
  8
0
 10
126.8711426854133038
 20
159.8110385984182074
 30
0.0
  0
VERTEX
  5
20DB
  8
0
 10
126.6854295134543946
 20
160.1076061651110081
 30
0.0
  0
VERTEX
  5
20DC
  8
0
 10
126.504112184047699
 20
160.4999528080224138
 30
0.0
  0
VERTEX
  5
20DD
  8
0
 10
126.3284014165401032
 20
160.9854680299758058
 30
0.0
  0
VERTEX
  5
20DE
  8
0
 10
126.159466952085495
 20
161.5609192103146938
 30
0.0
  0
VERTEX
  5
20DF
  8
0
 10
125.998433828353896
 20
162.2224786132574081
 30
0.0
  0
VERTEX
  5
20E0
  8
0
 10
125.8463712036609934
 20
162.9657429456709963
 30
0.0
  0
VERTEX
  5
20E1
  8
0
 10
125.7042923569678976
 20
163.7857659533619028
 30
0.0
  0
VERTEX
  5
20E2
  8
0
 10
125.5731397867203043
 20
164.6770900860427957
 30
0.0
  0
VERTEX
  5
20E3
  8
0
 10
125.4537889361380962
 20
165.633783750236006
 30
0.0
  0
VERTEX
  5
20E4
  8
0
 10
125.3470370173454
 20
166.6494813561438946
 30
0.0
  0
VERTEX
  5
20E5
  8
0
 10
125.2535881102084971
 20
167.717421967536211
 30
0.0
  0
VERTEX
  5
20E6
  8
0
 10
125.1740680634975007
 20
168.8305000588296991
 30
0.0
  0
VERTEX
  5
20E7
  8
0
 10
125.109005868434906
 20
169.9813078902660948
 30
0.0
  0
VERTEX
  5
20E8
  8
0
 10
125.0588336586952067
 20
171.1621867306529907
 30
0.0
  0
VERTEX
  5
20E9
  8
0
 10
125.0238867104053071
 20
172.3652780801056963
 30
0.0
  0
VERTEX
  5
20EA
  8
0
 10
125.004395991563797
 20
173.5825758241117001
 30
0.0
  0
VERTEX
  5
20EB
  8
0
 10
125.0004881620406962
 20
174.8059787950477926
 30
0.0
  0
VERTEX
  5
20EC
  8
0
 10
125.0121967494488047
 20
176.0273455455898954
 30
0.0
  0
VERTEX
  5
20ED
  8
0
 10
125.0394397974013998
 20
177.2385480161755993
 30
0.0
  0
VERTEX
  5
20EE
  8
0
 10
125.0820347666739991
 20
178.4315259009599117
 30
0.0
  0
VERTEX
  5
20EF
  8
0
 10
125.1397022604942038
 20
179.5983403734861952
 30
0.0
  0
VERTEX
  5
20F0
  8
0
 10
125.2120511233806042
 20
180.7312258332966906
 30
0.0
  0
VERTEX
  5
20F1
  8
0
 10
125.2986082434653952
 20
181.8226436898112013
 30
0.0
  0
VERTEX
  5
20F2
  8
0
 10
125.398792475461903
 20
182.8653310239315033
 30
0.0
  0
VERTEX
  5
20F3
  8
0
 10
125.5119369924068025
 20
183.8523476198315052
 30
0.0
  0
VERTEX
  5
20F4
  8
0
 10
125.6372930109501027
 20
184.7771267220377069
 30
0.0
  0
VERTEX
  5
20F5
  8
0
 10
125.7740223407744935
 20
185.6335122883319002
 30
0.0
  0
VERTEX
  5
20F6
  8
0
 10
125.9212160110473064
 20
186.4158074185251905
 30
0.0
  0
VERTEX
  5
20F7
  8
0
 10
126.0778942704201029
 20
187.1188041567801861
 30
0.0
  0
VERTEX
  5
20F8
  8
0
 10
126.2430177628993988
 20
187.737824469804707
 30
0.0
  0
VERTEX
  5
20F9
  8
0
 10
126.4154838025570058
 20
188.2687491178512005
 30
0.0
  0
VERTEX
  5
20FA
  8
0
 10
126.5941449999808981
 20
188.708045594394207
 30
0.0
  0
VERTEX
  5
20FB
  8
0
 10
126.7778129875659943
 20
189.0527904778718096
 30
0.0
  0
VERTEX
  5
20FC
  8
0
 10
126.9652658700942993
 20
189.3006880581378084
 30
0.0
  0
VERTEX
  5
20FD
  8
0
 10
127.1552556753158001
 20
189.4500898942351057
 30
0.0
  0
VERTEX
  5
20FE
  8
0
 10
127.3465195298195027
 20
189.5000004023312954
 30
0.0
  0
SEQEND
  5
20FF
  8
0
  0
POLYLINE
  5
181E
  8
0
 66
     1
 10
0.0
 20
0.0
 30
0.0
 70
   128
  0
VERTEX
  5
2100
  8
0
 10
144.1372206062077908
 20
184.5000005140900043
 30
0.0
  0
VERTEX
  5
2101
  8
0
 10
144.2929787188768103
 20
184.4503088667987925
 30
0.0
  0
VERTEX
  5
2102
  8
0
 10
144.4471889734267904
 20
184.3017256632446959
 30
0.0
  0
VERTEX
  5
2103
  8
0
 10
144.5983184128999994
 20
184.0557289123534872
 30
0.0
  0
VERTEX
  5
2104
  8
0
 10
144.7448657453059866
 20
183.7147624045609859
 30
0.0
  0
VERTEX
  5
2105
  8
0
 10
144.8853743821381954
 20
183.2822161540389061
 30
0.0
  0
VERTEX
  5
2106
  8
0
 10
145.0184473395347027
 20
182.7623882144688992
 30
0.0
  0
VERTEX
  5
2107
  8
0
 10
145.1427621394396112
 20
182.1604450978337866
 30
0.0
  0
VERTEX
  5
2108
  8
0
 10
145.2570819854736044
 20
181.4823686890304089
 30
0.0
  0
VERTEX
  5
2109
  8
0
 10
145.3602743893862055
 20
180.7348989695310024
 30
0.0
  0
VERTEX
  5
210A
  8
0
 10
145.4513111710548117
 20
179.9254632368682962
 30
0.0
  0
VERTEX
  5
210B
  8
0
 10
145.5292870849370956
 20
179.0621071867643934
 30
0.0
  0
VERTEX
  5
210C
  8
0
 10
145.5709656327962875
 20
178.5000009275971991
 30
0.0
  0
SEQEND
  5
210D
  8
0
  0
POLYLINE
  5
181F
  8
0
 66
     1
 10
0.0
 20
0.0
 30
0.0
 70
   128
  0
VERTEX
  5
210E
  8
0
 10
145.5709656327962875
 20
170.5000005476175886
 30
0.0
  0
VERTEX
  5
210F
  8
0
 10
145.5631294846535013
 20
170.3871298395096971
 30
0.0
  0
VERTEX
  5
2110
  8
0
 10
145.491982027888298
 20
169.5000008493661028
 30
0.0
  0
VERTEX
  5
2111
  8
0
 10
145.4073713719845102
 20
168.6625639721750929
 30
0.0
  0
VERTEX
  5
2112
  8
0
 10
145.3101357072592066
 20
167.883142437785807
 30
0.0
  0
VERTEX
  5
2113
  8
0
 10
145.201245471835108
 20
167.1694820560514074
 30
0.0
  0
VERTEX
  5
2114
  8
0
 10
145.0817791372537044
 20
166.528675779700194
 30
0.0
  0
VERTEX
  5
2115
  8
0
 10
144.9529250711202053
 20
165.9670919924973873
 30
0.0
  0
VERTEX
  5
2116
  8
0
 10
144.8159647732973099
 20
165.4903116449713139
 30
0.0
  0
VERTEX
  5
2117
  8
0
 10
144.6722579747437862
 20
165.1030742377041918
 30
0.0
  0
VERTEX
  5
2118
  8
0
 10
144.5232333242892935
 20
164.8092279955743891
 30
0.0
  0
VERTEX
  5
2119
  8
0
 10
144.3703734874725058
 20
164.6116926148532968
 30
0.0
  0
VERTEX
  5
211A
  8
0
 10
144.2151965200901031
 20
164.5124313235282045
 30
0.0
  0
VERTEX
  5
211B
  8
0
 10
144.059244692325592
 20
164.5124313235282045
 30
0.0
  0
VERTEX
  5
211C
  8
0
 10
143.9040677249431042
 20
164.6116926148532968
 30
0.0
  0
VERTEX
  5
211D
  8
0
 10
143.7512060254811956
 20
164.8092279955743891
 30
0.0
  0
VERTEX
  5
211E
  8
0
 10
143.6021832376717953
 20
165.1030742377041918
 30
0.0
  0
VERTEX
  5
211F
  8
0
 10
143.4584764391184137
 20
165.4903116449713139
 30
0.0
  0
VERTEX
  5
2120
  8
0
 10
143.3215161412954046
 20
165.9670919924973873
 30
0.0
  0
VERTEX
  5
2121
  8
0
 10
143.1926620751619055
 20
166.528675779700194
 30
0.0
  0
VERTEX
  5
2122
  8
0
 10
143.0731957405805019
 20
167.1694820560514074
 30
0.0
  0
VERTEX
  5
2123
  8
0
 10
142.9643036425113962
 20
167.883142437785807
 30
0.0
  0
VERTEX
  5
2124
  8
0
 10
142.8670698404312134
 20
168.6625639721750929
 30
0.0
  0
VERTEX
  5
2125
  8
0
 10
142.7824573218821911
 20
169.5000008493661028
 30
0.0
  0
VERTEX
  5
2126
  8
0
 10
142.7113117277621939
 20
170.3871298395096971
 30
0.0
  0
VERTEX
  5
2127
  8
0
 10
142.6543352752923965
 20
171.3151343446224075
 30
0.0
  0
VERTEX
  5
2128
  8
0
 10
142.6120979338884069
 20
172.2747914772479874
 30
0.0
  0
VERTEX
  5
2129
  8
0
 10
142.5850169360637949
 20
173.2565636793150929
 30
0.0
  0
VERTEX
  5
212A
  8
0
 10
142.573362365365
 20
174.2506938334553865
 30
0.0
  0
VERTEX
  5
212B
  8
0
 10
142.5772497057915018
 20
175.2473016548900944
 30
0.0
  0
VERTEX
  5
212C
  8
0
 10
142.5966417044400885
 20
176.2364825280382945
 30
0.0
  0
VERTEX
  5
212D
  8
0
 10
142.6313446462154104
 20
177.2084055282174972
 30
0.0
  0
VERTEX
  5
212E
  8
0
 10
142.6810139417648031
 20
178.153411094099198
 30
0.0
  0
VERTEX
  5
212F
  8
0
 10
142.7451541274785995
 20
179.0621071867643934
 30
0.0
  0
VERTEX
  5
2130
  8
0
 10
142.8231300413607983
 20
179.9254632368682962
 30
0.0
  0
VERTEX
  5
2131
  8
0
 10
142.9141668230294897
 20
180.7348989695310024
 30
0.0
  0
VERTEX
  5
2132
  8
0
 10
143.0173573642969131
 20
181.4823686890304089
 30
0.0
  0
VERTEX
  5
2133
  8
0
 10
143.1316790729761124
 20
182.1604450978337866
 30
0.0
  0
VERTEX
  5
2134
  8
0
 10
143.2559938728809072
 20
182.7623882144688992
 30
0.0
  0
VERTEX
  5
2135
  8
0
 10
143.3890668302773861
 20
183.2822161540389061
 30
0.0
  0
VERTEX
  5
2136
  8
0
 10
143.5295736044645025
 20
183.7147624045609859
 30
0.0
  0
VERTEX
  5
2137
  8
0
 10
143.6761209368706034
 20
184.0557289123534872
 30
0.0
  0
VERTEX
  5
2138
  8
0
 10
143.8272522389889048
 20
184.3017256632446959
 30
0.0
  0
VERTEX
  5
2139
  8
0
 10
143.9814624935387997
 20
184.4503088667987925
 30
0.0
  0
VERTEX
  5
213A
  8
0
 10
144.1372206062077908
 20
184.5000005140900043
 30
0.0
  0
VERTEX
  5
213B
  8
0
 10
144.1372206062077908
 20
184.5000005140900043
 30
0.0
  0
SEQEND
  5
213C
  8
0
  0
POLYLINE
  5
1821
  8
0
 66
     1
 10
0.0
 20
0.0
 30
0.0
 70
   128
  0
VERTEX
  5
213D
  8
0
 10
144.1372206062077908
 20
170.5000005476175886
 30
0.0
  0
VERTEX
  5
213E
  8
0
 10
144.0393330156803131
 20
170.5492474883793932
 30
0.0
  0
VERTEX
  5
213F
  8
0
 10
143.9438575506210043
 20
170.6957745645194962
 30
0.0
  0
VERTEX
  5
2140
  8
0
 10
143.853141143918009
 20
170.9359745308755976
 30
0.0
  0
VERTEX
  5
2141
  8
0
 10
143.7694208323954967
 20
171.263932790607214
 30
0.0
  0
VERTEX
  5
2142
  8
0
 10
143.6947567015886023
 20
171.6715736128388983
 30
0.0
  0
VERTEX
  5
2143
  8
0
 10
143.6309871822595028
 20
172.1488596685229879
 30
0.0
  0
VERTEX
  5
2144
  8
0
 10
143.5796843469142914
 20
172.6840387145057036
 30
0.0
  0
VERTEX
  5
2145
  8
0
 10
143.5421092063187984
 20
173.2639327691867095
 30
0.0
  0
VERTEX
  5
2146
  8
0
 10
143.5191856324672983
 20
173.8742628530598893
 30
0.0
  0
VERTEX
  5
2147
  8
0
 10
143.5114817321299938
 20
174.5000007376075075
 30
0.0
  0
VERTEX
  5
2148
  8
0
 10
143.5191856324672983
 20
175.1257386221550121
 30
0.0
  0
VERTEX
  5
2149
  8
0
 10
143.5421092063187984
 20
175.7360687060281066
 30
0.0
  0
VERTEX
  5
214A
  8
0
 10
143.5796843469142914
 20
176.3159627607091977
 30
0.0
  0
VERTEX
  5
214B
  8
0
 10
143.6309871822595028
 20
176.8511418066917997
 30
0.0
  0
VERTEX
  5
214C
  8
0
 10
143.6947567015886023
 20
177.3284278623758894
 30
0.0
  0
VERTEX
  5
214D
  8
0
 10
143.7694208323954967
 20
177.7360686846076874
 30
0.0
  0
VERTEX
  5
214E
  8
0
 10
143.853141143918009
 20
178.0640269443391901
 30
0.0
  0
VERTEX
  5
214F
  8
0
 10
143.9438575506210043
 20
178.3042269106954052
 30
0.0
  0
VERTEX
  5
2150
  8
0
 10
144.0393330156803131
 20
178.4507539868353945
 30
0.0
  0
VERTEX
  5
2151
  8
0
 10
144.1372206062077908
 20
178.5000009275971991
 30
0.0
  0
SEQEND
  5
2152
  8
0
  0
CIRCLE
  5
1824
  8
0
 10
170.1738724112510965
 20
174.5000007376073938
 30
0.0
 40
3.3999999999999768
  0
CIRCLE
  5
1825
  8
0
 10
170.1738724112510965
 20
174.5000007376073938
 30
0.0
 40
9.5
  0
CIRCLE
  5
1827
  8
0
 10
170.1738724112510965
 20
174.5000007376073938
 30
0.0
 40
17.4999999999999716
  0
CIRCLE
  5
1838
  8
3
 10
170.1738724112510965
 20
174.5000007376073938
 30
0.0
 40
4.0000001899898052
  0
ARC
  5
1957
  8
2
 10
171.3609186388372905
 20
69.3135379464905839
 30
0.0
 40
5.9999999999998828
 50
14.3440312982157394
 51
71.395547344838505
  0
LINE
  5
1958
  8
2
 10
177.1738726273179054
 20
70.7999995909631252
 30
0.0
 11
177.1738726273179054
 21
69.9999995529651642
 31
0.0
  0
LINE
  5
1960
  8
2
 10
163.1738721951842024
 20
69.9999995529651642
 30
0.0
 11
163.1738721951842024
 21
70.7999995909631252
 31
0.0
  0
ARC
  5
1961
  8
2
 10
168.9868261836649026
 20
69.3135379464905839
 30
0.0
 40
5.9999999999998828
 50
108.604452655161495
 51
165.6559687017837916
  0
LINE
  5
1966
  8
2
 10
167.0726277432956124
 20
74.9999994412064552
 30
0.0
 11
173.275116514414492
 21
74.9999994412064552
 31
0.0
  0
LINE
  5
199E
  8
0
 10
140.7631226682040904
 20
81.4888707074840539
 30
0.0
 11
145.7015649974345877
 21
82.2710433974861957
 31
0.0
  0
LINE
  5
199F
  8
0
 10
142.5728762149811075
 20
102.0248105749488019
 30
0.0
 11
137.6344338857506102
 21
101.2426378849466033
 31
0.0
  0
LINE
  5
19A0
  8
0
 10
141.5452958643435863
 20
76.5504289418458939
 30
0.0
 11
129.6930351853370951
 21
74.6732160449028015
 31
0.0
  0
LINE
  5
19A5
  8
0
 10
125.0000001490115977
 20
104.3038649484515048
 30
0.0
 11
136.8522608280181885
 21
106.1810797080397037
 31
0.0
  0
LINE
  5
19AA
  8
0
 10
141.5452958643435863
 20
76.5504289418458939
 30
0.0
 11
136.8522608280181885
 21
106.1810797080397037
 31
0.0
  0
LINE
  5
19AB
  8
0
 10
129.6930499729531903
 20
74.6732183870301469
 30
0.0
 11
125.0000001490115977
 21
104.3038649484515048
 31
0.0
  0
LINE
  5
19AC
  8
0
 10
145.7015612673772011
 20
82.2710428067029369
 30
0.0
 11
142.5728762149811075
 21
102.0248105749488019
 31
0.0
  0
LINE
  5
19BB
  8
2
 10
160.673872716724901
 20
88.9999998733401156
 30
0.0
 11
161.2512228637934015
 21
87.9999997094273567
 31
0.0
  0
LINE
  5
19BC
  8
2
 10
179.0965219587087063
 20
87.9999997094273567
 30
0.0
 11
179.6738721057772068
 21
88.9999998733401156
 31
0.0
  0
LINE
  5
19BD
  8
2
 10
163.1738721951842024
 20
87.5000005587935448
 30
0.0
 11
163.6738722771405889
 21
86.9999995455145836
 31
0.0
  0
LINE
  5
19BE
  8
2
 10
176.6738725453614904
 20
86.9999995455145836
 30
0.0
 11
177.1738726273179054
 21
87.5000005587935448
 31
0.0
  0
LINE
  5
19BF
  8
2
 10
174.4398979097605036
 20
86.9999995455145836
 30
0.0
 11
173.5738724563271091
 21
88.4999988600611545
 31
0.0
  0
LINE
  5
19C0
  8
2
 10
166.7738723661749987
 20
88.4999988600611545
 30
0.0
 11
165.9078469127416042
 21
86.9999995455145836
 31
0.0
  0
LINE
  5
19C1
  8
2
 10
166.7738723661749987
 20
88.4999988600611545
 30
0.0
 11
173.5738724563271091
 21
88.4999988600611545
 31
0.0
  0
LINE
  5
19C5
  8
0
 10
160.673872716724901
 20
116.4999997243285037
 30
0.0
 11
160.673872716724901
 21
106.9999990984797051
 31
0.0
  0
LINE
  5
19C6
  8
0
 10
161.1738727986812023
 20
117.0000007376074933
 30
0.0
 11
160.673872716724901
 21
116.4999997243285037
 31
0.0
  0
LINE
  5
19C8
  8
2
 10
165.6191718392074108
 20
117.0000007376074933
 30
0.0
 11
166.7738723661749987
 21
115.0000004097819044
 31
0.0
  0
LINE
  5
19C9
  8
2
 10
166.7738723661749987
 20
88.4999988600611545
 30
0.0
 11
166.7738723661749987
 21
115.0000004097819044
 31
0.0
  0
LINE
  5
19CA
  8
2
 10
163.1738721951842024
 20
87.9999997094273567
 30
0.0
 11
163.1738721951842024
 21
87.5000005587935448
 31
0.0
  0
LINE
  5
19CB
  8
2
 10
161.2512228637934015
 20
87.9999997094273567
 30
0.0
 11
163.1738721951842024
 21
87.9999997094273567
 31
0.0
  0
LINE
  5
19CC
  8
2
 10
163.6738722771405889
 20
86.9999995455145836
 30
0.0
 11
176.6738725453614904
 21
86.9999995455145836
 31
0.0
  0
LINE
  5
19CD
  8
2
 10
173.5738724563271091
 20
115.0000004097819044
 30
0.0
 11
173.5738724563271091
 21
88.4999988600611545
 31
0.0
  0
LINE
  5
19CE
  8
2
 10
173.5738724563271091
 20
115.0000004097819044
 30
0.0
 11
174.728572983294697
 21
117.0000007376074933
 31
0.0
  0
LINE
  5
19CF
  8
0
 10
179.1738720238209055
 20
117.0000007376074933
 30
0.0
 11
161.1738727986812876
 21
117.0000007376073938
 31
0.0
  0
LINE
  5
19D0
  8
0
 10
179.6738721057772068
 20
116.4999997243285037
 30
0.0
 11
179.1738720238209055
 21
117.0000007376074933
 31
0.0
  0
LINE
  5
19D1
  8
0
 10
179.6738721057772068
 20
106.9999990984797051
 30
0.0
 11
179.6738721057772068
 21
116.4999997243285037
 31
0.0
  0
LINE
  5
19D2
  8
2
 10
177.1738726273179054
 20
87.9999997094273567
 30
0.0
 11
179.0965219587087063
 21
87.9999997094273567
 31
0.0
  0
LINE
  5
19D3
  8
2
 10
177.1738726273179054
 20
87.5000005587935448
 30
0.0
 11
177.1738726273179054
 21
87.9999997094273567
 31
0.0
  0
LINE
  5
19D5
  8
2
 10
173.5738724563271091
 20
115.0000004097819044
 30
0.0
 11
166.7738723661749987
 21
115.0000004097819044
 31
0.0
  0
LINE
  5
19D9
  8
2
 10
160.673872716724901
 20
70.8000004321333734
 30
0.0
 11
160.673872716724901
 21
106.9999990984797051
 31
0.0
  0
LINE
  5
19DC
  8
2
 10
179.6738721057772068
 20
106.9999990984797051
 30
0.0
 11
179.6738721057772921
 21
70.8000004321333023
 31
0.0
  0
LINE
  5
19E0
  8
0
 10
152.6738723367452053
 20
65.9999997122212534
 30
0.0
 11
152.6738723367452053
 21
106.0000007972120954
 31
0.0
  0
LINE
  5
19E3
  8
0
 10
187.6738724857569025
 20
106.0000007972120954
 30
0.0
 11
187.6738724857569025
 21
65.9999997122213244
 31
0.0
  0
LINE
  5
19E4
  8
2
 10
160.673872716724901
 20
75.0014942139387131
 30
0.0
 11
152.6738723367452053
 21
73.734418675303445
 31
0.0
  0
LINE
  5
19E5
  8
2
 10
152.6738723367452053
 20
76.2655811384320259
 30
0.0
 11
160.673872716724901
 21
77.5326566770672656
 31
0.0
  0
LINE
  5
19E6
  8
0
 10
153.6738725006580069
 20
64.9999996647238731
 30
0.0
 11
152.6738723367452053
 21
65.9999997122213244
 31
0.0
  0
LINE
  5
19E7
  8
0
 10
187.6738724857569025
 20
65.9999997122213244
 30
0.0
 11
186.673872321844101
 21
64.9999996647238731
 31
0.0
  0
LINE
  5
19EF
  8
0
 10
186.673872321844101
 20
106.9999990984797051
 30
0.0
 11
187.6738724857569025
 21
106.0000007972120954
 31
0.0
  0
LINE
  5
19F1
  8
0
 10
186.673872321844101
 20
64.9999996647238731
 30
0.0
 11
153.6738725006580069
 21
64.9999996647238731
 31
0.0
  0
LINE
  5
19F2
  8
0
 10
152.6738723367452053
 20
106.0000007972120954
 30
0.0
 11
153.6738725006580069
 21
106.9999990984797051
 31
0.0
  0
LINE
  5
19F3
  8
0
 10
153.6738725006580069
 20
106.9999990984797051
 30
0.0
 11
186.673872321844101
 21
106.9999990984797051
 31
0.0
  0
LINE
  5
1A08
  8
2
 10
174.1738726012409018
 20
116.0392297431826023
 30
0.0
 11
174.1738726012409018
 21
100.9999981150030948
 31
0.0
  0
LINE
  5
1A09
  8
2
 10
166.1738722212612061
 20
100.9999981150030948
 30
0.0
 11
166.1738722212612061
 21
116.0392297431826023
 31
0.0
  0
LINE
  5
1A0C
  8
2
 10
166.1738722212612061
 20
100.9999981150030948
 30
0.0
 11
174.1738726012409018
 21
100.9999981150030948
 31
0.0
  0
LINE
  5
1A15
  8
1
 10
170.1738724112510965
 20
45.0
 30
0.0
 11
170.1738724112510965
 21
122.0000007376073938
 31
0.0
  0
LINE
  5
1A16
  8
1
 10
150.7431030929870133
 20
74.6941958468548393
 30
0.0
 11
162.731371220448608
 21
76.5929509846833412
 31
0.0
  0
LINE
  5
1A17
  8
1
 10
125.3711483393100963
 20
89.1756729932542811
 30
0.0
 11
162.731371220448608
 21
95.092950984683327
 31
0.0
  0
LINE
  5
1BB0
  8
0
 10
139.2944903671740917
 20
159.512483589351092
 30
0.0
 11
139.1987783461808874
 21
159.500001072883606
 31
0.0
  0
LINE
  5
1BC3
  8
3
 10
152.9923606107720957
 20
171.1765007376070002
 30
0.0
 11
143.7917402541420984
 21
171.1765007376070002
 31
0.0
  0
LINE
  5
1BC4
  8
3
 10
143.7917402541418994
 20
177.8235007376071053
 30
0.0
 11
152.9923606107720104
 21
177.8235007376071053
 31
0.0
  0
LINE
  5
1BD6
  8
1
 10
170.1738724112510965
 20
197.0000007376073938
 30
0.0
 11
170.1738724112510965
 21
152.0000007376075075
 31
0.0
  0
LINE
  5
1BD7
  8
1
 10
192.6738724112510113
 20
174.5000007376073938
 30
0.0
 11
120.0014400184080046
 21
174.5000007376073938
 31
0.0
  0
LINE
  5
1C05
  8
3
 10
173.4973724112512059
 20
64.9999996647238731
 30
0.0
 11
173.4973724112510922
 21
50.5235000000001193
 31
0.0
  0
LINE
  5
1C06
  8
0
 10
174.1738724112510113
 20
64.9999996647238731
 30
0.0
 11
174.1738724112512102
 21
51.1999999999999886
 31
0.0
  0
LINE
  5
1C07
  8
0
 10
166.1738724112512102
 20
64.9999996647238731
 30
0.0
 11
166.1738724112512102
 21
51.2000000000000384
 31
0.0
  0
LINE
  5
1C08
  8
3
 10
166.8503724112509019
 20
64.9999996647238731
 30
0.0
 11
166.8503724112509019
 21
50.5235000000001193
 31
0.0
  0
LINE
  5
1C09
  8
0
 10
172.9738724112511079
 20
50.0
 30
0.0
 11
167.3738724112511136
 21
50.0
 31
0.0
  0
LINE
  5
1C0A
  8
0
 10
174.1738724112512102
 20
51.1999999999999318
 30
0.0
 11
166.1738724112512102
 21
51.2000000000000384
 31
0.0
  0
LINE
  5
1C0B
  8
0
 10
167.3738724112511136
 20
50.0
 30
0.0
 11
166.1738724112512102
 21
51.2000000000000384
 31
0.0
  0
LINE
  5
1C0C
  8
0
 10
174.1738724112512102
 20
51.1999999999999886
 30
0.0
 11
172.9738724112511079
 21
50.0
 31
0.0
  0
LINE
  5
1C12
  8
1
 10
166.1738724112510965
 20
91.9999996647237879
 30
0.0
 11
174.1738724112510113
 21
91.9999996647237879
 31
0.0
  0
LINE
  5
1C16
  8
0
 10
170.1738724112508123
 20
90.8452991272847896
 30
0.0
 11
169.1738724112508123
 21
91.4226493964742133
 31
0.0
  0
LINE
  5
1C17
  8
0
 10
171.1738724104359051
 20
91.4226493960038908
 30
0.0
 11
170.1738724104367861
 21
90.8452991268141261
 31
0.0
  0
CIRCLE
  5
1C18
  8
0
 10
170.1738724112510965
 20
91.9999996647237879
 30
0.0
 40
2.0
  0
CIRCLE
  5
1C19
  8
3
 10
170.1738724112510965
 20
91.9999996647237879
 30
0.0
 40
1.6500006914138079
  0
LINE
  5
1C1A
  8
0
 10
170.1738724112508123
 20
93.1547002021627861
 30
0.0
 11
171.1738724112508123
 21
92.5773499329733625
 31
0.0
  0
LINE
  5
1C1B
  8
0
 10
169.1738724120648101
 20
92.5773499334436849
 30
0.0
 11
170.1738724120648101
 21
93.1547002026334638
 31
0.0
  0
LINE
  5
1C1C
  8
0
 10
169.1738724120648101
 20
91.4226493960044593
 30
0.0
 11
169.1738724120648101
 21
92.5773499343836477
 31
0.0
  0
LINE
  5
1C1D
  8
0
 10
171.1738724104367861
 20
92.5773499334437986
 30
0.0
 11
171.1738724104367861
 21
91.4226493950646102
 31
0.0
  0
LINE
  5
1C20
  8
3
 10
145.2608866963950902
 20
88.9609702255863084
 30
0.0
 11
144.712345641729712
 21
88.5167704379662439
 31
0.0
  0
LINE
  5
1C21
  8
0
 10
144.1152335632953054
 20
96.1943049440026954
 30
0.0
 11
145.3667092836172117
 21
88.2927982192415755
 31
0.0
  0
LINE
  5
1C22
  8
3
 10
144.2210614788949101
 20
95.5261337815901044
 30
0.0
 11
143.5621084667498053
 21
95.7790821437309461
 31
0.0
  0
LINE
  5
1C2E
  8
3
 10
152.6738723367452053
 20
90.1350718073669981
 30
0.0
 11
145.260881368017408
 21
88.9609693816541949
 31
0.0
  0
LINE
  5
1C2F
  8
0
 10
144.7629646707783877
 20
88.1971744666382307
 30
0.0
 11
152.6738723367452053
 21
89.4501391497714451
 31
0.0
  0
LINE
  5
1C30
  8
3
 10
144.2210614788949101
 20
95.5261337815901044
 30
0.0
 11
152.6738723367452053
 21
96.8649274984798438
 31
0.0
  0
LINE
  5
1C31
  8
0
 10
152.6738723367450916
 20
97.5498601560754963
 30
0.0
 11
143.5114889504565099
 21
96.0986811913993222
 31
0.0
  0
LINE
  5
1C3A
  8
2
 10
163.1738724112506134
 20
70.7999996647239129
 30
0.0
 11
177.1738726273179054
 21
70.7999996647239129
 31
0.0
  0
LINE
  5
1C43
  8
2
 10
166.7738723661749987
 20
99.960767708534064
 30
0.0
 11
166.1738724112501018
 21
100.9999981150030948
 31
0.0
  0
LINE
  5
1C44
  8
2
 10
173.5738724563271091
 20
99.9607677085369204
 30
0.0
 11
174.173872411250386
 21
100.9999981150030948
 31
0.0
  0
LINE
  5
1C52
  8
0
 10
152.6738723367452053
 20
106.0000007972120954
 30
0.0
 11
187.6738724857569025
 21
106.0000007972120954
 31
0.0
  0
LINE
  5
1C53
  8
0
 10
160.673872716724901
 20
116.4999997243285037
 30
0.0
 11
179.6738721057772068
 21
116.4999997243285037
 31
0.0
  0
LINE
  5
1C54
  8
0
 10
152.6738723367452053
 20
65.9999997122213244
 30
0.0
 11
187.6738724857569025
 21
65.9999997122213244
 31
0.0
  0
LINE
  5
1C60
  8
2
 10
173.4973724112512059
 20
67.4999995529644821
 30
0.0
 11
173.4973724112510922
 21
64.9999996647238731
 31
0.0
  0
LINE
  5
1C61
  8
2
 10
174.1738724112510113
 20
69.9999995529651642
 30
0.0
 11
174.1738724112510113
 21
64.9999996647238731
 31
0.0
  0
LINE
  5
1C62
  8
2
 10
166.1738724112512102
 20
69.9999995529651642
 30
0.0
 11
166.1738724112512102
 21
64.9999996647238731
 31
0.0
  0
LINE
  5
1C63
  8
2
 10
166.8503724112509019
 20
67.4999995529644821
 30
0.0
 11
166.8503724112509019
 21
64.9999996647238731
 31
0.0
  0
LINE
  5
1CA3
  8
2
 10
174.1738724112510113
 20
67.4999995529644821
 30
0.0
 11
166.1738724112510965
 21
67.4999995529644821
 31
0.0
  0
LINE
  5
1CA4
  8
2
 10
166.8503724112509019
 20
67.4999995529644821
 30
0.0
 11
166.1738724112510965
 21
68.6717319242845861
 31
0.0
  0
LINE
  5
1CA5
  8
2
 10
173.4973724112512059
 20
67.4999995529644821
 30
0.0
 11
174.1738724112510113
 21
68.6717319242845861
 31
0.0
  0
LINE
  5
1CC6
  8
0
 10
58.0000003799796104
 20
116.4999997243285037
 30
0.0
 11
58.0000003799796673
 21
106.9999990984797051
 31
0.0
  0
LINE
  5
1CC7
  8
0
 10
58.5000004619359899
 20
117.0000007376074933
 30
0.0
 11
58.0000003799796104
 21
116.4999997243285037
 31
0.0
  0
LINE
  5
1CCF
  8
0
 10
76.4999996870756149
 20
117.0000007376074933
 30
0.0
 11
58.5000004619360467
 21
117.0000007376073938
 31
0.0
  0
LINE
  5
1CD0
  8
0
 10
76.9999997690320015
 20
116.4999997243285037
 30
0.0
 11
76.4999996870756149
 21
117.0000007376074933
 31
0.0
  0
LINE
  5
1CD1
  8
0
 10
76.9999997690320015
 20
106.9999990984797051
 30
0.0
 11
76.9999997690320015
 21
116.4999997243285037
 31
0.0
  0
LINE
  5
1CD7
  8
0
 10
50.0
 20
65.9999997122212534
 30
0.0
 11
50.0
 21
106.0000007972120954
 31
0.0
  0
LINE
  5
1CD8
  8
0
 10
85.0000001490116119
 20
106.0000007972120954
 30
0.0
 11
85.0000001490116119
 21
65.9999997122213244
 31
0.0
  0
LINE
  5
1CDB
  8
0
 10
51.0000001639127731
 20
64.9999996647238731
 30
0.0
 11
50.0
 21
65.9999997122213244
 31
0.0
  0
LINE
  5
1CDC
  8
0
 10
85.0000001490116119
 20
65.9999997122213244
 30
0.0
 11
83.9999999850988246
 21
64.9999996647238731
 31
0.0
  0
LINE
  5
1CDD
  8
0
 10
83.9999999850988246
 20
106.9999990984797051
 30
0.0
 11
85.0000001490116119
 21
106.0000007972120954
 31
0.0
  0
LINE
  5
1CDF
  8
0
 10
83.9999999850988246
 20
64.9999996647238731
 30
0.0
 11
51.0000001639127731
 21
64.9999996647238731
 31
0.0
  0
LINE
  5
1CE0
  8
0
 10
50.0
 20
106.0000007972120954
 30
0.0
 11
51.0000001639127731
 21
106.9999990984797051
 31
0.0
  0
LINE
  5
1CE1
  8
0
 10
51.0000001639127731
 20
106.9999990984797051
 30
0.0
 11
83.9999999850988956
 21
106.9999990984797051
 31
0.0
  0
LINE
  5
1CE5
  8
1
 10
67.5000000745058628
 20
45.0
 30
0.0
 11
67.5000000745057491
 21
122.0000007376073938
 31
0.0
  0
LINE
  5
1CE8
  8
3
 10
70.8235000745060006
 20
64.9999996647238731
 30
0.0
 11
70.8235000745058869
 21
50.5235000000001193
 31
0.0
  0
LINE
  5
1CE9
  8
0
 10
71.5000000745058628
 20
64.9999996647238731
 30
0.0
 11
71.5000000745059197
 21
51.1999999999999886
 31
0.0
  0
LINE
  5
1CEA
  8
0
 10
63.5000000745059197
 20
64.9999996647238731
 30
0.0
 11
63.5000000745059197
 21
51.2000000000000384
 31
0.0
  0
LINE
  5
1CEB
  8
3
 10
64.1765000745056682
 20
64.9999996647238731
 30
0.0
 11
64.176500074505725
 21
50.5235000000001193
 31
0.0
  0
LINE
  5
1CEC
  8
0
 10
70.3000000745058742
 20
50.0
 30
0.0
 11
64.7000000745058514
 21
50.0
 31
0.0
  0
LINE
  5
1CED
  8
0
 10
71.5000000745059197
 20
51.1999999999999318
 30
0.0
 11
63.5000000745059197
 21
51.2000000000000384
 31
0.0
  0
LINE
  5
1CEE
  8
0
 10
64.7000000745058514
 20
50.0
 30
0.0
 11
63.5000000745059197
 21
51.2000000000000384
 31
0.0
  0
LINE
  5
1CEF
  8
0
 10
71.5000000745059197
 20
51.1999999999999886
 30
0.0
 11
70.3000000745058742
 21
50.0
 31
0.0
  0
LINE
  5
1D03
  8
0
 10
50.0
 20
106.0000007972120954
 30
0.0
 11
64.9421633475487283
 21
106.0000007972120954
 31
0.0
  0
LINE
  5
1D04
  8
0
 10
58.0000003799796104
 20
116.4999997243285037
 30
0.0
 11
76.9999997690320015
 21
116.4999997243285037
 31
0.0
  0
LINE
  5
1D05
  8
0
 10
50.0
 20
65.9999997122213244
 30
0.0
 11
85.0000001490116119
 21
65.9999997122213244
 31
0.0
  0
LINE
  5
1D49
  8
0
 10
63.5000000745060333
 20
90.5835821617322949
 30
0.0
 11
63.5000000745060333
 21
90.4271476966921028
 31
0.0
  0
LINE
  5
1D4A
  8
0
 10
71.5000000745060333
 20
90.4271476966922876
 30
0.0
 11
71.5000000745060333
 21
90.5835821617325365
 31
0.0
  0
LINE
  5
1D4B
  8
0
 10
82.5000000745060902
 20
89.4885409064512061
 30
0.0
 11
82.5000000745060333
 21
91.3657544869339944
 31
0.0
  0
LINE
  5
1D4C
  8
0
 10
52.5000000745060333
 20
91.3657544869331844
 30
0.0
 11
52.5000000745060902
 21
89.4885409064503961
 31
0.0
  0
CIRCLE
  5
1D5A
  8
0
 10
67.4948957760457802
 20
90.3943153453286783
 30
0.0
 40
3.9835889838948839
  0
CIRCLE
  5
1D5B
  8
0
 10
67.4952730681937254
 20
90.3190659971068186
 30
0.0
 40
3.4867768633393919
  0
LINE
  5
1D5C
  8
0
 10
68.6547006128852786
 20
88.3735537829818156
 30
0.0
 11
66.3452995361267881
 21
88.3735537829818156
 31
0.0
  0
LINE
  5
1D5D
  8
0
 10
68.6547006128852786
 20
88.3735537829818156
 30
0.0
 11
69.8094011512645807
 21
90.3489304641721134
 31
0.0
  0
LINE
  5
1D5E
  8
0
 10
68.6547006128852786
 20
92.3243071453623685
 30
0.0
 11
69.8094011512645807
 21
90.3489304641721134
 31
0.0
  0
LINE
  5
1D5F
  8
0
 10
68.6547006128852786
 20
92.3243071453623685
 30
0.0
 11
66.3452995361267881
 21
92.3243071453623685
 31
0.0
  0
LINE
  5
1D60
  8
0
 10
66.3452995361267881
 20
92.3243071453623685
 30
0.0
 11
65.1905989977475429
 21
90.348930464172085
 31
0.0
  0
LINE
  5
1D61
  8
0
 10
66.3452995361267881
 20
88.3735537829818156
 30
0.0
 11
65.1905989977475429
 21
90.348930464172085
 31
0.0
  0
POLYLINE
  5
1D69
  8
0
 66
     1
 10
0.0
 20
0.0
 30
0.0
 70
   128
  0
VERTEX
  5
2153
  8
0
 10
52.5000000745060902
 20
89.4885409064507655
 30
0.0
  0
VERTEX
  5
2154
  8
0
 10
52.5499113370931923
 20
88.2809543713053131
 30
0.0
  0
VERTEX
  5
2155
  8
0
 10
52.6993129736367223
 20
87.081404125313469
 30
0.0
  0
VERTEX
  5
2156
  8
0
 10
52.9472107408951231
 20
85.8978729774505041
 30
0.0
  0
VERTEX
  5
2157
  8
0
 10
53.2919549201274734
 20
84.7382371322365202
 30
0.0
  0
VERTEX
  5
2158
  8
0
 10
53.7312512956996784
 20
83.610213774894973
 30
0.0
  0
VERTEX
  5
2159
  8
0
 10
54.2621764227112635
 20
82.5213097147582459
 30
0.0
  0
VERTEX
  5
215A
  8
0
 10
54.8811970820383905
 20
81.4787714286899671
 30
0.0
  0
VERTEX
  5
215B
  8
0
 10
55.5841937933244026
 20
80.4895368369772655
 30
0.0
  0
VERTEX
  5
215C
  8
0
 10
56.3664882294420408
 20
79.5601891326157613
 30
0.0
  0
VERTEX
  5
215D
  8
0
 10
57.2228743499884374
 20
78.6969129712463769
 30
0.0
  0
VERTEX
  5
215E
  8
0
 10
58.1476530466251234
 20
77.9054533132924973
 30
0.0
  0
VERTEX
  5
215F
  8
0
 10
59.1346700697037022
 20
77.1910771921961611
 30
0.0
  0
VERTEX
  5
2160
  8
0
 10
60.1773569837819196
 20
76.5585386631794904
 30
0.0
  0
VERTEX
  5
2161
  8
0
 10
61.2687748794778599
 20
76.0120471657915573
 30
0.0
  0
VERTEX
  5
2162
  8
0
 10
62.4016605507669126
 20
75.5552395107827692
 30
0.0
  0
VERTEX
  5
2163
  8
0
 10
63.5684748304196319
 20
75.191155677729256
 30
0.0
  0
VERTEX
  5
2164
  8
0
 10
64.7614527619157343
 20
74.9222185844703432
 30
0.0
  0
VERTEX
  5
2165
  8
0
 10
65.9726552739486465
 20
74.7502179629902059
 30
0.0
  0
VERTEX
  5
2166
  8
0
 10
67.1940220136351058
 20
74.6762984490466692
 30
0.0
  0
VERTEX
  5
2167
  8
0
 10
68.4174249868337938
 20
74.7009519648091782
 30
0.0
  0
VERTEX
  5
2168
  8
0
 10
69.6347226486054041
 20
74.8240144451978608
 30
0.0
  0
VERTEX
  5
2169
  8
0
 10
70.8378140838509012
 20
75.0446669297096349
 30
0.0
  0
VERTEX
  5
216A
  8
0
 10
72.0186929175646924
 20
75.3614410124651783
 30
0.0
  0
VERTEX
  5
216B
  8
0
 10
73.1695005959397804
 20
75.7722286142077621
 30
0.0
  0
VERTEX
  5
216C
  8
0
 10
74.2825786837464648
 20
76.2742960112229582
 30
0.0
  0
VERTEX
  5
216D
  8
0
 10
75.3505198299553172
 20
76.8643020278189795
 30
0.0
  0
VERTEX
  5
216E
  8
0
 10
76.3662170624363057
 20
77.5383202712995114
 30
0.0
  0
VERTEX
  5
216F
  8
0
 10
77.3229110836854261
 20
78.2918652614593213
 30
0.0
  0
VERTEX
  5
2170
  8
0
 10
78.214235252834726
 20
79.1199222807151159
 30
0.0
  0
VERTEX
  5
2171
  8
0
 10
79.0342579545965691
 20
80.0169807462235241
 30
0.0
  0
VERTEX
  5
2172
  8
0
 10
79.7775220731850254
 20
80.9770708819008149
 30
0.0
  0
VERTEX
  5
2173
  8
0
 10
80.4390813085208265
 20
81.9938034462977754
 30
0.0
  0
VERTEX
  5
2174
  8
0
 10
81.0145330930424166
 20
83.0604122519474544
 30
0.0
  0
VERTEX
  5
2175
  8
0
 10
81.5000478900665826
 20
84.1697991932262255
 30
0.0
  0
VERTEX
  5
2176
  8
0
 10
81.8923946787235764
 20
85.3145814830758979
 30
0.0
  0
VERTEX
  5
2177
  8
0
 10
82.188962455867383
 20
86.4871407842333326
 30
0.0
  0
VERTEX
  5
2178
  8
0
 10
82.3877776118715133
 20
87.6796739080079419
 30
0.0
  0
VERTEX
  5
2179
  8
0
 10
82.4875170646748188
 20
88.8842447432151204
 30
0.0
  0
VERTEX
  5
217A
  8
0
 10
82.487517064674762
 20
90.0928370696867944
 30
0.0
  0
VERTEX
  5
217B
  8
0
 10
82.3877776118714564
 20
91.2974079048940297
 30
0.0
  0
VERTEX
  5
217C
  8
0
 10
82.1889624558673404
 20
92.4899410286686106
 30
0.0
  0
VERTEX
  5
217D
  8
0
 10
81.8923946787234485
 20
93.6625003298260168
 30
0.0
  0
VERTEX
  5
217E
  8
0
 10
81.5000478900664689
 20
94.8072826196757177
 30
0.0
  0
VERTEX
  5
217F
  8
0
 10
81.014533093042246
 20
95.9166695609544746
 30
0.0
  0
VERTEX
  5
2180
  8
0
 10
80.439081308520656
 20
96.9832783666041252
 30
0.0
  0
VERTEX
  5
2181
  8
0
 10
79.7775220731848549
 20
98.0000109310010714
 30
0.0
  0
VERTEX
  5
2182
  8
0
 10
79.0342579545963844
 20
98.960101066678348
 30
0.0
  0
VERTEX
  5
2183
  8
0
 10
78.2142352528344844
 20
99.8571595321867136
 30
0.0
  0
VERTEX
  5
2184
  8
0
 10
77.3229110836851987
 20
100.6852165514424939
 30
0.0
  0
VERTEX
  5
2185
  8
0
 10
76.3662170624360783
 20
101.4387615416023039
 30
0.0
  0
VERTEX
  5
2186
  8
0
 10
75.3505198299550898
 20
102.1127797850827932
 30
0.0
  0
VERTEX
  5
2187
  8
0
 10
74.2825786837461806
 20
102.7027858016788002
 30
0.0
  0
VERTEX
  5
2188
  8
0
 10
73.1695005959394962
 20
103.2048531986939963
 30
0.0
  0
VERTEX
  5
2189
  8
0
 10
72.0186929175644082
 20
103.6156408004364948
 30
0.0
  0
VERTEX
  5
218A
  8
0
 10
70.8378140838505601
 20
103.9324148831919956
 30
0.0
  0
VERTEX
  5
218B
  8
0
 10
69.6347226486051341
 20
104.1530673677037981
 30
0.0
  0
VERTEX
  5
218C
  8
0
 10
68.4174249868335096
 20
104.2761298480923955
 30
0.0
  0
VERTEX
  5
218D
  8
0
 10
67.1940220136347648
 20
104.3007833638549045
 30
0.0
  0
VERTEX
  5
218E
  8
0
 10
65.9726552739483054
 20
104.2268638499112967
 30
0.0
  0
VERTEX
  5
218F
  8
0
 10
64.7614527619154501
 20
104.0548632284312021
 30
0.0
  0
VERTEX
  5
2190
  8
0
 10
63.5684748304193477
 20
103.7859261351723035
 30
0.0
  0
VERTEX
  5
2191
  8
0
 10
62.4016605507666213
 20
103.421842302118705
 30
0.0
  0
VERTEX
  5
2192
  8
0
 10
61.2687748794775828
 20
102.9650346471099027
 30
0.0
  0
VERTEX
  5
2193
  8
0
 10
60.1773569837816922
 20
102.418543149721998
 30
0.0
  0
VERTEX
  5
2194
  8
0
 10
59.1346700697034677
 20
101.7860046207052989
 30
0.0
  0
VERTEX
  5
2195
  8
0
 10
58.1476530466249031
 20
101.0716284996089058
 30
0.0
  0
VERTEX
  5
2196
  8
0
 10
57.2228743499882668
 20
100.2801688416549979
 30
0.0
  0
VERTEX
  5
2197
  8
0
 10
56.3664882294418703
 20
99.4168926802856134
 30
0.0
  0
VERTEX
  5
2198
  8
0
 10
55.584193793324232
 20
98.4875449759240951
 30
0.0
  0
VERTEX
  5
2199
  8
0
 10
54.88119708203822
 20
97.498310384211365
 30
0.0
  0
VERTEX
  5
219A
  8
0
 10
54.2621764227111498
 20
96.455772098143072
 30
0.0
  0
VERTEX
  5
219B
  8
0
 10
53.7312512956996216
 20
95.3668680380063165
 30
0.0
  0
VERTEX
  5
219C
  8
0
 10
53.2919549201273526
 20
94.2388446806647977
 30
0.0
  0
VERTEX
  5
219D
  8
0
 10
52.9472107408950592
 20
93.0792088354508138
 30
0.0
  0
VERTEX
  5
219E
  8
0
 10
52.6993129736367223
 20
91.8956776875878347
 30
0.0
  0
VERTEX
  5
219F
  8
0
 10
52.5499113370931923
 20
90.6961274415960048
 30
0.0
  0
VERTEX
  5
21A0
  8
0
 10
52.5000000745060902
 20
89.4885409064507655
 30
0.0
  0
SEQEND
  5
21A1
  8
0
  0
ARC
  5
1D6A
  8
0
 10
67.5000000745060333
 20
91.2189650275642663
 30
0.0
 40
15.0007182209846803
 50
0.5606765359703026
 51
179.4393234640317019
  0
POLYLINE
  5
1D6B
  8
0
 66
     1
 10
0.0
 20
0.0
 30
0.0
 70
   128
  0
VERTEX
  5
21A2
  8
0
 10
55.5000000745060902
 20
89.4885409064507655
 30
0.0
  0
VERTEX
  5
21A3
  8
0
 10
55.5497179641276873
 20
88.410757267377889
 30
0.0
  0
VERTEX
  5
21A4
  8
0
 10
55.6984596549011712
 20
87.3419044829722537
 30
0.0
  0
VERTEX
  5
21A5
  8
0
 10
55.9449926263324571
 20
86.2908394040266842
 30
0.0
  0
VERTEX
  5
21A6
  8
0
 10
56.2872740285780466
 20
85.2662714868044986
 30
0.0
  0
VERTEX
  5
21A7
  8
0
 10
56.7224676101417273
 20
84.2766906237420983
 30
0.0
  0
VERTEX
  5
21A8
  8
0
 10
57.2469672199482105
 20
83.3302967935263865
 30
0.0
  0
VERTEX
  5
21A9
  8
0
 10
57.8564266890463728
 20
82.4349321134889408
 30
0.0
  0
VERTEX
  5
21AA
  8
0
 10
58.5457958443338882
 20
81.5980158573518963
 30
0.0
  0
VERTEX
  5
21AB
  8
0
 10
59.3093623558822287
 20
80.8264829767894639
 30
0.0
  0
VERTEX
  5
21AC
  8
0
 10
60.1407990711015188
 20
80.1267266362342383
 30
0.0
  0
VERTEX
  5
21AD
  8
0
 10
61.0332164435192226
 20
79.5045452371031445
 30
0.0
  0
VERTEX
  5
21AE
  8
0
 10
61.979219621732291
 20
78.9650943704172619
 30
0.0
  0
VERTEX
  5
21AF
  8
0
 10
62.9709697254747311
 20
78.5128440959509817
 30
0.0
  0
VERTEX
  5
21B0
  8
0
 10
64.000248801048258
 20
78.1515419019088426
 30
0.0
  0
VERTEX
  5
21B1
  8
0
 10
65.0585279178745282
 20
77.8841816520580892
 30
0.0
  0
VERTEX
  5
21B2
  8
0
 10
66.137037841900451
 20
77.7129787776306102
 30
0.0
  0
VERTEX
  5
21B3
  8
0
 10
67.2268417002328533
 20
77.6393519195620172
 30
0.0
  0
VERTEX
  5
21B4
  8
0
 10
68.3189090348822106
 20
77.663911173186051
 30
0.0
  0
VERTEX
  5
21B5
  8
0
 10
69.4041906319811801
 20
77.7864530327925934
 30
0.0
  0
VERTEX
  5
21B6
  8
0
 10
70.4736935064209433
 20
78.005962077940012
 30
0.0
  0
VERTEX
  5
21B7
  8
0
 10
71.5185554205579592
 20
78.3206193875486463
 30
0.0
  0
VERTEX
  5
21B8
  8
0
 10
72.5301183195061299
 20
78.7278176120539115
 30
0.0
  0
VERTEX
  5
21B9
  8
0
 10
73.500000074506147
 20
79.2241825787258165
 30
0.0
  0
VERTEX
  5
21BA
  8
0
 10
74.42016393988456
 20
79.8056012511268023
 30
0.0
  0
VERTEX
  5
21BB
  8
0
 10
75.2829851480591969
 20
80.4672558110272007
 30
0.0
  0
VERTEX
  5
21BC
  8
0
 10
76.0813140907649057
 20
81.2036635803641502
 30
0.0
  0
VERTEX
  5
21BD
  8
0
 10
76.8085355629591504
 20
82.0087224524389455
 30
0.0
  0
VERTEX
  5
21BE
  8
0
 10
77.4586235784944392
 20
82.8757614558948035
 30
0.0
  0
VERTEX
  5
21BF
  8
0
 10
78.0261913033372707
 20
83.7975960324864673
 30
0.0
  0
VERTEX
  5
21C0
  8
0
 10
78.5065356925715605
 20
84.7665875705925345
 30
0.0
  0
VERTEX
  5
21C1
  8
0
 10
78.8956764613099608
 20
85.7747067011571005
 30
0.0
  0
VERTEX
  5
21C2
  8
0
 10
79.1903890665878407
 20
86.8135998315702864
 30
0.0
  0
VERTEX
  5
21C3
  8
0
 10
79.3882314269420704
 20
87.8746583661676652
 30
0.0
  0
VERTEX
  5
21C4
  8
0
 10
79.4875641582668209
 20
88.9490900397650535
 30
0.0
  0
VERTEX
  5
21C5
  8
0
 10
79.4875641582668209
 20
90.0279917731368329
 30
0.0
  0
VERTEX
  5
21C6
  8
0
 10
79.3882314269420135
 20
91.1024234467341927
 30
0.0
  0
VERTEX
  5
21C7
  8
0
 10
79.1903890665877839
 20
92.1634819813315858
 30
0.0
  0
VERTEX
  5
21C8
  8
0
 10
78.895676461309904
 20
93.2023751117447432
 30
0.0
  0
VERTEX
  5
21C9
  8
0
 10
78.5065356925714468
 20
94.2104942423092666
 30
0.0
  0
VERTEX
  5
21CA
  8
0
 10
78.026191303337157
 20
95.1794857804153622
 30
0.0
  0
VERTEX
  5
21CB
  8
0
 10
77.4586235784943256
 20
96.101320357007026
 30
0.0
  0
VERTEX
  5
21CC
  8
0
 10
76.8085355629590367
 20
96.9683593604629124
 30
0.0
  0
VERTEX
  5
21CD
  8
0
 10
76.0813140907648062
 20
97.7734182325376793
 30
0.0
  0
VERTEX
  5
21CE
  8
0
 10
75.2829851480590264
 20
98.509826001874643
 30
0.0
  0
VERTEX
  5
21CF
  8
0
 10
74.4201639398843753
 20
99.1714805617749704
 30
0.0
  0
VERTEX
  5
21D0
  8
0
 10
73.5000000745059765
 20
99.7528992341759562
 30
0.0
  0
VERTEX
  5
21D1
  8
0
 10
72.5301183195059025
 20
100.2492642008478043
 30
0.0
  0
VERTEX
  5
21D2
  8
0
 10
71.5185554205577887
 20
100.6564624253529985
 30
0.0
  0
VERTEX
  5
21D3
  8
0
 10
70.4736935064207159
 20
100.9711197349617038
 30
0.0
  0
VERTEX
  5
21D4
  8
0
 10
69.4041906319809527
 20
101.1906287801089945
 30
0.0
  0
VERTEX
  5
21D5
  8
0
 10
68.3189090348819832
 20
101.3131706397155938
 30
0.0
  0
VERTEX
  5
21D6
  8
0
 10
67.226841700232626
 20
101.3377298933395991
 30
0.0
  0
VERTEX
  5
21D7
  8
0
 10
66.1370378419002236
 20
101.2641030352710061
 30
0.0
  0
VERTEX
  5
21D8
  8
0
 10
65.0585279178743008
 20
101.0929001608434987
 30
0.0
  0
VERTEX
  5
21D9
  8
0
 10
64.0002488010480306
 20
100.8255399109927026
 30
0.0
  0
VERTEX
  5
21DA
  8
0
 10
62.9709697254744967
 20
100.4642377169506062
 30
0.0
  0
VERTEX
  5
21DB
  8
0
 10
61.9792196217320566
 20
100.0119874424842976
 30
0.0
  0
VERTEX
  5
21DC
  8
0
 10
61.0332164435190023
 20
99.472536575798415
 30
0.0
  0
VERTEX
  5
21DD
  8
0
 10
60.1407990711012914
 20
98.8503551766672643
 30
0.0
  0
VERTEX
  5
21DE
  8
0
 10
59.3093623558820511
 20
98.1505988361119961
 30
0.0
  0
VERTEX
  5
21DF
  8
0
 10
58.5457958443337318
 20
97.3790659555496063
 30
0.0
  0
VERTEX
  5
21E0
  8
0
 10
57.8564266890462022
 20
96.5421496994125476
 30
0.0
  0
VERTEX
  5
21E1
  8
0
 10
57.2469672199480897
 20
95.6467850193750309
 30
0.0
  0
VERTEX
  5
21E2
  8
0
 10
56.7224676101416208
 20
94.7003911891593191
 30
0.0
  0
VERTEX
  5
21E3
  8
0
 10
56.28727402857794
 20
93.7108103260969045
 30
0.0
  0
VERTEX
  5
21E4
  8
0
 10
55.9449926263324073
 20
92.686242408874719
 30
0.0
  0
VERTEX
  5
21E5
  8
0
 10
55.6984596549011073
 20
91.6351773299291352
 30
0.0
  0
VERTEX
  5
21E6
  8
0
 10
55.5497179641276375
 20
90.5663245455234858
 30
0.0
  0
VERTEX
  5
21E7
  8
0
 10
55.5000000745060902
 20
89.4885409064507655
 30
0.0
  0
SEQEND
  5
21E8
  8
0
  0
ARC
  5
1D6C
  8
0
 10
67.5000000745060333
 20
90.7076187046079241
 30
0.0
 40
12.0059855927905801
 50
183.7625439270755123
 51
356.7815401923360241
  0
ARC
  5
1D6D
  8
0
 10
67.5000000745060333
 20
90.5437045278359847
 30
0.0
 40
4.0001987732717961
 50
0.5711861070858218
 51
179.4288138929157981
  0
ARC
  5
1D71
  8
0
 10
67.498459579865937
 20
74.9567738672849657
 30
0.0
 40
1.2252381767656031
 50
190.6302187762697997
 51
349.3229396004578007
  0
LINE
  5
1D82
  8
0
 10
70.0578368014633384
 20
106.0000007972120954
 30
0.0
 11
85.0000001490116119
 21
106.0000007972120954
 31
0.0
  0
LINE
  5
1EB1
  8
2
 10
161.4738724112509942
 20
70.0000007376072517
 30
0.0
 11
160.6738724112510113
 21
70.8000007376072062
 31
0.0
1001
ACAD
1000
ASC_BOUNDS
1002
{
1070
    19
1005
0
1002
}
  0
LINE
  5
1EBB
  8
2
 10
178.8738724112511136
 20
70.0000007376072517
 30
0.0
 11
179.6738724112512102
 21
70.8000007376072062
 31
0.0
1001
ACAD
1000
ASC_BOUNDS
1002
{
1070
    19
1005
0
1002
}
  0
LINE
  5
1F18
  8
2
 10
161.4738724112509942
 20
70.0000007376072517
 30
0.0
 11
178.8738724112511136
 21
70.0000007376072517
 31
0.0
  0
CIRCLE
  5
1FC6
  8
0
 10
139.6112746196268972
 20
174.5000007376073938
 30
0.0
 40
0.9383039235653853
  0
ENDSEC
  0
EOF
