  0
SECTION
  2
HEADER
  9
$ACADVER
  1
AC1009
  9
$INSBASE
 10
0.0
 20
0.0
 30
0.0
  9
$EXTMIN
 10
0.0
 20
-2.960436562073669
 30
0.0
  9
$EXTMAX
 10
188.5999999999999943
 20
163.0
 30
0.0
  9
$LIMMIN
 10
0.0
 20
0.0
  9
$LIMMAX
 10
187.5
 20
135.0
  9
$ORTHOMODE
 70
     1
  9
$REGENMODE
 70
     1
  9
$FILLMODE
 70
     1
  9
$QTEXTMODE
 70
     0
  9
$MIRRTEXT
 70
     0
  9
$DRAGMODE
 70
     2
  9
$LTSCALE
 40
5.0
  9
$OSMODE
 70
    37
  9
$ATTMODE
 70
     1
  9
$TEXTSIZE
 40
0.2
  9
$TRACEWID
 40
0.05
  9
$TEXTSTYLE
  7
STANDARD
  9
$CLAYER
  8
0
  9
$CELTYPE
  6
BYLAYER
  9
$CECOLOR
 62
   256
  9
$DIMSCALE
 40
0.5
  9
$DIMASZ
 40
3.0
  9
$DIMEXO
 40
2.0
  9
$DIMDLI
 40
0.38
  9
$DIMRND
 40
0.0
  9
$DIMDLE
 40
0.0
  9
$DIMEXE
 40
2.0
  9
$DIMTP
 40
0.0
  9
$DIMTM
 40
0.0
  9
$DIMTXT
 40
3.0
  9
$DIMCEN
 40
0.0
  9
$DIMTSZ
 40
0.0
  9
$DIMTOL
 70
     0
  9
$DIMLIM
 70
     0
  9
$DIMTIH
 70
     0
  9
$DIMTOH
 70
     0
  9
$DIMSE1
 70
     0
  9
$DIMSE2
 70
     0
  9
$DIMTAD
 70
     1
  9
$DIMZIN
 70
     8
  9
$DIMBLK
  1

  9
$DIMASO
 70
     0
  9
$DIMSHO
 70
     0
  9
$DIMPOST
  1

  9
$DIMAPOST
  1

  9
$DIMALT
 70
     0
  9
$DIMALTD
 70
     2
  9
$DIMALTF
 40
25.3999999999999986
  9
$DIMLFAC
 40
1.0
  9
$DIMTOFL
 70
     1
  9
$DIMTVP
 40
1.6000000000000001
  9
$DIMTIX
 70
     1
  9
$DIMSOXD
 70
     0
  9
$DIMSAH
 70
     0
  9
$DIMBLK1
  1

  9
$DIMBLK2
  1

  9
$DIMSTYLE
  2
STANDARD
  9
$DIMCLRD
 70
     0
  9
$DIMCLRE
 70
     0
  9
$DIMCLRT
 70
     0
  9
$DIMTFAC
 40
1.0
  9
$DIMGAP
 40
0.09
  9
$LUNITS
 70
     2
  9
$LUPREC
 70
     1
  9
$SKETCHINC
 40
0.1
  9
$FILLETRAD
 40
0.0
  9
$AUNITS
 70
     0
  9
$AUPREC
 70
     1
  9
$MENU
  1
E:\r13\win\SUPPORT\ACAD
  9
$ELEVATION
 40
0.0
  9
$PELEVATION
 40
0.0
  9
$THICKNESS
 40
0.0
  9
$LIMCHECK
 70
     0
  9
$BLIPMODE
 70
     0
  9
$CHAMFERA
 40
0.0
  9
$CHAMFERB
 40
0.0
  9
$SKPOLY
 70
     0
  9
$TDCREATE
 40
2449840.3512499998323619
  9
$TDUPDATE
 40
2460817.3891666671261191
  9
$TDINDWG
 40
0.2217058449
  9
$TDUSRTIMER
 40
0.2217058449
  9
$USRTIMER
 70
     1
  9
$ANGBASE
 50
0.0
  9
$ANGDIR
 70
     0
  9
$PDMODE
 70
     0
  9
$PDSIZE
 40
0.0
  9
$PLINEWID
 40
0.0
  9
$COORDS
 70
     1
  9
$SPLFRAME
 70
     0
  9
$SPLINETYPE
 70
     6
  9
$SPLINESEGS
 70
     8
  9
$ATTDIA
 70
     1
  9
$ATTREQ
 70
     1
  9
$HANDLING
 70
     1
  9
$HANDSEED
  5
4A02
  9
$SURFTAB1
 70
     6
  9
$SURFTAB2
 70
     6
  9
$SURFTYPE
 70
     6
  9
$SURFU
 70
     6
  9
$SURFV
 70
     6
  9
$UCSNAME
  2

  9
$UCSORG
 10
0.0
 20
0.0
 30
0.0
  9
$UCSXDIR
 10
1.0
 20
0.0
 30
0.0
  9
$UCSYDIR
 10
0.0
 20
1.0
 30
0.0
  9
$PUCSNAME
  2

  9
$PUCSORG
 10
0.0
 20
0.0
 30
0.0
  9
$PUCSXDIR
 10
1.0
 20
0.0
 30
0.0
  9
$PUCSYDIR
 10
0.0
 20
1.0
 30
0.0
  9
$USERI1
 70
     3
  9
$USERI2
 70
     1
  9
$USERI3
 70
     0
  9
$USERI4
 70
     0
  9
$USERI5
 70
     0
  9
$USERR1
 40
0.5
  9
$USERR2
 40
3.0
  9
$USERR3
 40
3.0
  9
$USERR4
 40
3.0
  9
$USERR5
 40
10.0
  9
$WORLDVIEW
 70
     1
  9
$SHADEDGE
 70
     3
  9
$SHADEDIF
 70
    70
  9
$TILEMODE
 70
     1
  9
$MAXACTVP
 70
    16
  9
$PLIMCHECK
 70
     0
  9
$PEXTMIN
 10
1.0000000000000000E+20
 20
1.0000000000000000E+20
 30
1.0000000000000000E+20
  9
$PEXTMAX
 10
-1.0000000000000000E+20
 20
-1.0000000000000000E+20
 30
-1.0000000000000000E+20
  9
$PLIMMIN
 10
0.0
 20
0.0
  9
$PLIMMAX
 10
12.0
 20
9.0
  9
$UNITMODE
 70
     0
  9
$VISRETAIN
 70
     0
  9
$PLINEGEN
 70
     0
  9
$PSLTSCALE
 70
     0
  0
ENDSEC
  0
SECTION
  2
TABLES
  0
TABLE
  2
VPORT
 70
     1
  0
VPORT
  2
*ACTIVE
 70
     0
 10
0.0
 20
0.0
 11
1.0
 21
1.0
 12
352.2783251231526833
 22
150.0
 13
0.0
 23
0.0
 14
5.0
 24
5.0
 15
10.0
 25
10.0
 16
0.0
 26
0.0
 36
1.0
 17
0.0
 27
0.0
 37
0.0
 40
300.0
 41
2.3485221674876842
 42
50.0
 43
0.0
 44
0.0
 50
0.0
 51
0.0
 71
     0
 72
   100
 73
     1
 74
     0
 75
     0
 76
     0
 77
     0
 78
     2
  0
ENDTAB
  0
TABLE
  2
LTYPE
 70
     4
  0
LTYPE
  2
CONTINUOUS
 70
     0
  3
Solid Line
 72
    65
 73
     0
 40
0.0
  0
LTYPE
  2
CENTER
 70
     0
  3
____ _ ____ _ ____ _ ____ _ ____ _ ____ _ ____
 72
    65
 73
     4
 40
2.0
 49
1.25
 49
-0.25
 49
0.25
 49
-0.25
  0
LTYPE
  2
HIDDEN
 70
     0
  3
__ __ __ __ __ __ __ __ __ __ __ __ __ __ __ __
 72
    65
 73
     2
 40
0.375
 49
0.25
 49
-0.125
  0
LTYPE
  2
PHANTOM2
 70
     0
  3
___ _ _ ___ _ _ ___ _ _ ___ _ _
 72
    65
 73
     6
 40
1.25
 49
0.625
 49
-0.125
 49
0.125
 49
-0.125
 49
0.125
 49
-0.125
  0
ENDTAB
  0
TABLE
  2
LAYER
 70
     5
  0
LAYER
  2
0
 70
     0
 62
     7
  6
CONTINUOUS
  0
LAYER
  2
1
 70
     0
 62
     1
  6
CENTER
  0
LAYER
  2
3
 70
     0
 62
     3
  6
CONTINUOUS
  0
LAYER
  2
2
 70
     0
 62
     2
  6
HIDDEN
  0
LAYER
  2
DEFPOINTS
 70
     0
 62
     7
  6
CONTINUOUS
  0
ENDTAB
  0
TABLE
  2
STYLE
 70
     2
  0
STYLE
  2
STANDARD
 70
     0
 40
0.0
 41
1.0
 50
0.0
 71
     0
 42
0.2
  3
TXT
  4
BIGFONT
  0
STYLE
  2
STANDARD1
 70
     0
 40
0.0
 41
1.0
 50
0.0
 71
     0
 42
3.0
  3
txt
  4

  0
ENDTAB
  0
TABLE
  2
VIEW
 70
     0
  0
ENDTAB
  0
TABLE
  2
UCS
 70
     0
  0
ENDTAB
  0
TABLE
  2
APPID
 70
    44
  0
APPID
  2
ACAD
 70
     0
  0
APPID
  2
ACAD_MLEADERVER
 70
     0
  0
APPID
  2
ACAD_NAV_VCDISPLAY
 70
     0
  0
APPID
  2
ACAD_EXEMPT_FROM_CAD_STANDARDS
 70
     0
  0
APPID
  2
ACAUTHENVIRON
 70
     0
  0
APPID
  2
ACDBDYNAMICBLOCKTRUENAME
 70
     0
  0
APPID
  2
ACDBDYNAMICBLOCKGUID
 70
     0
  0
APPID
  2
DCO15
 70
     0
  0
APPID
  2
GENIUS_GENOREF_13
 70
     0
  0
APPID
  2
GENIUS_GENOENT_13
 70
     0
  0
APPID
  2
GENIUS_GENBH_13
 70
     0
  0
APPID
  2
GENIUS_GENOBJ_13
 70
     0
  0
APPID
  2
GENIUS_GENODEF_13
 70
     0
  0
APPID
  2
GENIUS_GENOLIS_13
 70
     0
  0
APPID
  2
GENIUS_GENOBJ-NBEHI-BHF_13
 70
     0
  0
APPID
  2
GENIUS_GENOBJ-NBEHI-BHB_13
 70
     0
  0
APPID
  2
GENIUS_GENOBJ-F-PART_13
 70
     0
  0
APPID
  2
GENIUS_GEFSTDP_13
 70
     0
  0
APPID
  2
GENIUS_GENOBJ-N-RSSYM_13
 70
     0
  0
APPID
  2
GENIUS_GENSYMENT_13
 70
     0
  0
APPID
  2
GENIUS_GENOBJ-N-TIT_13
 70
     0
  0
APPID
  2
GENIUS_GENTITLE_13
 70
     0
  0
APPID
  2
GENIUS_GENZVEED_13
 70
     0
  0
APPID
  2
GENIUS_GENOBJ-N-LEADER_13
 70
     0
  0
APPID
  2
GENIUS_GENOBJ-N-FIL_13
 70
     0
  0
APPID
  2
GENIUS_GENOBJ-N-SEC_13
 70
     0
  0
APPID
  2
GENIUS_GENOBJ-N-CRS_13
 70
     0
  0
APPID
  2
GENIUS_GENOBJ-N-ZOO_13
 70
     0
  0
APPID
  2
GENIUS_GENZOO_13
 70
     0
  0
APPID
  2
GENIUS_GENOBJ-F-TOL_13
 70
     0
  0
APPID
  2
GENIUS_GENFIL_13
 70
     0
  0
APPID
  2
GENIUS_GENOBJ-N-CHA_13
 70
     0
  0
APPID
  2
_CALL_MAC$
 70
     0
  0
APPID
  2
ASM_BASE
 70
     0
  0
APPID
  2
ASM_EXPLO_VER_2_00
 70
     0
  0
APPID
  2
ASM_CADM_VER_12_00
 70
     0
  0
APPID
  2
ASM_BASEFORO
 70
     0
  0
APPID
  2
ASM_BASETRAVI
 70
     0
  0
APPID
  2
ASM_BASETRAVI1
 70
     0
  0
APPID
  2
ASM_GRUPPI
 70
     0
  0
APPID
  2
ASM_CADM_ALBERO
 70
     0
  0
APPID
  2
ASM_GOLE
 70
     0
  0
APPID
  2
ACAD_DSTYLE_DIMJAG
 70
     0
  0
APPID
  2
ACAD_DSTYLE_DIMTALN
 70
     0
  0
ENDTAB
  0
TABLE
  2
DIMSTYLE
 70
     1
  0
DIMSTYLE
  2
STANDARD
 70
     0
  3

  4

  5

  6

  7

 40
1.0
 41
0.18
 42
0.0625
 43
0.38
 44
0.18
 45
0.0
 46
0.0
 47
0.0
 48
0.0
140
0.18
141
0.09
142
0.0
143
25.3999999999999986
144
1.0
145
0.0
146
1.0
147
0.09
 71
     0
 72
     0
 73
     1
 74
     1
 75
     0
 76
     0
 77
     0
 78
     0
170
     0
171
     2
172
     0
173
     0
174
     0
175
     0
176
     0
177
     0
178
     0
  0
ENDTAB
  0
ENDSEC
  0
SECTION
  2
BLOCKS
  0
BLOCK
  8
0
  2
$MODEL_SPACE
 70
     0
 10
0.0
 20
0.0
 30
0.0
  3
$MODEL_SPACE
  1

  0
ENDBLK
  5
196
  8
0
  0
BLOCK
 67
     1
  8
0
  2
$PAPER_SPACE
 70
     0
 10
0.0
 20
0.0
 30
0.0
  3
$PAPER_SPACE
  1

  0
ENDBLK
  5
194
 67
     1
  8
0
  0
ENDSEC
  0
SECTION
  2
ENTITIES
  0
LINE
  5
45FE
  8
3
 10
135.5999999999999091
 20
144.6765000000000043
 30
0.0
 11
130.7786377675915901
 21
144.6765000000000043
 31
0.0
  0
LINE
  5
45FF
  8
3
 10
130.7786377675915901
 20
151.3234999999999104
 30
0.0
 11
135.5999999999999091
 21
151.3234999999999104
 31
0.0
  0
POLYLINE
  5
4600
  8
0
 66
     1
 10
0.0
 20
0.0
 30
0.0
 70
   128
  0
VERTEX
  5
4878
  8
0
 10
131.1358271643655087
 20
144.0
 30
0.0
  0
VERTEX
  5
4879
  8
0
 10
131.0879273986986959
 20
144.0117367952649943
 30
0.0
  0
VERTEX
  5
487A
  8
0
 10
130.9932505972743968
 20
144.1052183044888864
 30
0.0
  0
VERTEX
  5
487B
  8
0
 10
130.9019156697403048
 20
144.2899901955915993
 30
0.0
  0
VERTEX
  5
487C
  8
0
 10
130.8160634293859914
 20
144.5617215720511979
 30
0.0
  0
VERTEX
  5
487D
  8
0
 10
130.7377061799606111
 20
144.914043280712292
 30
0.0
  0
VERTEX
  5
487E
  8
0
 10
130.6686805489779033
 20
145.338697199337787
 30
0.0
  0
VERTEX
  5
487F
  8
0
 10
130.6106044387246925
 20
145.8257297999950879
 30
0.0
  0
VERTEX
  5
4880
  8
0
 10
130.5648391040024023
 20
146.363725451314707
 30
0.0
  0
VERTEX
  5
4881
  8
0
 10
130.5324572454680947
 20
146.94007399121341
 30
0.0
  0
VERTEX
  5
4882
  8
0
 10
130.5142178664399921
 20
147.5412662984064127
 30
0.0
  0
VERTEX
  5
4883
  8
0
 10
130.5105484825037081
 20
148.1532109347602102
 30
0.0
  0
VERTEX
  5
4884
  8
0
 10
130.5215351009086078
 20
148.7615644366586878
 30
0.0
  0
VERTEX
  5
4885
  8
0
 10
130.5469202046311068
 20
149.3520675136340969
 30
0.0
  0
VERTEX
  5
4886
  8
0
 10
130.5861087883554035
 20
149.9108792740491083
 30
0.0
  0
VERTEX
  5
4887
  8
0
 10
130.6381823048938031
 20
150.4249016438666047
 30
0.0
  0
VERTEX
  5
4888
  8
0
 10
130.7019201951538889
 20
150.8820863744030873
 30
0.0
  0
VERTEX
  5
4889
  8
0
 10
130.7758284970097975
 20
151.2717174430669047
 30
0.0
  0
VERTEX
  5
488A
  8
0
 10
130.8581748625078092
 20
151.5846622278442055
 30
0.0
  0
VERTEX
  5
488B
  8
0
 10
130.9470291626342089
 20
151.8135855682197075
 30
0.0
  0
VERTEX
  5
488C
  8
0
 10
131.0403087279032945
 20
151.9531216951214105
 30
0.0
  0
VERTEX
  5
488D
  8
0
 10
131.1358271643655939
 20
152.0
 30
0.0
  0
VERTEX
  5
488E
  8
0
 10
131.1358271643655939
 20
152.0
 30
0.0
  0
SEQEND
  5
488F
  8
0
  0
POLYLINE
  5
4601
  8
0
 66
     1
 10
0.0
 20
0.0
 30
0.0
 70
   128
  0
VERTEX
  5
4890
  8
0
 10
132.5695727190590958
 20
144.0
 30
0.0
  0
VERTEX
  5
4891
  8
0
 10
132.5154559763250006
 20
143.2860326317399995
 30
0.0
  0
VERTEX
  5
4892
  8
0
 10
132.4365322043431092
 20
142.4442976698038876
 30
0.0
  0
VERTEX
  5
4893
  8
0
 10
132.3450819317885987
 20
141.6560671583634985
 30
0.0
  0
VERTEX
  5
4894
  8
0
 10
132.2419858747780097
 20
140.9289321881344961
 30
0.0
  0
VERTEX
  5
4895
  8
0
 10
132.1282369046980989
 20
140.2698954663725885
 30
0.0
  0
VERTEX
  5
4896
  8
0
 10
132.004930486312503
 20
139.6853038769745012
 30
0.0
  0
VERTEX
  5
4897
  8
0
 10
131.8732541278365034
 20
139.1807873565163902
 30
0.0
  0
VERTEX
  5
4898
  8
0
 10
131.7344759445834939
 20
138.7612046748870966
 30
0.0
  0
VERTEX
  5
4899
  8
0
 10
131.5899324463223081
 20
138.430596642677898
 30
0.0
  0
VERTEX
  5
489A
  8
0
 10
131.4410156659567974
 20
138.1921471959676921
 30
0.0
  0
VERTEX
  5
489B
  8
0
 10
131.2891597534878088
 20
138.0481527332781013
 30
0.0
  0
VERTEX
  5
489C
  8
0
 10
131.1358271643655087
 20
138.0
 30
0.0
  0
VERTEX
  5
489D
  8
0
 10
130.9824945752432939
 20
138.0481527332781013
 30
0.0
  0
VERTEX
  5
489E
  8
0
 10
130.8306386627743905
 20
138.1921471959676921
 30
0.0
  0
VERTEX
  5
489F
  8
0
 10
130.6817218824087945
 20
138.4305966426780117
 30
0.0
  0
VERTEX
  5
48A0
  8
0
 10
130.5371783841476088
 20
138.7612046748872103
 30
0.0
  0
VERTEX
  5
48A1
  8
0
 10
130.3984002008947982
 20
139.1807873565165039
 30
0.0
  0
VERTEX
  5
48A2
  8
0
 10
130.2667238424185996
 20
139.6853038769745865
 30
0.0
  0
VERTEX
  5
48A3
  8
0
 10
130.1434174240330037
 20
140.2698954663727022
 30
0.0
  0
VERTEX
  5
48A4
  8
0
 10
130.0296684539532066
 20
140.9289321881346098
 30
0.0
  0
VERTEX
  5
48A5
  8
0
 10
129.9265723969425039
 20
141.6560671583636974
 30
0.0
  0
VERTEX
  5
48A6
  8
0
 10
129.8351221243879934
 20
142.4442976698040866
 30
0.0
  0
VERTEX
  5
48A7
  8
0
 10
129.756198352406102
 20
143.2860326317401132
 30
0.0
  0
VERTEX
  5
48A8
  8
0
 10
129.690561160065414
 20
144.173165676349214
 30
0.0
  0
VERTEX
  5
48A9
  8
0
 10
129.6388426694086888
 20
145.0971532274554932
 30
0.0
  0
VERTEX
  5
48AA
  8
0
 10
129.6015409577734943
 20
146.0490967798388056
 30
0.0
  0
VERTEX
  5
48AB
  8
0
 10
129.5790152610339021
 20
147.0198285967045138
 30
0.0
  0
VERTEX
  5
48AC
  8
0
 10
129.5714825139633035
 20
148.0000000000001137
 30
0.0
  0
VERTEX
  5
48AD
  8
0
 10
129.5790152610339021
 20
148.9801714032957136
 30
0.0
  0
VERTEX
  5
48AE
  8
0
 10
129.6015409577734943
 20
149.9509032201613934
 30
0.0
  0
VERTEX
  5
48AF
  8
0
 10
129.6388426694086888
 20
150.9028467725447058
 30
0.0
  0
VERTEX
  5
48B0
  8
0
 10
129.690561160065414
 20
151.8268343236510134
 30
0.0
  0
VERTEX
  5
48B1
  8
0
 10
129.756198352406301
 20
152.7139673682600005
 30
0.0
  0
VERTEX
  5
48B2
  8
0
 10
129.8351221243879934
 20
153.5557023301961124
 30
0.0
  0
VERTEX
  5
48B3
  8
0
 10
129.9265723969425039
 20
154.3439328416365015
 30
0.0
  0
VERTEX
  5
48B4
  8
0
 10
130.0296684539532066
 20
155.0710678118655892
 30
0.0
  0
VERTEX
  5
48B5
  8
0
 10
130.1434174240330037
 20
155.7301045336274967
 30
0.0
  0
VERTEX
  5
48B6
  8
0
 10
130.2667238424185996
 20
156.3146961230254988
 30
0.0
  0
VERTEX
  5
48B7
  8
0
 10
130.3984002008947982
 20
156.8192126434834961
 30
0.0
  0
VERTEX
  5
48B8
  8
0
 10
130.537178384147694
 20
157.2387953251129034
 30
0.0
  0
VERTEX
  5
48B9
  8
0
 10
130.6817218824087945
 20
157.569403357322102
 30
0.0
  0
VERTEX
  5
48BA
  8
0
 10
130.8306386627745042
 20
157.8078528040323079
 30
0.0
  0
VERTEX
  5
48BB
  8
0
 10
130.9824945752432939
 20
157.9518472667218987
 30
0.0
  0
VERTEX
  5
48BC
  8
0
 10
131.1358271643655939
 20
158.0
 30
0.0
  0
VERTEX
  5
48BD
  8
0
 10
131.1358271643655939
 20
158.0
 30
0.0
  0
SEQEND
  5
48BE
  8
0
  0
POLYLINE
  5
4602
  8
0
 66
     1
 10
0.0
 20
0.0
 30
0.0
 70
   128
  0
VERTEX
  5
48BF
  8
0
 10
131.1358271643655939
 20
158.0
 30
0.0
  0
VERTEX
  5
48C0
  8
0
 10
131.2891597534878088
 20
157.9518472667220124
 30
0.0
  0
VERTEX
  5
48C1
  8
0
 10
131.4410156659567974
 20
157.8078528040323079
 30
0.0
  0
VERTEX
  5
48C2
  8
0
 10
131.5899324463223934
 20
157.569403357322102
 30
0.0
  0
VERTEX
  5
48C3
  8
0
 10
131.7344759445834939
 20
157.2387953251127897
 30
0.0
  0
VERTEX
  5
48C4
  8
0
 10
131.8732541278365034
 20
156.8192126434834961
 30
0.0
  0
VERTEX
  5
48C5
  8
0
 10
132.004930486312503
 20
156.3146961230254135
 30
0.0
  0
VERTEX
  5
48C6
  8
0
 10
132.1282369046980989
 20
155.7301045336272978
 30
0.0
  0
VERTEX
  5
48C7
  8
0
 10
132.2419858747780097
 20
155.0710678118655039
 30
0.0
  0
VERTEX
  5
48C8
  8
0
 10
132.3450819317885987
 20
154.3439328416363878
 30
0.0
  0
VERTEX
  5
48C9
  8
0
 10
132.4365322043431092
 20
153.5557023301959987
 30
0.0
  0
VERTEX
  5
48CA
  8
0
 10
132.5154559763250006
 20
152.7139673682600005
 30
0.0
  0
VERTEX
  5
48CB
  8
0
 10
132.5695727190590958
 20
152.0
 30
0.0
  0
SEQEND
  5
48CC
  8
0
  0
POLYLINE
  5
4603
  8
0
 66
     1
 10
0.0
 20
0.0
 30
0.0
 70
   128
  0
VERTEX
  5
48CD
  8
0
 10
114.3451253742481981
 20
133.0
 30
0.0
  0
VERTEX
  5
48CE
  8
0
 10
114.2518360366824055
 20
133.0118590415904976
 30
0.0
  0
VERTEX
  5
48CF
  8
0
 10
114.0658471667794061
 20
133.1066188944703867
 30
0.0
  0
VERTEX
  5
48D0
  8
0
 10
113.881623983623399
 20
133.2955394979304913
 30
0.0
  0
VERTEX
  5
48D1
  8
0
 10
113.7003312054927022
 20
133.5774264350887108
 30
0.0
  0
VERTEX
  5
48D2
  8
0
 10
113.5231150237017061
 20
133.950497525969098
 30
0.0
  0
VERTEX
  5
48D3
  8
0
 10
113.351095856010005
 20
134.4123940950171914
 30
0.0
  0
VERTEX
  5
48D4
  8
0
 10
113.1853612629809049
 20
134.9601958834062998
 30
0.0
  0
VERTEX
  5
48D5
  8
0
 10
113.0269590720730974
 20
135.5904395118542141
 30
0.0
  0
VERTEX
  5
48D6
  8
0
 10
112.876890752938607
 20
136.299140377221903
 30
0.0
  0
VERTEX
  5
48D7
  8
0
 10
112.7361050858084042
 20
137.0818178444577029
 30
0.0
  0
VERTEX
  5
48D8
  8
0
 10
112.6054921629988002
 20
137.9335235746146111
 30
0.0
  0
VERTEX
  5
48D9
  8
0
 10
112.4858777614614951
 20
138.8488728098421916
 30
0.0
  0
VERTEX
  5
48DA
  8
0
 10
112.3780181219555061
 20
139.8220784175601068
 30
0.0
  0
VERTEX
  5
48DB
  8
0
 10
112.2825951678490952
 20
140.8469874785724869
 30
0.0
  0
VERTEX
  5
48DC
  8
0
 10
112.2002121937816952
 20
141.9171201878052102
 30
0.0
  0
VERTEX
  5
48DD
  8
0
 10
112.1313900514402064
 20
143.0257108217190876
 30
0.0
  0
VERTEX
  5
48DE
  8
0
 10
112.0765638565672049
 20
144.1657505133929931
 30
0.0
  0
VERTEX
  5
48DF
  8
0
 10
112.0360802380190961
 20
145.3300315648369008
 30
0.0
  0
VERTEX
  5
48E0
  8
0
 10
112.010195146266895
 20
146.5111930163791953
 30
0.0
  0
VERTEX
  5
48E1
  8
0
 10
111.9990722351949017
 20
147.7017671850240959
 30
0.0
  0
VERTEX
  5
48E2
  8
0
 10
112.0027818274280946
 20
148.89422687754751
 30
0.0
  0
VERTEX
  5
48E3
  8
0
 10
112.0213004697302068
 20
150.0810329798362091
 30
0.0
  0
VERTEX
  5
48E4
  8
0
 10
112.0545110812819019
 20
151.2546821215948967
 30
0.0
  0
VERTEX
  5
48E5
  8
0
 10
112.1022036939043005
 20
152.4077541150689967
 30
0.0
  0
VERTEX
  5
48E6
  8
0
 10
112.164076779544601
 20
153.5329588678602875
 30
0.0
  0
VERTEX
  5
48E7
  8
0
 10
112.2397391566342009
 20
154.6231824732388134
 30
0.0
  0
VERTEX
  5
48E8
  8
0
 10
112.3287124632640968
 20
155.6715321865515023
 30
0.0
  0
VERTEX
  5
48E9
  8
0
 10
112.4304341815426938
 20
156.6713800033728035
 30
0.0
  0
VERTEX
  5
48EA
  8
0
 10
112.5442611940161015
 20
157.6164045638834068
 30
0.0
  0
VERTEX
  5
48EB
  8
0
 10
112.6694738496620971
 20
158.5006311185414916
 30
0.0
  0
VERTEX
  5
48EC
  8
0
 10
112.8052805137571966
 20
159.3184693023735008
 30
0.0
  0
VERTEX
  5
48ED
  8
0
 10
112.9508225728450981
 20
160.064748479061592
 30
0.0
  0
VERTEX
  5
48EE
  8
0
 10
113.1051798631680043
 20
160.7347504313705997
 30
0.0
  0
VERTEX
  5
48EF
  8
0
 10
113.2673764882379004
 20
161.3242391912370977
 30
0.0
  0
VERTEX
  5
48F0
  8
0
 10
113.4363869887687031
 20
161.8294878209231911
 30
0.0
  0
VERTEX
  5
48F1
  8
0
 10
113.6111428259595044
 20
162.2473019759167983
 30
0.0
  0
VERTEX
  5
48F2
  8
0
 10
113.7905391371413941
 20
162.575040100606202
 30
0.0
  0
VERTEX
  5
48F3
  8
0
 10
113.9734417210747068
 20
162.8106301290451086
 30
0.0
  0
VERTEX
  5
48F4
  8
0
 10
114.1586942087347012
 20
162.952582585220398
 30
0.0
  0
VERTEX
  5
48F5
  8
0
 10
114.3451253742481981
 20
163.0
 30
0.0
  0
SEQEND
  5
48F6
  8
0
  0
POLYLINE
  5
4604
  8
0
 66
     1
 10
0.0
 20
0.0
 30
0.0
 70
   128
  0
VERTEX
  5
48F7
  8
0
 10
127.9463759506587053
 20
138.0
 30
0.0
  0
VERTEX
  5
48F8
  8
0
 10
127.9370186726393968
 20
137.9335235746144122
 30
0.0
  0
VERTEX
  5
48F9
  8
0
 10
127.8064057498299064
 20
137.081817844457504
 30
0.0
  0
VERTEX
  5
48FA
  8
0
 10
127.6656200826995047
 20
136.2991403772217041
 30
0.0
  0
VERTEX
  5
48FB
  8
0
 10
127.515551763565
 20
135.5904395118541004
 30
0.0
  0
VERTEX
  5
48FC
  8
0
 10
127.3571495726572067
 20
134.9601958834061861
 30
0.0
  0
VERTEX
  5
48FD
  8
0
 10
127.1914149796282061
 20
134.4123940950171061
 30
0.0
  0
VERTEX
  5
48FE
  8
0
 10
127.0193958119364055
 20
133.950497525969098
 30
0.0
  0
VERTEX
  5
48FF
  8
0
 10
126.8421796301453952
 20
133.5774264350885971
 30
0.0
  0
VERTEX
  5
4900
  8
0
 10
126.6608868520146984
 20
133.295539497930406
 30
0.0
  0
VERTEX
  5
4901
  8
0
 10
126.4766636688587056
 20
133.1066188944703867
 30
0.0
  0
VERTEX
  5
4902
  8
0
 10
126.2906747989557061
 20
133.0118590415904123
 30
0.0
  0
VERTEX
  5
4903
  8
0
 10
126.1040961238242062
 20
133.0118590415904976
 30
0.0
  0
VERTEX
  5
4904
  8
0
 10
125.918107253921093
 20
133.1066188944703867
 30
0.0
  0
VERTEX
  5
4905
  8
0
 10
125.7338840707650007
 20
133.2955394979304913
 30
0.0
  0
VERTEX
  5
4906
  8
0
 10
125.552591292634304
 20
133.5774264350887108
 30
0.0
  0
VERTEX
  5
4907
  8
0
 10
125.3753751108433931
 20
133.950497525969098
 30
0.0
  0
VERTEX
  5
4908
  8
0
 10
125.2033559431517062
 20
134.4123940950171914
 30
0.0
  0
VERTEX
  5
4909
  8
0
 10
125.0376213501225067
 20
134.9601958834062998
 30
0.0
  0
VERTEX
  5
490A
  8
0
 10
124.8792191592147987
 20
135.5904395118542141
 30
0.0
  0
VERTEX
  5
490B
  8
0
 10
124.7291508400801945
 20
136.299140377221903
 30
0.0
  0
VERTEX
  5
490C
  8
0
 10
124.5883651729500059
 20
137.0818178444577029
 30
0.0
  0
VERTEX
  5
490D
  8
0
 10
124.4577522501405014
 20
137.9335235746146111
 30
0.0
  0
VERTEX
  5
490E
  8
0
 10
124.3381378486032958
 20
138.8488728098421916
 30
0.0
  0
VERTEX
  5
490F
  8
0
 10
124.2302782090970936
 20
139.8220784175601068
 30
0.0
  0
VERTEX
  5
4910
  8
0
 10
124.1348552549906969
 20
140.8469874785724869
 30
0.0
  0
VERTEX
  5
4911
  8
0
 10
124.0524722809232969
 20
141.9171201878052102
 30
0.0
  0
VERTEX
  5
4912
  8
0
 10
123.9836501385818934
 20
143.0257108217190876
 30
0.0
  0
VERTEX
  5
4913
  8
0
 10
123.9288239437088066
 20
144.1657505133929931
 30
0.0
  0
VERTEX
  5
4914
  8
0
 10
123.8883403251607973
 20
145.3300315648369008
 30
0.0
  0
VERTEX
  5
4915
  8
0
 10
123.8624552334084967
 20
146.5111930163791953
 30
0.0
  0
VERTEX
  5
4916
  8
0
 10
123.8513323223366029
 20
147.7017671850240959
 30
0.0
  0
VERTEX
  5
4917
  8
0
 10
123.8550419145697958
 20
148.89422687754751
 30
0.0
  0
VERTEX
  5
4918
  8
0
 10
123.8735605568718938
 20
150.0810329798362091
 30
0.0
  0
VERTEX
  5
4919
  8
0
 10
123.9067711684235036
 20
151.2546821215948967
 30
0.0
  0
VERTEX
  5
491A
  8
0
 10
123.9544637810460017
 20
152.4077541150689967
 30
0.0
  0
VERTEX
  5
491B
  8
0
 10
124.0163368666863022
 20
153.5329588678602875
 30
0.0
  0
VERTEX
  5
491C
  8
0
 10
124.0919992437758026
 20
154.6231824732388134
 30
0.0
  0
VERTEX
  5
491D
  8
0
 10
124.1809725504056985
 20
155.6715321865515023
 30
0.0
  0
VERTEX
  5
491E
  8
0
 10
124.282694268684395
 20
156.6713800033728035
 30
0.0
  0
VERTEX
  5
491F
  8
0
 10
124.3965212811578027
 20
157.6164045638834068
 30
0.0
  0
VERTEX
  5
4920
  8
0
 10
124.5217339368038978
 20
158.5006311185414916
 30
0.0
  0
VERTEX
  5
4921
  8
0
 10
124.6575406008987983
 20
159.3184693023735008
 30
0.0
  0
VERTEX
  5
4922
  8
0
 10
124.8030826599867993
 20
160.064748479061592
 30
0.0
  0
VERTEX
  5
4923
  8
0
 10
124.957439950309606
 20
160.7347504313705997
 30
0.0
  0
VERTEX
  5
4924
  8
0
 10
125.1196365753795021
 20
161.3242391912370977
 30
0.0
  0
VERTEX
  5
4925
  8
0
 10
125.2886470759104043
 20
161.8294878209231911
 30
0.0
  0
VERTEX
  5
4926
  8
0
 10
125.4634029131011062
 20
162.2473019759167983
 30
0.0
  0
VERTEX
  5
4927
  8
0
 10
125.6427992242829959
 20
162.575040100606202
 30
0.0
  0
VERTEX
  5
4928
  8
0
 10
125.8257018082163938
 20
162.8106301290451086
 30
0.0
  0
VERTEX
  5
4929
  8
0
 10
126.0109542958763029
 20
162.952582585220398
 30
0.0
  0
VERTEX
  5
492A
  8
0
 10
126.1973854613898993
 20
163.0
 30
0.0
  0
VERTEX
  5
492B
  8
0
 10
126.1973854613898993
 20
163.0
 30
0.0
  0
SEQEND
  5
492C
  8
0
  0
POLYLINE
  5
4605
  8
0
 66
     1
 10
0.0
 20
0.0
 30
0.0
 70
   128
  0
VERTEX
  5
492D
  8
0
 10
126.1973854613898993
 20
163.0
 30
0.0
  0
VERTEX
  5
492E
  8
0
 10
126.3838166269035952
 20
162.952582585220398
 30
0.0
  0
VERTEX
  5
492F
  8
0
 10
126.5690691145635043
 20
162.8106301290449949
 30
0.0
  0
VERTEX
  5
4930
  8
0
 10
126.7519716984968028
 20
162.5750401006060883
 30
0.0
  0
VERTEX
  5
4931
  8
0
 10
126.9313680096787067
 20
162.247301975916713
 30
0.0
  0
VERTEX
  5
4932
  8
0
 10
127.1061238468694938
 20
161.8294878209231058
 30
0.0
  0
VERTEX
  5
4933
  8
0
 10
127.275134347400197
 20
161.3242391912370124
 30
0.0
  0
VERTEX
  5
4934
  8
0
 10
127.4373309724702068
 20
160.7347504313704007
 30
0.0
  0
VERTEX
  5
4935
  8
0
 10
127.5916882627930988
 20
160.064748479061393
 30
0.0
  0
VERTEX
  5
4936
  8
0
 10
127.7372303218809009
 20
159.3184693023733871
 30
0.0
  0
VERTEX
  5
4937
  8
0
 10
127.8730369859760003
 20
158.5006311185414063
 30
0.0
  0
VERTEX
  5
4938
  8
0
 10
127.9463759506587053
 20
158.0
 30
0.0
  0
SEQEND
  5
4939
  8
0
  0
POLYLINE
  5
4606
  8
0
 66
     1
 10
0.0
 20
0.0
 30
0.0
 70
   128
  0
VERTEX
  5
493A
  8
0
 10
126.1973854613898993
 20
138.0
 30
0.0
  0
VERTEX
  5
493B
  8
0
 10
126.0440528722676987
 20
138.0481527332781013
 30
0.0
  0
VERTEX
  5
493C
  8
0
 10
125.8921969597986958
 20
138.1921471959676921
 30
0.0
  0
VERTEX
  5
493D
  8
0
 10
125.7432801794330999
 20
138.4305966426780117
 30
0.0
  0
VERTEX
  5
493E
  8
0
 10
125.5987366811719994
 20
138.7612046748872103
 30
0.0
  0
VERTEX
  5
493F
  8
0
 10
125.4599584979190041
 20
139.1807873565165039
 30
0.0
  0
VERTEX
  5
4940
  8
0
 10
125.3282821394430044
 20
139.6853038769745865
 30
0.0
  0
VERTEX
  5
4941
  8
0
 10
125.2049757210573944
 20
140.2698954663727022
 30
0.0
  0
VERTEX
  5
4942
  8
0
 10
125.0912267509774978
 20
140.9289321881346098
 30
0.0
  0
VERTEX
  5
4943
  8
0
 10
124.9881306939667951
 20
141.6560671583636974
 30
0.0
  0
VERTEX
  5
4944
  8
0
 10
124.8966804214122988
 20
142.4442976698040866
 30
0.0
  0
VERTEX
  5
4945
  8
0
 10
124.8177566494305069
 20
143.2860326317401132
 30
0.0
  0
VERTEX
  5
4946
  8
0
 10
124.7521194570897052
 20
144.173165676349214
 30
0.0
  0
VERTEX
  5
4947
  8
0
 10
124.7004009664330937
 20
145.0971532274554932
 30
0.0
  0
VERTEX
  5
4948
  8
0
 10
124.6630992547977002
 20
146.0490967798388056
 30
0.0
  0
VERTEX
  5
4949
  8
0
 10
124.6405735580581933
 20
147.0198285967045138
 30
0.0
  0
VERTEX
  5
494A
  8
0
 10
124.6330408109875947
 20
148.0000000000001137
 30
0.0
  0
VERTEX
  5
494B
  8
0
 10
124.6405735580581933
 20
148.9801714032957136
 30
0.0
  0
VERTEX
  5
494C
  8
0
 10
124.6630992547978991
 20
149.9509032201613934
 30
0.0
  0
VERTEX
  5
494D
  8
0
 10
124.7004009664330937
 20
150.9028467725447058
 30
0.0
  0
VERTEX
  5
494E
  8
0
 10
124.7521194570897052
 20
151.8268343236510134
 30
0.0
  0
VERTEX
  5
494F
  8
0
 10
124.8177566494305069
 20
152.7139673682600005
 30
0.0
  0
VERTEX
  5
4950
  8
0
 10
124.8966804214122988
 20
153.5557023301961124
 30
0.0
  0
VERTEX
  5
4951
  8
0
 10
124.9881306939668946
 20
154.3439328416365015
 30
0.0
  0
VERTEX
  5
4952
  8
0
 10
125.0912267509774978
 20
155.0710678118655892
 30
0.0
  0
VERTEX
  5
4953
  8
0
 10
125.2049757210573944
 20
155.7301045336274967
 30
0.0
  0
VERTEX
  5
4954
  8
0
 10
125.3282821394430044
 20
156.3146961230254988
 30
0.0
  0
VERTEX
  5
4955
  8
0
 10
125.4599584979190041
 20
156.8192126434834961
 30
0.0
  0
VERTEX
  5
4956
  8
0
 10
125.5987366811719994
 20
157.2387953251129034
 30
0.0
  0
VERTEX
  5
4957
  8
0
 10
125.7432801794331994
 20
157.569403357322102
 30
0.0
  0
VERTEX
  5
4958
  8
0
 10
125.8921969597986958
 20
157.8078528040323079
 30
0.0
  0
VERTEX
  5
4959
  8
0
 10
126.0440528722676987
 20
157.9518472667218987
 30
0.0
  0
VERTEX
  5
495A
  8
0
 10
126.1973854613898993
 20
158.0
 30
0.0
  0
SEQEND
  5
495B
  8
0
  0
CIRCLE
  5
4607
  8
0
 10
126.6098090935330021
 20
148.0
 30
0.0
 40
0.9383039235653853
  0
LINE
  5
4608
  8
0
 10
131.1358271643655087
 20
158.0
 30
0.0
 11
126.1973854613898993
 21
158.0
 31
0.0
  0
LINE
  5
4609
  8
0
 10
126.1973854613898993
 20
138.0
 30
0.0
 11
131.1358271643655087
 21
138.0
 31
0.0
  0
LINE
  5
460A
  8
0
 10
126.1973854613898993
 20
163.0
 30
0.0
 11
114.3451253742481981
 21
163.0
 31
0.0
  0
LINE
  5
460B
  8
0
 10
114.3451253742481981
 20
133.0
 30
0.0
 11
126.1973854613898993
 21
133.0
 31
0.0
  0
LINE
  5
460C
  8
0
 10
131.1358271643655087
 20
144.0
 30
0.0
 11
135.5999999999999091
 21
144.0
 31
0.0
  0
LINE
  5
460D
  8
0
 10
135.5999999999999091
 20
152.0
 30
0.0
 11
131.1358271643655087
 21
152.0
 31
0.0
  0
TEXT
  5
460E
  8
0
 62
     3
 10
0.0
 20
0.0
 30
0.0
 40
10.0
  1
BJ350-08002C
  7
STANDARD1
  0
LINE
  5
460F
  8
3
 10
135.5999999999999943
 20
68.2350720263315083
 30
0.0
 11
131.6571286480283902
 21
67.6105830850034124
 31
0.0
  0
LINE
  5
4611
  8
3
 10
130.6173088313665005
 20
74.1757470274428385
 30
0.0
 11
135.5999999999999091
 21
74.9649278231230625
 31
0.0
  0
POLYLINE
  5
4614
  8
0
 66
     1
 10
0.0
 20
0.0
 30
0.0
 70
   128
  0
VERTEX
  5
495C
  8
0
 10
125.5233519188788023
 20
80.128666991205165
 30
0.0
  0
VERTEX
  5
495D
  8
0
 10
125.5851975822142066
 20
80.131794601079207
 30
0.0
  0
VERTEX
  5
495E
  8
0
 10
125.7632392799248038
 20
80.1428935609918369
 30
0.0
  0
VERTEX
  5
495F
  8
0
 10
126.0377932374797041
 20
80.1661821247659532
 30
0.0
  0
VERTEX
  5
4960
  8
0
 10
126.3777324307218066
 20
80.2055814983237667
 30
0.0
  0
VERTEX
  5
4961
  8
0
 10
126.7418391137868952
 20
80.2610013119846997
 30
0.0
  0
VERTEX
  5
4962
  8
0
 10
127.0885543757294016
 20
80.326707821080106
 30
0.0
  0
VERTEX
  5
4963
  8
0
 10
127.381861527644503
 20
80.3922773519599474
 30
0.0
  0
VERTEX
  5
4964
  8
0
 10
127.5903270704540944
 20
80.444492403864615
 30
0.0
  0
VERTEX
  5
4965
  8
0
 10
127.6826865140915999
 20
80.4706719925412841
 30
0.0
  0
VERTEX
  5
4966
  8
0
 10
127.6826865140915999
 20
80.4706719925412841
 30
0.0
  0
SEQEND
  5
4967
  8
0
  0
LINE
  5
4615
  8
0
 10
132.7015634161230935
 20
61.0162814859669993
 30
0.0
 11
129.5728741153185126
 21
80.7700482978697494
 31
0.0
  0
LINE
  5
4616
  8
0
 10
116.6930339512068002
 20
53.4184538773073783
 30
0.0
 11
112.0
 21
83.0491040951615247
 31
0.0
  0
LINE
  5
4617
  8
0
 10
128.5452940383486009
 20
55.2956674577901381
 30
0.0
 11
123.8522600871416017
 21
84.9263176756442988
 31
0.0
  0
LINE
  5
4618
  8
0
 10
132.7015634161226103
 20
61.0162814859670704
 30
0.0
 11
127.7631217131469015
 21
60.2341091607660601
 31
0.0
  0
LINE
  5
4619
  8
0
 10
124.6344324123432017
 20
79.9878759726690305
 30
0.0
 11
125.5233519188788023
 21
80.128666991205165
 31
0.0
  0
LINE
  5
461A
  8
0
 10
127.6826865140915999
 20
80.4706719925412841
 30
0.0
 11
129.5728741153189958
 21
80.7700482978699625
 31
0.0
  0
LINE
  5
461B
  8
0
 10
123.8522600871416017
 20
84.9263176756442988
 30
0.0
 11
112.0
 21
83.0491040951615247
 31
0.0
  0
LINE
  5
461C
  8
0
 10
116.6930339512068002
 20
53.4184538773073783
 30
0.0
 11
128.5452940383486009
 21
55.2956674577901381
 31
0.0
  0
LINE
  5
461D
  8
0
 10
131.7629566258817135
 20
66.9424115295378499
 30
0.0
 11
135.5999999999999091
 21
67.55013949684853
 31
0.0
  0
LINE
  5
461E
  8
0
 10
135.5999999999999943
 20
75.6498605031525528
 30
0.0
 11
130.5114809055598926
 21
74.843918254298913
 31
0.0
  0
CIRCLE
  5
461F
  8
0
 10
60.9999999999999432
 20
69.3200340163522242
 30
0.0
 40
3.966370572092909
  0
ARC
  5
4620
  8
0
 10
61.0
 20
69.4457257964283485
 30
0.0
 40
12.0060782925535801
 50
183.214411078956914
 51
356.785588921047804
  0
POLYLINE
  5
4621
  8
0
 66
     1
 10
0.0
 20
0.0
 30
0.0
 70
   128
  0
VERTEX
  5
4968
  8
0
 10
46.0000000000000497
 20
68.2249927610706095
 30
0.0
  0
VERTEX
  5
4969
  8
0
 10
46.047417414779602
 20
67.0479127074261214
 30
0.0
  0
VERTEX
  5
496A
  8
0
 10
46.1893698709550335
 20
65.8782745328659303
 30
0.0
  0
VERTEX
  5
496B
  8
0
 10
46.4249598993939117
 20
64.7234730665187783
 30
0.0
  0
VERTEX
  5
496C
  8
0
 10
46.7526980240833083
 20
63.5908093350669716
 30
0.0
  0
VERTEX
  5
496D
  8
0
 10
47.1705121790769226
 20
62.4874444033052825
 30
0.0
  0
VERTEX
  5
496E
  8
0
 10
47.6757608087630729
 20
61.4203540995832711
 30
0.0
  0
VERTEX
  5
496F
  8
0
 10
48.2652495686295993
 20
60.3962849123728276
 30
0.0
  0
VERTEX
  5
4970
  8
0
 10
48.9352515209385501
 20
59.4217113367957026
 30
0.0
  0
VERTEX
  5
4971
  8
0
 10
49.6815306976266129
 20
58.50279494078071
 30
0.0
  0
VERTEX
  5
4972
  8
0
 10
50.499368881458679
 20
57.6453454096475397
 30
0.0
  0
VERTEX
  5
4973
  8
0
 10
51.3835954361167566
 20
56.8547838154055327
 30
0.0
  0
VERTEX
  5
4974
  8
0
 10
52.3286199966273671
 20
56.1361083429911432
 30
0.0
  0
VERTEX
  5
4975
  8
0
 10
53.3284678134486896
 20
55.4938626901332981
 30
0.0
  0
VERTEX
  5
4976
  8
0
 10
54.3768175267614424
 20
54.9321073406336424
 30
0.0
  0
VERTEX
  5
4977
  8
0
 10
55.4670411321399683
 20
54.4543938926803932
 30
0.0
  0
VERTEX
  5
4978
  8
0
 10
56.5922458849312306
 20
54.0637426045012077
 30
0.0
  0
VERTEX
  5
4979
  8
0
 10
57.7453178784053307
 20
53.762623299318129
 30
0.0
  0
VERTEX
  5
497A
  8
0
 10
58.9189670201640183
 20
53.5529397503302107
 30
0.0
  0
VERTEX
  5
497B
  8
0
 10
60.1057731224527814
 20
53.4360176444459896
 30
0.0
  0
VERTEX
  5
497C
  8
0
 10
61.2982328149761315
 20
53.4125962008643498
 30
0.0
  0
VERTEX
  5
497D
  8
0
 10
62.4888069836209681
 20
53.4828234974927383
 30
0.0
  0
VERTEX
  5
497E
  8
0
 10
63.6699684351633621
 20
53.6462555347506083
 30
0.0
  0
VERTEX
  5
497F
  8
0
 10
64.8342494866071775
 20
53.9018590426781969
 30
0.0
  0
VERTEX
  5
4980
  8
0
 10
65.974289178281083
 20
54.2480180136015377
 30
0.0
  0
VERTEX
  5
4981
  8
0
 10
67.0828798121950172
 20
54.6825439190534297
 30
0.0
  0
VERTEX
  5
4982
  8
0
 10
68.1530125214276836
 20
55.2026895463550815
 30
0.0
  0
VERTEX
  5
4983
  8
0
 10
69.177921582440149
 20
55.8051663673789875
 30
0.0
  0
VERTEX
  5
4984
  8
0
 10
70.1511271901579221
 20
56.4861653296829331
 30
0.0
  0
VERTEX
  5
4985
  8
0
 10
71.0664764253856447
 20
57.2413809385654915
 30
0.0
  0
VERTEX
  5
4986
  8
0
 10
71.9181821555424534
 20
58.0660384777901228
 30
0.0
  0
VERTEX
  5
4987
  8
0
 10
72.7008596227782391
 20
58.9549241968783093
 30
0.0
  0
VERTEX
  5
4988
  8
0
 10
73.4095604881459849
 20
59.902418274118979
 30
0.0
  0
VERTEX
  5
4989
  8
0
 10
74.0398041165938139
 20
60.9025303468904866
 30
0.0
  0
VERTEX
  5
498A
  8
0
 10
74.5876059049829223
 20
61.9489373846621589
 30
0.0
  0
VERTEX
  5
498B
  8
0
 10
75.0495024740309731
 20
63.0350236652288274
 30
0.0
  0
VERTEX
  5
498C
  8
0
 10
75.4225735649113744
 20
64.1539226014369319
 30
0.0
  0
VERTEX
  5
498D
  8
0
 10
75.7044605020696508
 20
65.2985601539591585
 30
0.0
  0
VERTEX
  5
498E
  8
0
 10
75.8933811055296701
 20
66.4616995556488632
 30
0.0
  0
VERTEX
  5
498F
  8
0
 10
75.9881409584095309
 20
67.6359870647117987
 30
0.0
  0
VERTEX
  5
4990
  8
0
 10
75.9881409584095309
 20
68.8139984574296051
 30
0.0
  0
VERTEX
  5
4991
  8
0
 10
75.8933811055296701
 20
69.9882859664925832
 30
0.0
  0
VERTEX
  5
4992
  8
0
 10
75.7044605020695229
 20
71.1514253681822311
 30
0.0
  0
VERTEX
  5
4993
  8
0
 10
75.4225735649113034
 20
72.2960629207044576
 30
0.0
  0
VERTEX
  5
4994
  8
0
 10
75.0495024740309304
 20
73.414961856912555
 30
0.0
  0
VERTEX
  5
4995
  8
0
 10
74.5876059049828655
 20
74.5010481374792448
 30
0.0
  0
VERTEX
  5
4996
  8
0
 10
74.0398041165937002
 20
75.5474551752508887
 30
0.0
  0
VERTEX
  5
4997
  8
0
 10
73.4095604881458712
 20
76.5475672480224034
 30
0.0
  0
VERTEX
  5
4998
  8
0
 10
72.7008596227781254
 20
77.4950613252630234
 30
0.0
  0
VERTEX
  5
4999
  8
0
 10
71.9181821555423539
 20
78.3839470443512312
 30
0.0
  0
VERTEX
  5
499A
  8
0
 10
71.066476425385531
 20
79.2086045835758341
 30
0.0
  0
VERTEX
  5
499B
  8
0
 10
70.1511271901578084
 20
79.9638201924583996
 30
0.0
  0
VERTEX
  5
499C
  8
0
 10
69.1779215824399216
 20
80.6448191547623452
 30
0.0
  0
VERTEX
  5
499D
  8
0
 10
68.1530125214275131
 20
81.2472959757862441
 30
0.0
  0
VERTEX
  5
499E
  8
0
 10
67.0828798121948466
 20
81.7674416030878461
 30
0.0
  0
VERTEX
  5
499F
  8
0
 10
65.9742891782809551
 20
82.2019675085397239
 30
0.0
  0
VERTEX
  5
49A0
  8
0
 10
64.8342494866070638
 20
82.5481264794630363
 30
0.0
  0
VERTEX
  5
49A1
  8
0
 10
63.6699684351631277
 20
82.803729987390625
 30
0.0
  0
VERTEX
  5
49A2
  8
0
 10
62.4888069836208615
 20
82.967162024648502
 30
0.0
  0
VERTEX
  5
49A3
  8
0
 10
61.298232814975961
 20
83.0373893212768621
 30
0.0
  0
VERTEX
  5
49A4
  8
0
 10
60.1057731224525469
 20
83.0139678776952223
 30
0.0
  0
VERTEX
  5
49A5
  8
0
 10
58.9189670201638975
 20
82.8970457718109657
 30
0.0
  0
VERTEX
  5
49A6
  8
0
 10
57.7453178784051033
 20
82.6873622228230261
 30
0.0
  0
VERTEX
  5
49A7
  8
0
 10
56.592245884931117
 20
82.3862429176399473
 30
0.0
  0
VERTEX
  5
49A8
  8
0
 10
55.4670411321397978
 20
81.9955916294607334
 30
0.0
  0
VERTEX
  5
49A9
  8
0
 10
54.3768175267612079
 20
81.5178781815074558
 30
0.0
  0
VERTEX
  5
49AA
  8
0
 10
53.3284678134485901
 20
80.9561228320077646
 30
0.0
  0
VERTEX
  5
49AB
  8
0
 10
52.3286199966271397
 20
80.3138771791499266
 30
0.0
  0
VERTEX
  5
49AC
  8
0
 10
51.3835954361166003
 20
79.5952017067355087
 30
0.0
  0
VERTEX
  5
49AD
  8
0
 10
50.4993688814585013
 20
78.8046401124935301
 30
0.0
  0
VERTEX
  5
49AE
  8
0
 10
49.6815306976264921
 20
77.9471905813603314
 30
0.0
  0
VERTEX
  5
49AF
  8
0
 10
48.9352515209384293
 20
77.0282741853453388
 30
0.0
  0
VERTEX
  5
49B0
  8
0
 10
48.2652495686295424
 20
76.0537006097682138
 30
0.0
  0
VERTEX
  5
49B1
  8
0
 10
47.6757608087630231
 20
75.0296314225577703
 30
0.0
  0
VERTEX
  5
49B2
  8
0
 10
47.1705121790768729
 20
73.9625411188357589
 30
0.0
  0
VERTEX
  5
49B3
  8
0
 10
46.7526980240832515
 20
72.8591761870740129
 30
0.0
  0
VERTEX
  5
49B4
  8
0
 10
46.4249598993938477
 20
71.7265124556222133
 30
0.0
  0
VERTEX
  5
49B5
  8
0
 10
46.1893698709550335
 20
70.5717109892750614
 30
0.0
  0
VERTEX
  5
49B6
  8
0
 10
46.047417414779602
 20
69.4020728147148702
 30
0.0
  0
VERTEX
  5
49B7
  8
0
 10
46.0000000000000497
 20
68.2249927610706095
 30
0.0
  0
SEQEND
  5
49B8
  8
0
  0
POLYLINE
  5
4622
  8
0
 66
     1
 10
0.0
 20
0.0
 30
0.0
 70
   128
  0
VERTEX
  5
49B9
  8
0
 10
49.0000000000000497
 20
68.2249927610706095
 30
0.0
  0
VERTEX
  5
49BA
  8
0
 10
49.0469581351006809
 20
67.1774887748541119
 30
0.0
  0
VERTEX
  5
49BB
  8
0
 10
49.1874650293273135
 20
66.1381829275881614
 30
0.0
  0
VERTEX
  5
49BC
  8
0
 10
49.4204210257263412
 20
65.1152091966705484
 30
0.0
  0
VERTEX
  5
49BD
  8
0
 10
49.744002927772442
 20
64.1165737385447869
 30
0.0
  0
VERTEX
  5
49BE
  8
0
 10
50.1556782683536468
 20
63.1500922296706335
 30
0.0
  0
VERTEX
  5
49BF
  8
0
 10
50.6522251297596995
 20
62.2233286982591309
 30
0.0
  0
VERTEX
  5
49C0
  8
0
 10
51.2297573595571905
 20
61.3435363254960393
 30
0.0
  0
VERTEX
  5
49C1
  8
0
 10
51.8837549850006781
 20
60.5176006795647865
 30
0.0
  0
VERTEX
  5
49C2
  8
0
 10
52.6090995879483216
 20
59.7519858267397126
 30
0.0
  0
VERTEX
  5
49C3
  8
0
 10
53.4001143634235405
 20
59.0526837413031487
 30
0.0
  0
VERTEX
  5
49C4
  8
0
 10
54.2506085483106517
 20
58.4251674102224499
 30
0.0
  0
VERTEX
  5
49C5
  8
0
 10
55.1539258724704879
 20
57.8743479996064565
 30
0.0
  0
VERTEX
  5
49C6
  8
0
 10
56.1029966530784918
 20
57.4045364181717375
 30
0.0
  0
VERTEX
  5
49C7
  8
0
 10
57.0903931244786165
 20
57.0194095785371502
 30
0.0
  0
VERTEX
  5
49C8
  8
0
 10
58.1083875705206694
 20
56.7219816203970808
 30
0.0
  0
VERTEX
  5
49C9
  8
0
 10
59.1490128044164294
 20
56.5145803207917012
 30
0.0
  0
VERTEX
  5
49CA
  8
0
 10
60.2041245227787769
 20
56.3988288760955001
 30
0.0
  0
VERTEX
  5
49CB
  8
0
 10
61.2654650458383685
 20
56.3756331983048398
 30
0.0
  0
VERTEX
  5
49CC
  8
0
 10
62.3247279449833513
 20
56.4451748250482908
 30
0.0
  0
VERTEX
  5
49CD
  8
0
 10
63.3736230518262573
 20
56.6069094988085482
 30
0.0
  0
VERTEX
  5
49CE
  8
0
 10
64.40394134001167
 20
56.8595714264754903
 30
0.0
  0
VERTEX
  5
49CF
  8
0
 10
65.40761917197716
 20
57.2011831858934485
 30
0.0
  0
VERTEX
  5
49D0
  8
0
 10
66.376801407851076
 20
57.6290712018705378
 30
0.0
  0
VERTEX
  5
49D1
  8
0
 10
67.3039028825717196
 20
58.1398866705298403
 30
0.0
  0
VERTEX
  5
49D2
  8
0
 10
68.1816677700887794
 20
58.7296317682397984
 30
0.0
  0
VERTEX
  5
49D3
  8
0
 10
69.0032263700398971
 20
59.3936909400049089
 30
0.0
  0
VERTEX
  5
49D4
  8
0
 10
69.7621488724701067
 20
60.126867022441381
 30
0.0
  0
VERTEX
  5
49D5
  8
0
 10
70.4524956798127135
 20
60.9234219186273407
 30
0.0
  0
VERTEX
  5
49D6
  8
0
 10
71.068863892293507
 20
61.7771215064910493
 30
0.0
  0
VERTEX
  5
49D7
  8
0
 10
71.6064295929468244
 20
62.6812844292687927
 30
0.0
  0
VERTEX
  5
49D8
  8
0
 10
72.0609856013065837
 20
63.628834386180408
 30
0.0
  0
VERTEX
  5
49D9
  8
0
 10
72.4289744002976335
 20
64.6123555140774215
 30
0.0
  0
VERTEX
  5
49DA
  8
0
 10
72.7075159786301128
 20
65.6241504266267555
 30
0.0
  0
VERTEX
  5
49DB
  8
0
 10
72.8944303707930317
 20
66.6563004567954636
 30
0.0
  0
VERTEX
  5
49DC
  8
0
 10
72.988254718239773
 20
67.7007276311567807
 30
0.0
  0
VERTEX
  5
49DD
  8
0
 10
72.988254718239773
 20
68.7492578909846088
 30
0.0
  0
VERTEX
  5
49DE
  8
0
 10
72.8944303707929748
 20
69.793685065345926
 30
0.0
  0
VERTEX
  5
49DF
  8
0
 10
72.7075159786301128
 20
70.8258350955146057
 30
0.0
  0
VERTEX
  5
49E0
  8
0
 10
72.4289744002975908
 20
71.8376300080639254
 30
0.0
  0
VERTEX
  5
49E1
  8
0
 10
72.0609856013065837
 20
72.8211511359609034
 30
0.0
  0
VERTEX
  5
49E2
  8
0
 10
71.6064295929467107
 20
73.7687010928725613
 30
0.0
  0
VERTEX
  5
49E3
  8
0
 10
71.0688638922933933
 20
74.6728640156503047
 30
0.0
  0
VERTEX
  5
49E4
  8
0
 10
70.4524956798126141
 20
75.5265636035139778
 30
0.0
  0
VERTEX
  5
49E5
  8
0
 10
69.762148872469993
 20
76.3231184996999161
 30
0.0
  0
VERTEX
  5
49E6
  8
0
 10
69.0032263700397834
 20
77.0562945821363883
 30
0.0
  0
VERTEX
  5
49E7
  8
0
 10
68.1816677700886657
 20
77.7203537539015201
 30
0.0
  0
VERTEX
  5
49E8
  8
0
 10
67.3039028825714922
 20
78.3100988516114569
 30
0.0
  0
VERTEX
  5
49E9
  8
0
 10
66.3768014078508486
 20
78.820914320270731
 30
0.0
  0
VERTEX
  5
49EA
  8
0
 10
65.4076191719769753
 20
79.2488023362478202
 30
0.0
  0
VERTEX
  5
49EB
  8
0
 10
64.4039413400114995
 20
79.5904140956657216
 30
0.0
  0
VERTEX
  5
49EC
  8
0
 10
63.3736230518261365
 20
79.8430760233326851
 30
0.0
  0
VERTEX
  5
49ED
  8
0
 10
62.3247279449831169
 20
80.0048106970929354
 30
0.0
  0
VERTEX
  5
49EE
  8
0
 10
61.2654650458381411
 20
80.074352323836365
 30
0.0
  0
VERTEX
  5
49EF
  8
0
 10
60.2041245227786703
 20
80.0511566460456834
 30
0.0
  0
VERTEX
  5
49F0
  8
0
 10
59.1490128044163228
 20
79.9354052013494538
 30
0.0
  0
VERTEX
  5
49F1
  8
0
 10
58.1083875705205628
 20
79.7280039017440743
 30
0.0
  0
VERTEX
  5
49F2
  8
0
 10
57.0903931244785099
 20
79.4305759436039978
 30
0.0
  0
VERTEX
  5
49F3
  8
0
 10
56.1029966530783213
 20
79.0454491039693607
 30
0.0
  0
VERTEX
  5
49F4
  8
0
 10
55.1539258724703814
 20
78.575637522534663
 30
0.0
  0
VERTEX
  5
49F5
  8
0
 10
54.250608548310538
 20
78.0248181119186484
 30
0.0
  0
VERTEX
  5
49F6
  8
0
 10
53.4001143634234268
 20
77.3973017808379495
 30
0.0
  0
VERTEX
  5
49F7
  8
0
 10
52.609099587948208
 20
76.6979996954013927
 30
0.0
  0
VERTEX
  5
49F8
  8
0
 10
51.8837549850005573
 20
75.9323848425763117
 30
0.0
  0
VERTEX
  5
49F9
  8
0
 10
51.229757359557091
 20
75.1064491966450305
 30
0.0
  0
VERTEX
  5
49FA
  8
0
 10
50.6522251297596995
 20
74.2266568238819104
 30
0.0
  0
VERTEX
  5
49FB
  8
0
 10
50.1556782683535403
 20
73.299893292470415
 30
0.0
  0
VERTEX
  5
49FC
  8
0
 10
49.7440029277723923
 20
72.3334117835962616
 30
0.0
  0
VERTEX
  5
49FD
  8
0
 10
49.4204210257263412
 20
71.3347763254705001
 30
0.0
  0
VERTEX
  5
49FE
  8
0
 10
49.1874650293273135
 20
70.3118025945528871
 30
0.0
  0
VERTEX
  5
49FF
  8
0
 10
49.0469581351006809
 20
69.2724967472869366
 30
0.0
  0
VERTEX
  5
4A00
  8
0
 10
49.0000000000000497
 20
68.2249927610706095
 30
0.0
  0
SEQEND
  5
4A01
  8
0
  0
LINE
  5
4623
  8
0
 10
59.8452994616208116
 20
67.3446573351619406
 30
0.0
 11
58.6905989232415095
 21
69.3200340163522242
 31
0.0
  0
LINE
  5
4624
  8
0
 10
59.8452994616208116
 20
71.2954106975424793
 30
0.0
 11
58.6905989232415095
 21
69.3200340163522242
 31
0.0
  0
LINE
  5
4625
  8
0
 10
62.1547005383793021
 20
71.2954106975424793
 30
0.0
 11
59.8452994616208116
 21
71.2954106975424793
 31
0.0
  0
LINE
  5
4626
  8
0
 10
62.1547005383793021
 20
71.2954106975424793
 30
0.0
 11
63.3094010767585402
 21
69.3200340163522242
 31
0.0
  0
LINE
  5
4627
  8
0
 10
62.1547005383793021
 20
67.3446573351619406
 30
0.0
 11
63.3094010767585402
 21
69.3200340163522242
 31
0.0
  0
LINE
  5
4628
  8
0
 10
62.1547005383793021
 20
67.3446573351619406
 30
0.0
 11
59.8452994616208116
 21
67.3446573351619406
 31
0.0
  0
CIRCLE
  5
4629
  8
0
 10
60.9999999999999432
 20
69.3200340163522242
 30
0.0
 40
3.487992010196681
  0
LINE
  5
462A
  8
0
 10
46.0
 20
70.1022063415530567
 30
0.0
 11
46.0000000000000497
 21
68.2249927610702684
 31
0.0
  0
LINE
  5
462B
  8
0
 10
76.0000000000000568
 20
68.2249927610709506
 30
0.0
 11
76.0
 21
70.1022063415537104
 31
0.0
  0
ARC
  5
462C
  8
0
 10
61.0
 20
69.9535698048605923
 30
0.0
 40
15.0007364092580602
 50
0.5677311675174229
 51
179.4322688324841977
  0
CIRCLE
  5
462D
  8
0
 10
155.5999999999999943
 20
72.0000000000003411
 30
0.0
 40
2.75
  0
LINE
  5
462E
  8
0
 10
154.5999999999999091
 20
72.5773502691898784
 30
0.0
 11
154.600000000000108
 21
71.4226497308108037
 31
0.0
  0
LINE
  5
462F
  8
0
 10
155.5999999999999943
 20
73.1547005383796431
 30
0.0
 11
154.5999999999999091
 21
72.5773502691898784
 31
0.0
  0
LINE
  5
4630
  8
0
 10
156.5999999999999943
 20
72.5773502691902053
 30
0.0
 11
155.5999999999999943
 21
73.1547005383796431
 31
0.0
  0
LINE
  5
4631
  8
0
 10
156.5999999999999943
 20
71.4226497308108037
 30
0.0
 11
156.5999999999999943
 21
72.5773502691902053
 31
0.0
  0
LINE
  5
4632
  8
0
 10
155.600000000000108
 20
70.8452994616211527
 30
0.0
 11
156.5999999999999943
 21
71.4226497308108037
 31
0.0
  0
LINE
  5
4633
  8
0
 10
154.600000000000108
 20
71.4226497308108037
 30
0.0
 11
155.600000000000108
 21
70.8452994616211527
 31
0.0
  0
LINE
  5
4634
  8
0
 10
135.5999999999999943
 20
50.5
 30
0.0
 11
135.5999999999999943
 21
86.5000000000001137
 31
0.0
  0
LINE
  5
4635
  8
0
 10
136.1000000000001933
 20
87.0000000000003411
 30
0.0
 11
185.0999999999999943
 21
87.0000000000003411
 31
0.0
  0
LINE
  5
4636
  8
0
 10
135.5999999999999091
 20
137.5
 30
0.0
 11
135.5999999999999091
 21
158.5
 31
0.0
  0
LINE
  5
4637
  8
0
 10
136.0999999999999091
 20
159.0
 30
0.0
 11
185.0999999999999943
 21
159.0
 31
0.0
  0
LINE
  5
4638
  8
0
 10
136.0999999999999091
 20
137.0
 30
0.0
 11
185.0999999999999943
 21
137.0
 31
0.0
  0
LINE
  5
4639
  8
0
 10
185.5999999999999943
 20
137.5
 30
0.0
 11
185.5999999999999943
 21
158.5
 31
0.0
  0
LINE
  5
463A
  8
0
 10
185.5999999999999943
 20
86.5000000000003411
 30
0.0
 11
185.5999999999999943
 21
50.5
 31
0.0
  0
LINE
  5
463B
  8
0
 10
185.0999999999999943
 20
50.0
 30
0.0
 11
136.0999999999999943
 21
50.0
 31
0.0
  0
LINE
  5
463C
  8
0
 10
50.5
 20
50.0
 30
0.0
 11
71.5
 21
50.0
 31
0.0
  0
LINE
  5
463D
  8
0
 10
72.0
 20
50.5
 30
0.0
 11
72.0
 21
58.1589588907946009
 31
0.0
  0
LINE
  5
463E
  8
0
 10
72.0
 20
80.1526919641466833
 30
0.0
 11
72.0
 21
86.5
 31
0.0
  0
LINE
  5
463F
  8
0
 10
71.5
 20
87.0
 30
0.0
 11
50.5
 21
87.0
 31
0.0
  0
LINE
  5
4640
  8
0
 10
50.0
 20
86.5
 30
0.0
 11
50.0
 21
80.1526919641466833
 31
0.0
  0
LINE
  5
4641
  8
0
 10
50.0
 20
58.168900828964027
 30
0.0
 11
50.0
 21
50.5
 31
0.0
  0
LINE
  5
4642
  8
0
 10
135.5999999999999943
 20
50.5
 30
0.0
 11
136.0999999999999943
 21
50.0
 31
0.0
  0
LINE
  5
4643
  8
0
 10
185.0999999999999943
 20
50.0
 30
0.0
 11
185.5999999999999943
 21
50.5
 31
0.0
  0
LINE
  5
4644
  8
0
 10
135.5999999999999091
 20
86.5
 30
0.0
 11
136.0999999999999091
 21
87.0
 31
0.0
  0
LINE
  5
4645
  8
0
 10
50.0
 20
50.5
 30
0.0
 11
50.5
 21
50.0
 31
0.0
  0
LINE
  5
4646
  8
0
 10
71.5
 20
50.0
 30
0.0
 11
72.0
 21
50.5
 31
0.0
  0
LINE
  5
4647
  8
0
 10
50.5
 20
87.0
 30
0.0
 11
50.0
 21
86.5
 31
0.0
  0
LINE
  5
4648
  8
0
 10
71.5
 20
87.0
 30
0.0
 11
72.0
 21
86.5
 31
0.0
  0
LINE
  5
4649
  8
0
 10
185.0999999999999943
 20
159.0
 30
0.0
 11
185.5999999999999943
 21
158.5
 31
0.0
  0
LINE
  5
464A
  8
0
 10
185.5999999999999943
 20
137.5
 30
0.0
 11
185.0999999999999943
 21
137.0
 31
0.0
  0
LINE
  5
464B
  8
0
 10
136.0999999999999091
 20
159.0
 30
0.0
 11
135.5999999999999091
 21
158.5
 31
0.0
  0
LINE
  5
464C
  8
0
 10
135.5999999999999091
 20
137.5
 30
0.0
 11
136.0999999999999091
 21
137.0
 31
0.0
  0
LINE
  5
464D
  8
1
 10
61.0
 20
100.0
 30
0.0
 11
60.9999999999999432
 21
46.9999999999999929
 31
0.0
  0
LINE
  5
464E
  8
1
 10
155.5999999999999943
 20
100.0
 30
0.0
 11
155.5999999999999943
 21
47.0
 31
0.0
  0
LINE
  5
464F
  8
1
 10
108.9999854837266042
 20
148.0
 30
0.0
 11
188.5999999999999943
 21
147.9999999999998863
 31
0.0
  0
LINE
  5
4650
  8
1
 10
155.5999999999999091
 20
158.0
 30
0.0
 11
155.5999999999999091
 21
138.0
 31
0.0
  0
LINE
  5
4651
  8
1
 10
111.3834519538178967
 20
67.7644755911142909
 30
0.0
 11
150.5630650217854054
 21
73.9699166790152134
 31
0.0
  0
LINE
  5
4652
  8
0
 10
185.0999999999999943
 20
87.0000000000003411
 30
0.0
 11
185.5999999999999943
 21
86.5000000000003411
 31
0.0
  0
LINE
  5
4653
  8
1
 10
175.5999999999999091
 20
90.0000000000003268
 30
0.0
 11
175.5999999999999943
 21
47.0000000000000071
 31
0.0
  0
LINE
  5
4654
  8
2
 10
168.5999999999999943
 20
70.0
 30
0.0
 11
168.5999999999995111
 21
87.0000000000003411
 31
0.0
  0
LINE
  5
4655
  8
2
 10
182.5999999999999943
 20
70.0
 30
0.0
 11
182.5999999999993975
 21
87.0000000000003411
 31
0.0
  0
LINE
  5
4656
  8
2
 10
171.0999999999999943
 20
70.0
 30
0.0
 11
171.0999999999999943
 21
50.0
 31
0.0
  0
LINE
  5
4657
  8
2
 10
180.0999999999999943
 20
70.0
 30
0.0
 11
180.0999999999999943
 21
50.0
 31
0.0
  0
LINE
  5
4658
  8
2
 10
168.5999999999999943
 20
70.0
 30
0.0
 11
182.5999999999999943
 21
70.0000000000002274
 31
0.0
  0
CIRCLE
  5
4659
  8
0
 10
175.5999999999999943
 20
148.0
 30
0.0
 40
7.0
  0
CIRCLE
  5
465A
  8
0
 10
175.5999999999999943
 20
148.0
 30
0.0
 40
4.5
  0
LINE
  5
465B
  8
1
 10
175.5999999999999943
 20
157.0
 30
0.0
 11
175.5999999999999943
 21
139.0
 31
0.0
  0
LINE
  5
465C
  8
2
 10
147.5999999999999091
 20
87.0000000000003411
 30
0.0
 11
147.5999999999999091
 21
57.8000000000000682
 31
0.0
  0
LINE
  5
465D
  8
2
 10
163.5999999999999091
 20
57.8000000000000682
 30
0.0
 11
163.5999999999999091
 21
87.0000000000003411
 31
0.0
  0
CIRCLE
  5
465E
  8
0
 10
155.5999999999999091
 20
148.0
 30
0.0
 40
8.0
  0
LINE
  5
465F
  8
2
 10
152.2249999999997954
 20
80.9174682452694469
 30
0.0
 11
151.5999999999997954
 21
82.0
 31
0.0
  0
LINE
  5
4660
  8
2
 10
151.5999999999997954
 20
96.0825317547305531
 30
0.0
 11
151.5999999999997954
 21
82.0
 31
0.0
  0
LINE
  5
4661
  8
2
 10
152.2249999999997954
 20
95.0000000000001137
 30
0.0
 11
152.2249999999997954
 21
77.9999999999998863
 31
0.0
  0
LINE
  5
4662
  8
2
 10
158.9749999999999943
 20
80.9174682452694469
 30
0.0
 11
159.5999999999999943
 21
82.0
 31
0.0
  0
LINE
  5
4663
  8
2
 10
155.5999999999999943
 20
76.0514428414849135
 30
0.0
 11
152.2249999999997954
 21
78.0
 31
0.0
  0
LINE
  5
4664
  8
2
 10
155.5999999999999091
 20
76.0514428414849135
 30
0.0
 11
158.975000000000108
 21
78.0
 31
0.0
  0
LINE
  5
4665
  8
2
 10
158.9749999999999943
 20
77.9999999999998863
 30
0.0
 11
152.2249999999999091
 21
77.9999999999998863
 31
0.0
  0
LINE
  5
4666
  8
2
 10
159.5999999999999943
 20
82.0
 30
0.0
 11
151.5999999999997954
 21
82.0
 31
0.0
  0
LINE
  5
4667
  8
2
 10
158.9749999999999943
 20
95.0
 30
0.0
 11
158.9749999999999943
 21
77.9999999999998863
 31
0.0
  0
LINE
  5
4668
  8
2
 10
159.5999999999999943
 20
96.0825317547305531
 30
0.0
 11
159.5999999999999943
 21
82.0
 31
0.0
  0
LINE
  5
4669
  8
0
 10
163.5999999999999091
 20
87.0000000000003411
 30
0.0
 11
163.5999999999999091
 21
96.5
 31
0.0
  0
LINE
  5
466A
  8
0
 10
163.0999999999999091
 20
97.0
 30
0.0
 11
148.0999999999999091
 21
97.0000000000001137
 31
0.0
  0
LINE
  5
466B
  8
0
 10
147.5999999999999091
 20
96.5000000000001137
 30
0.0
 11
147.5999999999999091
 21
87.0000000000003411
 31
0.0
  0
LINE
  5
466C
  8
2
 10
158.9749999999999943
 20
95.0
 30
0.0
 11
152.2249999999997954
 21
95.0
 31
0.0
  0
LINE
  5
466D
  8
2
 10
158.9749999999999943
 20
95.0000000000001137
 30
0.0
 11
160.1297005383792964
 21
97.0
 31
0.0
  0
LINE
  5
466E
  8
2
 10
152.2249999999997954
 20
95.0000000000001137
 30
0.0
 11
151.070299461620607
 21
97.0
 31
0.0
  0
LINE
  5
466F
  8
0
 10
53.0
 20
96.5000000000001137
 30
0.0
 11
53.0000000000000568
 21
87.0
 31
0.0
  0
LINE
  5
4670
  8
0
 10
68.5
 20
97.0
 30
0.0
 11
53.5
 21
97.0000000000001137
 31
0.0
  0
LINE
  5
4671
  8
0
 10
69.0000000000000568
 20
87.0
 30
0.0
 11
69.0
 21
96.5
 31
0.0
  0
LINE
  5
4672
  8
0
 10
148.0999999999999091
 20
97.0000000000001137
 30
0.0
 11
147.5999999999999091
 21
96.5000000000001137
 31
0.0
  0
LINE
  5
4673
  8
0
 10
163.0999999999999091
 20
97.0
 30
0.0
 11
163.5999999999999091
 21
96.5
 31
0.0
  0
LINE
  5
4674
  8
0
 10
53.5
 20
97.0000000000001137
 30
0.0
 11
53.0
 21
96.5000000000001137
 31
0.0
  0
LINE
  5
4675
  8
0
 10
68.5
 20
97.0
 30
0.0
 11
69.0
 21
96.5
 31
0.0
  0
CIRCLE
  5
4676
  8
0
 10
155.5999999999999091
 20
148.0
 30
0.0
 40
3.375
  0
CIRCLE
  5
4677
  8
3
 10
155.5999999999999091
 20
148.0
 30
0.0
 40
4.0
  0
LINE
  5
4678
  8
2
 10
148.399999999999892
 20
57.0000000000000071
 30
0.0
 11
162.7999999999998977
 21
57.0
 31
0.0
  0
LINE
  5
4679
  8
2
 10
148.399999999999892
 20
57.0
 30
0.0
 11
147.5999999999999091
 21
57.8000000000000682
 31
0.0
  0
LINE
  5
467A
  8
2
 10
162.7999999999998977
 20
57.0
 30
0.0
 11
163.5999999999999091
 21
57.8000000000000682
 31
0.0
  0
LINE
  5
467B
  8
0
 10
152.8499999999999091
 20
136.5999999999999091
 30
0.0
 11
152.8499999999999091
 21
137.0
 31
0.0
  0
LINE
  5
467C
  8
0
 10
154.4500000000101068
 20
135.0
 30
0.0
 11
156.7499999999895977
 21
135.0
 31
0.0
  0
LINE
  5
467D
  8
0
 10
152.8500000000018986
 20
136.5999999999999091
 30
0.0
 11
158.3499999999999091
 21
136.5999999999999091
 31
0.0
  0
ARC
  5
467E
  8
0
 10
154.8161903789707026
 20
136.9661903789707935
 30
0.0
 40
2.0
 50
190.5500980116590881
 51
259.4499019882035213
  0
LINE
  5
467F
  8
0
 10
158.3499999999999091
 20
136.5999999999999091
 30
0.0
 11
158.3499999999999091
 21
137.0
 31
0.0
  0
ARC
  5
4680
  8
0
 10
156.3838096210290018
 20
136.9661903789707935
 30
0.0
 40
2.0
 50
280.5500980117964787
 51
349.4499019883406277
  0
LINE
  5
4681
  8
2
 10
148.7547005383790975
 20
67.0000000000000568
 30
0.0
 11
162.4452994616206922
 21
67.0000000000000568
 31
0.0
  0
LINE
  5
4682
  8
2
 10
163.5999999999999091
 20
69.0000000000000568
 30
0.0
 11
162.4452994616206922
 21
67.0000000000000568
 31
0.0
  0
LINE
  5
4683
  8
2
 10
147.5999999999999091
 20
69.0000000000001847
 30
0.0
 11
148.7547005383790975
 21
67.0000000000000568
 31
0.0
  0
LINE
  5
4684
  8
1
 10
158.8500217263207901
 20
54.0
 30
0.0
 11
152.3499782736791133
 21
54.0
 31
0.0
  0
CIRCLE
  5
4685
  8
0
 10
155.5999999999999943
 20
54.0
 30
0.0
 40
1.2500217263208679
  0
ENDSEC
  0
EOF
