  0
SECTION
  2
HEADER
  9
$ACADVER
  1
AC1009
  9
$INSBASE
 10
0.0
 20
0.0
 30
0.0
  9
$EXTMIN
 10
0.0
 20
-2.960436562073669
 30
0.0
  9
$EXTMAX
 10
226.58539332279631
 20
250.71295558977019
 30
0.0
  9
$LIMMIN
 10
0.0
 20
0.0
  9
$LIMMAX
 10
390.0
 20
270.0
  9
$ORTHOMODE
 70
     1
  9
$REGENMODE
 70
     1
  9
$FILLMODE
 70
     1
  9
$QTEXTMODE
 70
     0
  9
$MIRRTEXT
 70
     0
  9
$DRAGMODE
 70
     2
  9
$LTSCALE
 40
5.0
  9
$OSMODE
 70
    37
  9
$ATTMODE
 70
     1
  9
$TEXTSIZE
 40
2.5
  9
$TRACEWID
 40
1.0
  9
$TEXTSTYLE
  7
STANDARD
  9
$CLAYER
  8
0
  9
$CELTYPE
  6
BYLAYER
  9
$CECOLOR
 62
   256
  9
$DIMSCALE
 40
1.5
  9
$DIMASZ
 40
3.0
  9
$DIMEXO
 40
1.0
  9
$DIMDLI
 40
6.0
  9
$DIMRND
 40
0.0
  9
$DIMDLE
 40
0.0
  9
$DIMEXE
 40
1.0
  9
$DIMTP
 40
495.0
  9
$DIMTM
 40
0.0
  9
$DIMTXT
 40
3.2000000000000002
  9
$DIMCEN
 40
0.0
  9
$DIMTSZ
 40
0.0
  9
$DIMTOL
 70
     0
  9
$DIMLIM
 70
     0
  9
$DIMTIH
 70
     0
  9
$DIMTOH
 70
     0
  9
$DIMSE1
 70
     0
  9
$DIMSE2
 70
     0
  9
$DIMTAD
 70
     1
  9
$DIMZIN
 70
     8
  9
$DIMBLK
  1

  9
$DIMASO
 70
     0
  9
$DIMSHO
 70
     1
  9
$DIMPOST
  1

  9
$DIMAPOST
  1

  9
$DIMALT
 70
     0
  9
$DIMALTD
 70
     2
  9
$DIMALTF
 40
25.399999999999999
  9
$DIMLFAC
 40
1.0
  9
$DIMTOFL
 70
     1
  9
$DIMTVP
 40
0.0
  9
$DIMTIX
 70
     1
  9
$DIMSOXD
 70
     0
  9
$DIMSAH
 70
     0
  9
$DIMBLK1
  1

  9
$DIMBLK2
  1

  9
$DIMSTYLE
  2
ITM
  9
$DIMCLRD
 70
   256
  9
$DIMCLRE
 70
   256
  9
$DIMCLRT
 70
   256
  9
$DIMTFAC
 40
1.0
  9
$DIMGAP
 40
1.0
  9
$LUNITS
 70
     2
  9
$LUPREC
 70
     1
  9
$SKETCHINC
 40
1.0
  9
$FILLETRAD
 40
0.4
  9
$AUNITS
 70
     0
  9
$AUPREC
 70
     1
  9
$MENU
  1
.
  9
$ELEVATION
 40
0.0
  9
$PELEVATION
 40
0.0
  9
$THICKNESS
 40
0.0
  9
$LIMCHECK
 70
     0
  9
$BLIPMODE
 70
     0
  9
$CHAMFERA
 40
1.1999999999999991
  9
$CHAMFERB
 40
1.1999999999999991
  9
$SKPOLY
 70
     0
  9
$TDCREATE
 40
2453354.0921258219
  9
$TDUPDATE
 40
2459675.4365464929
  9
$TDINDWG
 40
513.60439530090002
  9
$TDUSRTIMER
 40
513.6041173264
  9
$USRTIMER
 70
     1
  9
$ANGBASE
 50
0.0
  9
$ANGDIR
 70
     0
  9
$PDMODE
 70
     0
  9
$PDSIZE
 40
0.0
  9
$PLINEWID
 40
0.0
  9
$COORDS
 70
     1
  9
$SPLFRAME
 70
     0
  9
$SPLINETYPE
 70
     6
  9
$SPLINESEGS
 70
     8
  9
$ATTDIA
 70
     0
  9
$ATTREQ
 70
     1
  9
$HANDLING
 70
     1
  9
$HANDSEED
  5
6BB
  9
$SURFTAB1
 70
     6
  9
$SURFTAB2
 70
     6
  9
$SURFTYPE
 70
     6
  9
$SURFU
 70
     6
  9
$SURFV
 70
     6
  9
$UCSNAME
  2

  9
$UCSORG
 10
0.0
 20
0.0
 30
0.0
  9
$UCSXDIR
 10
1.0
 20
0.0
 30
0.0
  9
$UCSYDIR
 10
0.0
 20
1.0
 30
0.0
  9
$PUCSNAME
  2

  9
$PUCSORG
 10
0.0
 20
0.0
 30
0.0
  9
$PUCSXDIR
 10
1.0
 20
0.0
 30
0.0
  9
$PUCSYDIR
 10
0.0
 20
1.0
 30
0.0
  9
$USERI1
 70
     4
  9
$USERI2
 70
     1
  9
$USERI3
 70
     1
  9
$USERI4
 70
     0
  9
$USERI5
 70
     0
  9
$USERR1
 40
1.0
  9
$USERR2
 40
3.0
  9
$USERR3
 40
3.2000000000000002
  9
$USERR4
 40
3.0
  9
$USERR5
 40
10.0
  9
$WORLDVIEW
 70
     1
  9
$SHADEDGE
 70
     3
  9
$SHADEDIF
 70
    70
  9
$TILEMODE
 70
     1
  9
$MAXACTVP
 70
    16
  9
$PLIMCHECK
 70
     0
  9
$PEXTMIN
 10
0.0
 20
0.0
 30
0.0
  9
$PEXTMAX
 10
0.0
 20
0.0
 30
0.0
  9
$PLIMMIN
 10
0.0
 20
0.0
  9
$PLIMMAX
 10
12.0
 20
9.0
  9
$UNITMODE
 70
     0
  9
$VISRETAIN
 70
     0
  9
$PLINEGEN
 70
     0
  9
$PSLTSCALE
 70
     1
  0
ENDSEC
  0
SECTION
  2
TABLES
  0
TABLE
  2
VPORT
 70
     1
  0
VPORT
  2
*ACTIVE
 70
     0
 10
0.0
 20
0.0
 11
1.0
 21
1.0
 12
398.014440433213
 22
175.0
 13
0.0
 23
0.0
 14
5.0
 24
5.0
 15
10.0
 25
10.0
 16
0.0
 26
0.0
 36
1.0
 17
0.0
 27
0.0
 37
0.0
 40
350.0
 41
2.2743682310469309
 42
50.0
 43
0.0
 44
0.0
 50
0.0
 51
0.0
 71
    16
 72
   500
 73
     1
 74
     0
 75
     0
 76
     0
 77
     0
 78
     1
  0
ENDTAB
  0
TABLE
  2
LTYPE
 70
     3
  0
LTYPE
  2
CONTINUOUS
 70
     0
  3
Solid line
 72
    65
 73
     0
 40
0.0
  0
LTYPE
  2
CENTER
 70
     0
  3
____ _ ____ _ ____ _ ____ _ ____ _ ____ _ ____
 72
    65
 73
     4
 40
2.0
 49
1.25
 49
-0.25
 49
0.25
 49
-0.25
  0
LTYPE
  2
PHANTOM2
 70
     0
  3
___ _ _ ___ _ _ ___ _ _ ___ _ _
 72
    65
 73
     6
 40
1.25
 49
0.625
 49
-0.125
 49
0.125
 49
-0.125
 49
0.125
 49
-0.125
  0
ENDTAB
  0
TABLE
  2
LAYER
 70
     5
  0
LAYER
  2
0
 70
     0
 62
     7
  6
CONTINUOUS
  0
LAYER
  2
1
 70
     0
 62
     1
  6
CENTER
  0
LAYER
  2
WAKU
 70
     0
 62
     5
  6
CONTINUOUS
  0
LAYER
  2
3
 70
     0
 62
     3
  6
CONTINUOUS
  0
LAYER
  2
DEFPOINTS
 70
     0
 62
     7
  6
CONTINUOUS
  0
ENDTAB
  0
TABLE
  2
STYLE
 70
     3
  0
STYLE
  2
STANDARD
 70
     0
 40
0.0
 41
1.0
 50
0.0
 71
     0
 42
2.5
  3
ROMANS
  4
EXTFONT
  0
STYLE
  2
K
 70
     0
 40
0.0
 41
0.75
 50
0.0
 71
     0
 42
3.2000000000000002
  3
ROMANS.shx
  4
EXTFONT.shx
  0
STYLE
  2
STANDARD1
 70
     0
 40
0.0
 41
1.0
 50
0.0
 71
     0
 42
3.0
  3
txt
  4

  0
ENDTAB
  0
TABLE
  2
VIEW
 70
     0
  0
ENDTAB
  0
TABLE
  2
UCS
 70
     0
  0
ENDTAB
  0
TABLE
  2
APPID
 70
     6
  0
APPID
  2
ACAD
 70
     0
  0
APPID
  2
ACAD_MLEADERVER
 70
     0
  0
APPID
  2
ACAD_EXEMPT_FROM_CAD_STANDARDS
 70
     0
  0
APPID
  2
ACAD_DSTYLE_DIMJAG
 70
     0
  0
APPID
  2
ACAD_DSTYLE_DIMTALN
 70
     0
  0
APPID
  2
ACAD_NAV_VCDISPLAY
 70
     0
  0
ENDTAB
  0
TABLE
  2
DIMSTYLE
 70
     2
  0
DIMSTYLE
  2
ITM
 70
     0
  3

  4

  5

  6

  7

 40
0.0
 41
2.5
 42
1.0
 43
6.0
 44
1.0
 45
0.0
 46
0.0
 47
495.0
 48
0.0
140
3.0
141
0.0
142
0.0
143
25.399999999999999
144
1.0
145
0.0
146
1.0
147
1.0
 71
     0
 72
     0
 73
     0
 74
     0
 75
     0
 76
     0
 77
     3
 78
     8
170
     0
171
     2
172
     1
173
     0
174
     0
175
     0
176
     0
177
     0
178
     0
  0
DIMSTYLE
  2
STANDARD
 70
     0
  3

  4

  5

  6

  7

 40
1.0
 41
0.18
 42
0.0625
 43
0.38
 44
0.18
 45
0.0
 46
0.0
 47
0.0
 48
0.0
140
0.18
141
0.09
142
0.0
143
25.399999999999999
144
1.0
145
0.0
146
1.0
147
0.09
 71
     0
 72
     0
 73
     1
 74
     1
 75
     0
 76
     0
 77
     0
 78
     0
170
     0
171
     2
172
     0
173
     0
174
     0
175
     0
176
     0
177
     0
178
     0
  0
ENDTAB
  0
ENDSEC
  0
SECTION
  2
BLOCKS
  0
BLOCK
  8
0
  2
$MODEL_SPACE
 70
     0
 10
0.0
 20
0.0
 30
0.0
  3
$MODEL_SPACE
  1

  0
ENDBLK
  5
12
  8
0
  0
BLOCK
 67
     1
  8
0
  2
$PAPER_SPACE
 70
     0
 10
0.0
 20
0.0
 30
0.0
  3
$PAPER_SPACE
  1

  0
ENDBLK
  5
19
 67
     1
  8
0
  0
BLOCK
  8
0
  2
ARROW1
 70
     0
 10
0.0
 20
0.0
 30
0.0
  3
ARROW1
  1

  0
SOLID
  5
4B
  8
WAKU
  6
CONTINUOUS
 62
     4
 10
-1.0
 20
0.1666666666666714
 30
0.0
 11
-1.0
 21
-0.1666666666666714
 31
0.0
 12
0.0
 22
0.0
 32
0.0
 13
0.0
 23
0.0
 33
0.0
  0
ENDBLK
  5
4D
  8
0
  0
ENDSEC
  0
SECTION
  2
ENTITIES
  0
LINE
  5
74
  8
0
 10
221.6834534484899
 20
136.66430700708139
 30
0.0
 11
222.46809531063579
 21
136.66430700708139
 31
0.0
  0
LINE
  5
75
  8
0
 10
195.702691334957
 20
136.66430700708139
 30
0.0
 11
196.4873331971024
 21
136.66430700708139
 31
0.0
  0
LINE
  5
76
  8
0
 10
208.30075146065039
 20
124.6643070070814
 30
0.0
 11
209.8700351849422
 21
124.6643070070814
 31
0.0
  0
LINE
  5
77
  8
0
 10
208.30075146065039
 20
136.66430700708139
 30
0.0
 11
209.8700351849422
 21
136.66430700708139
 31
0.0
  0
LINE
  5
78
  8
0
 10
226.4059013984851
 20
135.33640138794519
 30
0.0
 11
224.105901398485
 21
136.66430700708139
 31
0.0
  0
LINE
  5
79
  8
0
 10
224.10590139848509
 20
124.6643070070814
 30
0.0
 11
226.4059013984851
 21
125.99221262621749
 31
0.0
  0
LINE
  5
7A
  8
0
 10
194.0648852471075
 20
136.66430700708139
 30
0.0
 11
191.76488524710749
 21
135.33640138794519
 31
0.0
  0
LINE
  5
7B
  8
0
 10
191.76488524710749
 20
125.99221262621749
 30
0.0
 11
194.0648852471075
 21
124.6643070070814
 31
0.0
  0
LINE
  5
7C
  8
0
 10
191.58539332279631
 20
107.22093133410731
 30
0.0
 11
191.58539332279631
 21
63.164307007081391
 31
0.0
  0
LINE
  5
7D
  8
0
 10
226.58539332279631
 20
63.164307007081391
 30
0.0
 11
226.58539332279631
 21
107.22093133410731
 31
0.0
  0
LINE
  5
7E
  8
1
 10
209.08539332279631
 20
170.3330543572321
 30
0.0
 11
209.08539332279631
 21
26.649810361310301
 31
0.0
  0
ARC
  5
81
  8
0
 10
221.63930654054221
 20
133.6246083661303
 30
0.0
 40
8.9985493981200442
 50
275.2845731567192
 51
301.98566202763152
  0
LINE
  5
82
  8
0
 10
226.4059013984851
 20
135.33640138794519
 30
0.0
 11
226.4059013984851
 21
125.99221262621749
 31
0.0
  0
ARC
  5
83
  8
0
 10
221.55969360360979
 20
127.4679193605692
 30
0.0
 40
9.2411438364657741
 50
58.371033104596137
 51
84.358731711050623
  0
LINE
  5
84
  8
0
 10
221.6834534484899
 20
136.66430700708139
 30
0.0
 11
222.46809531063579
 21
136.66430700708139
 31
0.0
  0
ARC
  5
85
  8
0
 10
222.48674346211001
 20
127.7796203280426
 30
0.0
 40
8.9209266464124468
 50
95.166229276795974
 51
122.1040059075561
  0
LINE
  5
86
  8
0
 10
191.76488524710749
 20
135.33640138794519
 30
0.0
 11
191.76488524710749
 21
125.99221262621749
 31
0.0
  0
ARC
  5
87
  8
0
 10
196.61109304198351
 20
133.86069465359611
 30
0.0
 40
9.2411438364683374
 50
238.37103310460199
 51
264.35873171105072
  0
ARC
  5
88
  8
0
 10
195.56370378162771
 20
127.4227627152694
 30
0.0
 40
9.2875848418549207
 50
58.43713517958043
 51
84.292629636069947
  0
LINE
  5
89
  8
0
 10
195.702691334957
 20
136.66430700708139
 30
0.0
 11
196.4873331971024
 21
136.66430700708139
 31
0.0
  0
ARC
  5
8A
  8
0
 10
196.53148010505069
 20
127.7040056480319
 30
0.0
 40
8.9985493981205877
 50
95.284573156720043
 51
121.9856620276322
  0
LINE
  5
8B
  8
0
 10
200.42513928495191
 20
135.3364013879453
 30
0.0
 11
200.42513928495191
 21
125.99221262621749
 31
0.0
  0
LINE
  5
8C
  8
0
 10
208.30075146065039
 20
124.6643070070814
 30
0.0
 11
209.8700351849422
 21
124.6643070070814
 31
0.0
  0
LINE
  5
8D
  8
0
 10
217.7456473606407
 20
135.3364013879453
 30
0.0
 11
217.7456473606407
 21
125.99221262621749
 31
0.0
  0
LINE
  5
8E
  8
0
 10
208.30075146065039
 20
136.66430700708139
 30
0.0
 11
209.8700351849422
 21
136.66430700708139
 31
0.0
  0
ARC
  5
8F
  8
0
 10
209.5775581380945
 20
105.07325576967899
 30
0.0
 40
31.616842878057071
 50
92.314447809932616
 51
106.8267799506291
  0
ARC
  5
90
  8
0
 10
209.551069272185
 20
156.09825669157959
 30
0.0
 40
31.45880619790589
 50
253.13657028747889
 51
267.72220195196331
  0
ARC
  5
91
  8
0
 10
195.6840431834822
 20
133.54899368612141
 30
0.0
 40
8.9209266464136352
 50
275.166229276796
 51
302.10400590755472
  0
ARC
  5
92
  8
0
 10
208.59322850749811
 20
156.25535824448451
 30
0.0
 40
31.616842878057732
 50
272.31444780993178
 51
286.82677995062841
  0
ARC
  5
93
  8
0
 10
222.6070828639653
 20
133.90585129889391
 30
0.0
 40
9.2875848418554945
 50
238.43713517958051
 51
264.29262963606749
  0
LINE
  5
94
  8
0
 10
201.08539332279631
 20
124.6643070070814
 30
0.0
 11
200.07151513413629
 21
124.1643070070814
 31
0.0
  0
LINE
  5
95
  8
0
 10
218.09927151145621
 20
124.1643070070814
 30
0.0
 11
217.08539332279631
 21
124.6643070070814
 31
0.0
  0
LINE
  5
96
  8
0
 10
218.09927151145621
 20
108.6643070070814
 30
0.0
 11
200.07151513413629
 21
108.6643070070814
 31
0.0
  0
LINE
  5
97
  8
0
 10
226.58539332279631
 20
107.22093133410731
 30
0.0
 11
224.08539332279631
 21
108.6643070070814
 31
0.0
  0
LINE
  5
98
  8
0
 10
224.08539332279631
 20
108.6643070070814
 30
0.0
 11
224.10590139848509
 21
124.6643070070814
 31
0.0
  0
LINE
  5
99
  8
0
 10
224.08539332279631
 20
124.1643070070814
 30
0.0
 11
218.09927151145621
 21
124.1643070070814
 31
0.0
  0
LINE
  5
9A
  8
0
 10
218.09927151145621
 20
124.1643070070814
 30
0.0
 11
218.09927151145621
 21
108.6643070070814
 31
0.0
  0
POLYLINE
  5
9B
  8
0
 10
200.07151513413646
 20
108.66430700708143
 30
0.0
 66
     1
 70
     8
  0
VERTEX
  8
0
  5
5B7
 10
200.072
 20
108.664
 30
0.000000
  70
    32
  0
VERTEX
  8
0
  5
5B8
 10
200.199
 20
108.621
 30
0.000000
  70
    32
  0
VERTEX
  8
0
  5
5B9
 10
200.326
 20
108.578
 30
0.000000
  70
    32
  0
VERTEX
  8
0
  5
5BA
 10
200.455
 20
108.535
 30
0.000000
  70
    32
  0
VERTEX
  8
0
  5
5BB
 10
200.584
 20
108.493
 30
0.000000
  70
    32
  0
VERTEX
  8
0
  5
5BC
 10
200.713
 20
108.452
 30
0.000000
  70
    32
  0
VERTEX
  8
0
  5
5BD
 10
200.844
 20
108.412
 30
0.000000
  70
    32
  0
VERTEX
  8
0
  5
5BE
 10
200.975
 20
108.372
 30
0.000000
  70
    32
  0
VERTEX
  8
0
  5
5BF
 10
201.106
 20
108.332
 30
0.000000
  70
    32
  0
VERTEX
  8
0
  5
5C0
 10
201.238
 20
108.294
 30
0.000000
  70
    32
  0
VERTEX
  8
0
  5
5C1
 10
201.370
 20
108.256
 30
0.000000
  70
    32
  0
VERTEX
  8
0
  5
5C2
 10
201.503
 20
108.218
 30
0.000000
  70
    32
  0
VERTEX
  8
0
  5
5C3
 10
201.637
 20
108.182
 30
0.000000
  70
    32
  0
VERTEX
  8
0
  5
5C4
 10
201.771
 20
108.146
 30
0.000000
  70
    32
  0
VERTEX
  8
0
  5
5C5
 10
201.906
 20
108.110
 30
0.000000
  70
    32
  0
VERTEX
  8
0
  5
5C6
 10
202.041
 20
108.076
 30
0.000000
  70
    32
  0
VERTEX
  8
0
  5
5C7
 10
202.177
 20
108.042
 30
0.000000
  70
    32
  0
VERTEX
  8
0
  5
5C8
 10
202.313
 20
108.008
 30
0.000000
  70
    32
  0
VERTEX
  8
0
  5
5C9
 10
202.450
 20
107.975
 30
0.000000
  70
    32
  0
VERTEX
  8
0
  5
5CA
 10
202.587
 20
107.943
 30
0.000000
  70
    32
  0
VERTEX
  8
0
  5
5CB
 10
202.724
 20
107.912
 30
0.000000
  70
    32
  0
VERTEX
  8
0
  5
5CC
 10
202.862
 20
107.881
 30
0.000000
  70
    32
  0
VERTEX
  8
0
  5
5CD
 10
203.001
 20
107.851
 30
0.000000
  70
    32
  0
VERTEX
  8
0
  5
5CE
 10
203.140
 20
107.822
 30
0.000000
  70
    32
  0
VERTEX
  8
0
  5
5CF
 10
203.279
 20
107.793
 30
0.000000
  70
    32
  0
VERTEX
  8
0
  5
5D0
 10
203.419
 20
107.765
 30
0.000000
  70
    32
  0
VERTEX
  8
0
  5
5D1
 10
203.559
 20
107.738
 30
0.000000
  70
    32
  0
VERTEX
  8
0
  5
5D2
 10
203.700
 20
107.711
 30
0.000000
  70
    32
  0
VERTEX
  8
0
  5
5D3
 10
203.841
 20
107.685
 30
0.000000
  70
    32
  0
VERTEX
  8
0
  5
5D4
 10
203.982
 20
107.660
 30
0.000000
  70
    32
  0
VERTEX
  8
0
  5
5D5
 10
204.124
 20
107.636
 30
0.000000
  70
    32
  0
VERTEX
  8
0
  5
5D6
 10
204.266
 20
107.612
 30
0.000000
  70
    32
  0
VERTEX
  8
0
  5
5D7
 10
204.408
 20
107.588
 30
0.000000
  70
    32
  0
VERTEX
  8
0
  5
5D8
 10
204.551
 20
107.566
 30
0.000000
  70
    32
  0
VERTEX
  8
0
  5
5D9
 10
204.694
 20
107.544
 30
0.000000
  70
    32
  0
VERTEX
  8
0
  5
5DA
 10
204.838
 20
107.523
 30
0.000000
  70
    32
  0
VERTEX
  8
0
  5
5DB
 10
204.981
 20
107.503
 30
0.000000
  70
    32
  0
VERTEX
  8
0
  5
5DC
 10
205.125
 20
107.483
 30
0.000000
  70
    32
  0
VERTEX
  8
0
  5
5DD
 10
205.269
 20
107.464
 30
0.000000
  70
    32
  0
VERTEX
  8
0
  5
5DE
 10
205.414
 20
107.446
 30
0.000000
  70
    32
  0
VERTEX
  8
0
  5
5DF
 10
205.559
 20
107.428
 30
0.000000
  70
    32
  0
VERTEX
  8
0
  5
5E0
 10
205.704
 20
107.411
 30
0.000000
  70
    32
  0
VERTEX
  8
0
  5
5E1
 10
205.849
 20
107.395
 30
0.000000
  70
    32
  0
VERTEX
  8
0
  5
5E2
 10
205.995
 20
107.380
 30
0.000000
  70
    32
  0
VERTEX
  8
0
  5
5E3
 10
206.140
 20
107.365
 30
0.000000
  70
    32
  0
VERTEX
  8
0
  5
5E4
 10
206.286
 20
107.351
 30
0.000000
  70
    32
  0
VERTEX
  8
0
  5
5E5
 10
206.432
 20
107.338
 30
0.000000
  70
    32
  0
VERTEX
  8
0
  5
5E6
 10
206.579
 20
107.325
 30
0.000000
  70
    32
  0
VERTEX
  8
0
  5
5E7
 10
206.725
 20
107.313
 30
0.000000
  70
    32
  0
VERTEX
  8
0
  5
5E8
 10
206.872
 20
107.302
 30
0.000000
  70
    32
  0
VERTEX
  8
0
  5
5E9
 10
207.019
 20
107.292
 30
0.000000
  70
    32
  0
VERTEX
  8
0
  5
5EA
 10
207.166
 20
107.282
 30
0.000000
  70
    32
  0
VERTEX
  8
0
  5
5EB
 10
207.313
 20
107.273
 30
0.000000
  70
    32
  0
VERTEX
  8
0
  5
5EC
 10
207.460
 20
107.265
 30
0.000000
  70
    32
  0
VERTEX
  8
0
  5
5ED
 10
207.608
 20
107.257
 30
0.000000
  70
    32
  0
VERTEX
  8
0
  5
5EE
 10
207.755
 20
107.250
 30
0.000000
  70
    32
  0
VERTEX
  8
0
  5
5EF
 10
207.903
 20
107.244
 30
0.000000
  70
    32
  0
VERTEX
  8
0
  5
5F0
 10
208.050
 20
107.239
 30
0.000000
  70
    32
  0
VERTEX
  8
0
  5
5F1
 10
208.198
 20
107.234
 30
0.000000
  70
    32
  0
VERTEX
  8
0
  5
5F2
 10
208.346
 20
107.230
 30
0.000000
  70
    32
  0
VERTEX
  8
0
  5
5F3
 10
208.494
 20
107.227
 30
0.000000
  70
    32
  0
VERTEX
  8
0
  5
5F4
 10
208.642
 20
107.224
 30
0.000000
  70
    32
  0
VERTEX
  8
0
  5
5F5
 10
208.789
 20
107.222
 30
0.000000
  70
    32
  0
VERTEX
  8
0
  5
5F6
 10
208.937
 20
107.221
 30
0.000000
  70
    32
  0
VERTEX
  8
0
  5
5F7
 10
209.085
 20
107.221
 30
0.000000
  70
    32
  0
VERTEX
  8
0
  5
5F8
 10
209.233
 20
107.221
 30
0.000000
  70
    32
  0
VERTEX
  8
0
  5
5F9
 10
209.381
 20
107.222
 30
0.000000
  70
    32
  0
VERTEX
  8
0
  5
5FA
 10
209.529
 20
107.224
 30
0.000000
  70
    32
  0
VERTEX
  8
0
  5
5FB
 10
209.677
 20
107.227
 30
0.000000
  70
    32
  0
VERTEX
  8
0
  5
5FC
 10
209.825
 20
107.230
 30
0.000000
  70
    32
  0
VERTEX
  8
0
  5
5FD
 10
209.973
 20
107.234
 30
0.000000
  70
    32
  0
VERTEX
  8
0
  5
5FE
 10
210.120
 20
107.239
 30
0.000000
  70
    32
  0
VERTEX
  8
0
  5
5FF
 10
210.268
 20
107.244
 30
0.000000
  70
    32
  0
VERTEX
  8
0
  5
600
 10
210.416
 20
107.250
 30
0.000000
  70
    32
  0
VERTEX
  8
0
  5
601
 10
210.563
 20
107.257
 30
0.000000
  70
    32
  0
VERTEX
  8
0
  5
602
 10
210.711
 20
107.265
 30
0.000000
  70
    32
  0
VERTEX
  8
0
  5
603
 10
210.858
 20
107.273
 30
0.000000
  70
    32
  0
VERTEX
  8
0
  5
604
 10
211.005
 20
107.282
 30
0.000000
  70
    32
  0
VERTEX
  8
0
  5
605
 10
211.152
 20
107.292
 30
0.000000
  70
    32
  0
VERTEX
  8
0
  5
606
 10
211.299
 20
107.302
 30
0.000000
  70
    32
  0
VERTEX
  8
0
  5
607
 10
211.445
 20
107.313
 30
0.000000
  70
    32
  0
VERTEX
  8
0
  5
608
 10
211.592
 20
107.325
 30
0.000000
  70
    32
  0
VERTEX
  8
0
  5
609
 10
211.738
 20
107.338
 30
0.000000
  70
    32
  0
VERTEX
  8
0
  5
60A
 10
211.884
 20
107.351
 30
0.000000
  70
    32
  0
VERTEX
  8
0
  5
60B
 10
212.030
 20
107.365
 30
0.000000
  70
    32
  0
VERTEX
  8
0
  5
60C
 10
212.176
 20
107.380
 30
0.000000
  70
    32
  0
VERTEX
  8
0
  5
60D
 10
212.322
 20
107.395
 30
0.000000
  70
    32
  0
VERTEX
  8
0
  5
60E
 10
212.467
 20
107.411
 30
0.000000
  70
    32
  0
VERTEX
  8
0
  5
60F
 10
212.612
 20
107.428
 30
0.000000
  70
    32
  0
VERTEX
  8
0
  5
610
 10
212.757
 20
107.446
 30
0.000000
  70
    32
  0
VERTEX
  8
0
  5
611
 10
212.901
 20
107.464
 30
0.000000
  70
    32
  0
VERTEX
  8
0
  5
612
 10
213.046
 20
107.483
 30
0.000000
  70
    32
  0
VERTEX
  8
0
  5
613
 10
213.190
 20
107.503
 30
0.000000
  70
    32
  0
VERTEX
  8
0
  5
614
 10
213.333
 20
107.523
 30
0.000000
  70
    32
  0
VERTEX
  8
0
  5
615
 10
213.477
 20
107.544
 30
0.000000
  70
    32
  0
VERTEX
  8
0
  5
616
 10
213.620
 20
107.566
 30
0.000000
  70
    32
  0
VERTEX
  8
0
  5
617
 10
213.762
 20
107.588
 30
0.000000
  70
    32
  0
VERTEX
  8
0
  5
618
 10
213.905
 20
107.612
 30
0.000000
  70
    32
  0
VERTEX
  8
0
  5
619
 10
214.047
 20
107.636
 30
0.000000
  70
    32
  0
VERTEX
  8
0
  5
61A
 10
214.189
 20
107.660
 30
0.000000
  70
    32
  0
VERTEX
  8
0
  5
61B
 10
214.330
 20
107.685
 30
0.000000
  70
    32
  0
VERTEX
  8
0
  5
61C
 10
214.471
 20
107.711
 30
0.000000
  70
    32
  0
VERTEX
  8
0
  5
61D
 10
214.612
 20
107.738
 30
0.000000
  70
    32
  0
VERTEX
  8
0
  5
61E
 10
214.752
 20
107.765
 30
0.000000
  70
    32
  0
VERTEX
  8
0
  5
61F
 10
214.891
 20
107.793
 30
0.000000
  70
    32
  0
VERTEX
  8
0
  5
620
 10
215.031
 20
107.822
 30
0.000000
  70
    32
  0
VERTEX
  8
0
  5
621
 10
215.170
 20
107.851
 30
0.000000
  70
    32
  0
VERTEX
  8
0
  5
622
 10
215.308
 20
107.881
 30
0.000000
  70
    32
  0
VERTEX
  8
0
  5
623
 10
215.446
 20
107.912
 30
0.000000
  70
    32
  0
VERTEX
  8
0
  5
624
 10
215.584
 20
107.943
 30
0.000000
  70
    32
  0
VERTEX
  8
0
  5
625
 10
215.721
 20
107.975
 30
0.000000
  70
    32
  0
VERTEX
  8
0
  5
626
 10
215.858
 20
108.008
 30
0.000000
  70
    32
  0
VERTEX
  8
0
  5
627
 10
215.994
 20
108.042
 30
0.000000
  70
    32
  0
VERTEX
  8
0
  5
628
 10
216.130
 20
108.076
 30
0.000000
  70
    32
  0
VERTEX
  8
0
  5
629
 10
216.265
 20
108.110
 30
0.000000
  70
    32
  0
VERTEX
  8
0
  5
62A
 10
216.400
 20
108.146
 30
0.000000
  70
    32
  0
VERTEX
  8
0
  5
62B
 10
216.534
 20
108.182
 30
0.000000
  70
    32
  0
VERTEX
  8
0
  5
62C
 10
216.667
 20
108.218
 30
0.000000
  70
    32
  0
VERTEX
  8
0
  5
62D
 10
216.800
 20
108.256
 30
0.000000
  70
    32
  0
VERTEX
  8
0
  5
62E
 10
216.933
 20
108.294
 30
0.000000
  70
    32
  0
VERTEX
  8
0
  5
62F
 10
217.065
 20
108.332
 30
0.000000
  70
    32
  0
VERTEX
  8
0
  5
630
 10
217.196
 20
108.372
 30
0.000000
  70
    32
  0
VERTEX
  8
0
  5
631
 10
217.327
 20
108.412
 30
0.000000
  70
    32
  0
VERTEX
  8
0
  5
632
 10
217.457
 20
108.452
 30
0.000000
  70
    32
  0
VERTEX
  8
0
  5
633
 10
217.587
 20
108.493
 30
0.000000
  70
    32
  0
VERTEX
  8
0
  5
634
 10
217.716
 20
108.535
 30
0.000000
  70
    32
  0
VERTEX
  8
0
  5
635
 10
217.844
 20
108.578
 30
0.000000
  70
    32
  0
VERTEX
  8
0
  5
636
 10
217.972
 20
108.621
 30
0.000000
  70
    32
  0
VERTEX
  8
0
  5
637
 10
218.099
 20
108.664
 30
0.000000
  70
    32
  0
SEQEND
  8
0
  5
638
  0
LINE
  5
9C
  8
0
 10
200.07151513413629
 20
108.6643070070814
 30
0.0
 11
200.07151513413629
 21
124.1643070070814
 31
0.0
  0
LINE
  5
9D
  8
0
 10
200.07151513413629
 20
124.1643070070814
 30
0.0
 11
194.08539332279631
 21
124.1643070070814
 31
0.0
  0
LINE
  5
9E
  8
0
 10
194.08539332279639
 20
124.6643070070814
 30
0.0
 11
194.08539332279631
 21
108.6643070070814
 31
0.0
  0
LINE
  5
9F
  8
0
 10
194.08539332279631
 20
108.6643070070814
 30
0.0
 11
191.58539332279631
 21
107.22093133410731
 31
0.0
  0
ARC
  5
A0
  8
0
 10
222.6070828639651
 20
145.90585129889351
 30
0.0
 40
9.2875848418550842
 50
238.43713517958051
 51
264.2926296360684
  0
LINE
  5
A1
  8
0
 10
221.68345344849001
 20
136.66430700708139
 30
0.0
 11
222.46809531063579
 21
136.66430700708139
 31
0.0
  0
ARC
  5
A2
  8
0
 10
221.74684944756561
 20
145.3056978141461
 30
0.0
 40
8.6714376360219347
 50
274.77108203098919
 51
302.49915315336131
  0
LINE
  5
A3
  8
0
 10
226.4059013984851
 20
161.33640138794519
 30
0.0
 11
226.4059013984851
 21
137.99221262621751
 31
0.0
  0
ARC
  5
A4
  8
0
 10
221.55969360360959
 20
153.46791936056849
 30
0.0
 40
9.2411438364665006
 50
58.371033104596819
 51
84.358731711049813
  0
ARC
  5
A5
  8
0
 10
222.4867434621101
 20
153.77962032804231
 30
0.0
 40
8.9209266464127328
 50
95.166229276795974
 51
122.1040059075561
  0
LINE
  5
A6
  8
0
 10
208.3007514606503
 20
136.66430700708139
 30
0.0
 11
209.87003518494231
 21
136.66430700708139
 31
0.0
  0
ARC
  5
A7
  8
0
 10
208.593228507498
 20
168.25535824448451
 30
0.0
 40
31.616842878057749
 50
272.31444780993178
 51
286.82677995062841
  0
LINE
  5
A8
  8
0
 10
217.7456473606407
 20
161.3364013879453
 30
0.0
 11
217.7456473606407
 21
137.99221262621751
 31
0.0
  0
ARC
  5
A9
  8
0
 10
208.61971737340761
 20
131.23035732258359
 30
0.0
 40
31.45880619790556
 50
73.136570287477156
 51
87.722201951961665
  0
ARC
  5
AA
  8
0
 10
209.5775581380941
 20
131.0732557696814
 30
0.0
 40
31.61684287805468
 50
92.314447809931764
 51
106.8267799506299
  0
ARC
  5
AB
  8
0
 10
209.55106927218529
 20
168.09825669158059
 30
0.0
 40
31.458806197906949
 50
253.13657028747889
 51
267.72220195196252
  0
LINE
  5
AC
  8
0
 10
191.76488524710749
 20
161.33640138794519
 30
0.0
 11
191.76488524710749
 21
137.99221262621751
 31
0.0
  0
ARC
  5
AD
  8
0
 10
196.7243292402633
 20
146.19648824052351
 30
0.0
 40
9.5867733402195832
 50
238.84724589741089
 51
263.88251891824018
  0
LINE
  5
AE
  8
0
 10
195.70269133495691
 20
136.66430700708139
 30
0.0
 11
196.48733319710249
 21
136.66430700708139
 31
0.0
  0
ARC
  5
AF
  8
0
 10
195.68404318348229
 20
145.54899368612089
 30
0.0
 40
8.9209266464131627
 50
275.166229276796
 51
302.1040059075554
  0
LINE
  5
B0
  8
0
 10
200.42513928495191
 20
161.3364013879453
 30
0.0
 11
200.42513928495191
 21
137.99221262621751
 31
0.0
  0
ARC
  5
B1
  8
0
 10
195.56370378162771
 20
153.42276271526941
 30
0.0
 40
9.2875848418549296
 50
58.43713517958043
 51
84.292629636069137
  0
ARC
  5
B2
  8
0
 10
196.5314801050506
 20
153.70400564803211
 30
0.0
 40
8.9985493981205327
 50
95.284573156720043
 51
121.9856620276322
  0
LINE
  5
B3
  8
0
 10
226.4059013984851
 20
161.33640138794519
 30
0.0
 11
224.10590139848509
 21
162.66430700708139
 31
0.0
  0
LINE
  5
B4
  8
0
 10
224.10590139848509
 20
136.66430700708139
 30
0.0
 11
226.4059013984851
 21
137.99221262621751
 31
0.0
  0
LINE
  5
B5
  8
0
 10
194.0648852471075
 20
162.66430700708139
 30
0.0
 11
191.76488524710749
 21
161.33640138794519
 31
0.0
  0
LINE
  5
B6
  8
0
 10
191.76488524710749
 20
137.99221262621751
 30
0.0
 11
194.0648852471075
 21
136.66430700708139
 31
0.0
  0
LINE
  5
B7
  8
0
 10
132.8905039538009
 20
136.66430700708139
 30
0.0
 11
102.8905039538009
 21
136.6643070070804
 31
0.0
  0
ARC
  5
B8
  8
0
 10
124.9498538915601
 20
148.59766316603921
 30
0.0
 40
23.959555870660211
 50
272.67969945340423
 51
289.35492062790689
  0
ARC
  5
B9
  8
0
 10
124.8208233460294
 20
112.0682152815467
 30
0.0
 40
24.627793847469171
 50
70.872852578723467
 51
87.092527339970644
  0
ARC
  5
BA
  8
0
 10
125.85849434188169
 20
112.5905235852497
 30
0.0
 40
24.10111673428656
 50
92.729016952087207
 51
109.30560312921889
  0
ARC
  5
BB
  8
0
 10
125.94385707865329
 20
149.1765363913496
 30
0.0
 40
24.543214235304259
 50
250.84471572458401
 51
267.12066419411082
  0
ARC
  5
BC
  8
0
 10
110.96018456157221
 20
149.26039873261601
 30
0.0
 40
24.627793847469128
 50
250.8728525787233
 51
267.09252733997067
  0
ARC
  5
BD
  8
0
 10
109.9225135657201
 20
148.7380904289131
 30
0.0
 40
24.10111673428657
 50
272.72901695208719
 51
289.30560312921898
  0
LINE
  5
BE
  8
0
 10
117.8905039538009
 20
135.33640138794519
 30
0.0
 11
117.8905039538009
 21
125.99221262621749
 31
0.0
  0
ARC
  5
BF
  8
0
 10
109.83715082894901
 20
112.1520776228159
 30
0.0
 40
24.54321423530148
 50
70.844715724583892
 51
87.120664194110773
  0
ARC
  5
C0
  8
0
 10
110.8311540160414
 20
112.7309508481254
 30
0.0
 40
23.959555870658399
 50
92.679699453400886
 51
109.35492062790691
  0
LINE
  5
C1
  8
0
 10
102.8905039538009
 20
124.6643070070814
 30
0.0
 11
132.8905039538009
 21
124.6643070070814
 31
0.0
  0
LINE
  5
C2
  8
0
 10
109.8905039538009
 20
124.6643070070814
 30
0.0
 11
108.8766257651409
 21
124.1643070070814
 31
0.0
  0
LINE
  5
C3
  8
0
 10
126.9043821424608
 20
124.1643070070814
 30
0.0
 11
125.8905039538009
 21
124.6643070070814
 31
0.0
  0
LINE
  5
C4
  8
0
 10
108.8766257651409
 20
108.6643070070814
 30
0.0
 11
126.9043821424608
 21
108.6643070070814
 31
0.0
  0
LINE
  5
C5
  8
0
 10
108.8766257651409
 20
108.6643070070814
 30
0.0
 11
108.8766257651409
 21
124.1643070070814
 31
0.0
  0
LINE
  5
C6
  8
0
 10
108.8766257651409
 20
124.1643070070814
 30
0.0
 11
102.8905039538008
 21
124.1643070070814
 31
0.0
  0
LINE
  5
C7
  8
0
 10
102.8905039538009
 20
124.6643070070814
 30
0.0
 11
102.8905039538008
 21
108.6643070070814
 31
0.0
  0
LINE
  5
C8
  8
0
 10
102.8905039538008
 20
108.6643070070814
 30
0.0
 11
100.3905039538008
 21
107.22093133410731
 31
0.0
  0
LINE
  5
C9
  8
0
 10
135.3905039538009
 20
107.22093133410731
 30
0.0
 11
132.8905039538009
 21
108.6643070070814
 31
0.0
  0
LINE
  5
CA
  8
0
 10
132.8905039538009
 20
108.6643070070814
 30
0.0
 11
132.8905039538009
 21
124.6643070070814
 31
0.0
  0
LINE
  5
CB
  8
0
 10
132.8905039538009
 20
124.1643070070814
 30
0.0
 11
126.9043821424608
 21
124.1643070070814
 31
0.0
  0
LINE
  5
CC
  8
0
 10
126.9043821424608
 20
124.1643070070814
 30
0.0
 11
126.9043821424608
 21
108.6643070070814
 31
0.0
  0
POLYLINE
  5
CD
  8
0
 10
108.87662576514101
 20
108.66430700708136
 30
0.0
 66
     1
 70
     8
  0
VERTEX
  8
0
  5
639
 10
108.877
 20
108.664
 30
0.000000
  70
    32
  0
VERTEX
  8
0
  5
63A
 10
109.004
 20
108.621
 30
0.000000
  70
    32
  0
VERTEX
  8
0
  5
63B
 10
109.132
 20
108.578
 30
0.000000
  70
    32
  0
VERTEX
  8
0
  5
63C
 10
109.260
 20
108.535
 30
0.000000
  70
    32
  0
VERTEX
  8
0
  5
63D
 10
109.389
 20
108.493
 30
0.000000
  70
    32
  0
VERTEX
  8
0
  5
63E
 10
109.519
 20
108.452
 30
0.000000
  70
    32
  0
VERTEX
  8
0
  5
63F
 10
109.649
 20
108.412
 30
0.000000
  70
    32
  0
VERTEX
  8
0
  5
640
 10
109.780
 20
108.372
 30
0.000000
  70
    32
  0
VERTEX
  8
0
  5
641
 10
109.911
 20
108.332
 30
0.000000
  70
    32
  0
VERTEX
  8
0
  5
642
 10
110.043
 20
108.294
 30
0.000000
  70
    32
  0
VERTEX
  8
0
  5
643
 10
110.176
 20
108.256
 30
0.000000
  70
    32
  0
VERTEX
  8
0
  5
644
 10
110.309
 20
108.218
 30
0.000000
  70
    32
  0
VERTEX
  8
0
  5
645
 10
110.442
 20
108.182
 30
0.000000
  70
    32
  0
VERTEX
  8
0
  5
646
 10
110.576
 20
108.146
 30
0.000000
  70
    32
  0
VERTEX
  8
0
  5
647
 10
110.711
 20
108.110
 30
0.000000
  70
    32
  0
VERTEX
  8
0
  5
648
 10
110.846
 20
108.076
 30
0.000000
  70
    32
  0
VERTEX
  8
0
  5
649
 10
110.982
 20
108.042
 30
0.000000
  70
    32
  0
VERTEX
  8
0
  5
64A
 10
111.118
 20
108.008
 30
0.000000
  70
    32
  0
VERTEX
  8
0
  5
64B
 10
111.255
 20
107.975
 30
0.000000
  70
    32
  0
VERTEX
  8
0
  5
64C
 10
111.392
 20
107.943
 30
0.000000
  70
    32
  0
VERTEX
  8
0
  5
64D
 10
111.530
 20
107.912
 30
0.000000
  70
    32
  0
VERTEX
  8
0
  5
64E
 10
111.668
 20
107.881
 30
0.000000
  70
    32
  0
VERTEX
  8
0
  5
64F
 10
111.806
 20
107.851
 30
0.000000
  70
    32
  0
VERTEX
  8
0
  5
650
 10
111.945
 20
107.822
 30
0.000000
  70
    32
  0
VERTEX
  8
0
  5
651
 10
112.084
 20
107.793
 30
0.000000
  70
    32
  0
VERTEX
  8
0
  5
652
 10
112.224
 20
107.765
 30
0.000000
  70
    32
  0
VERTEX
  8
0
  5
653
 10
112.364
 20
107.738
 30
0.000000
  70
    32
  0
VERTEX
  8
0
  5
654
 10
112.505
 20
107.711
 30
0.000000
  70
    32
  0
VERTEX
  8
0
  5
655
 10
112.646
 20
107.685
 30
0.000000
  70
    32
  0
VERTEX
  8
0
  5
656
 10
112.787
 20
107.660
 30
0.000000
  70
    32
  0
VERTEX
  8
0
  5
657
 10
112.929
 20
107.636
 30
0.000000
  70
    32
  0
VERTEX
  8
0
  5
658
 10
113.071
 20
107.612
 30
0.000000
  70
    32
  0
VERTEX
  8
0
  5
659
 10
113.213
 20
107.588
 30
0.000000
  70
    32
  0
VERTEX
  8
0
  5
65A
 10
113.356
 20
107.566
 30
0.000000
  70
    32
  0
VERTEX
  8
0
  5
65B
 10
113.499
 20
107.544
 30
0.000000
  70
    32
  0
VERTEX
  8
0
  5
65C
 10
113.643
 20
107.523
 30
0.000000
  70
    32
  0
VERTEX
  8
0
  5
65D
 10
113.786
 20
107.503
 30
0.000000
  70
    32
  0
VERTEX
  8
0
  5
65E
 10
113.930
 20
107.483
 30
0.000000
  70
    32
  0
VERTEX
  8
0
  5
65F
 10
114.075
 20
107.464
 30
0.000000
  70
    32
  0
VERTEX
  8
0
  5
660
 10
114.219
 20
107.446
 30
0.000000
  70
    32
  0
VERTEX
  8
0
  5
661
 10
114.364
 20
107.428
 30
0.000000
  70
    32
  0
VERTEX
  8
0
  5
662
 10
114.509
 20
107.411
 30
0.000000
  70
    32
  0
VERTEX
  8
0
  5
663
 10
114.654
 20
107.395
 30
0.000000
  70
    32
  0
VERTEX
  8
0
  5
664
 10
114.800
 20
107.380
 30
0.000000
  70
    32
  0
VERTEX
  8
0
  5
665
 10
114.945
 20
107.365
 30
0.000000
  70
    32
  0
VERTEX
  8
0
  5
666
 10
115.091
 20
107.351
 30
0.000000
  70
    32
  0
VERTEX
  8
0
  5
667
 10
115.238
 20
107.338
 30
0.000000
  70
    32
  0
VERTEX
  8
0
  5
668
 10
115.384
 20
107.325
 30
0.000000
  70
    32
  0
VERTEX
  8
0
  5
669
 10
115.530
 20
107.313
 30
0.000000
  70
    32
  0
VERTEX
  8
0
  5
66A
 10
115.677
 20
107.302
 30
0.000000
  70
    32
  0
VERTEX
  8
0
  5
66B
 10
115.824
 20
107.292
 30
0.000000
  70
    32
  0
VERTEX
  8
0
  5
66C
 10
115.971
 20
107.282
 30
0.000000
  70
    32
  0
VERTEX
  8
0
  5
66D
 10
116.118
 20
107.273
 30
0.000000
  70
    32
  0
VERTEX
  8
0
  5
66E
 10
116.265
 20
107.265
 30
0.000000
  70
    32
  0
VERTEX
  8
0
  5
66F
 10
116.413
 20
107.257
 30
0.000000
  70
    32
  0
VERTEX
  8
0
  5
670
 10
116.560
 20
107.250
 30
0.000000
  70
    32
  0
VERTEX
  8
0
  5
671
 10
116.708
 20
107.244
 30
0.000000
  70
    32
  0
VERTEX
  8
0
  5
672
 10
116.855
 20
107.239
 30
0.000000
  70
    32
  0
VERTEX
  8
0
  5
673
 10
117.003
 20
107.234
 30
0.000000
  70
    32
  0
VERTEX
  8
0
  5
674
 10
117.151
 20
107.230
 30
0.000000
  70
    32
  0
VERTEX
  8
0
  5
675
 10
117.299
 20
107.227
 30
0.000000
  70
    32
  0
VERTEX
  8
0
  5
676
 10
117.447
 20
107.224
 30
0.000000
  70
    32
  0
VERTEX
  8
0
  5
677
 10
117.595
 20
107.222
 30
0.000000
  70
    32
  0
VERTEX
  8
0
  5
678
 10
117.743
 20
107.221
 30
0.000000
  70
    32
  0
VERTEX
  8
0
  5
679
 10
117.891
 20
107.221
 30
0.000000
  70
    32
  0
VERTEX
  8
0
  5
67A
 10
118.038
 20
107.221
 30
0.000000
  70
    32
  0
VERTEX
  8
0
  5
67B
 10
118.186
 20
107.222
 30
0.000000
  70
    32
  0
VERTEX
  8
0
  5
67C
 10
118.334
 20
107.224
 30
0.000000
  70
    32
  0
VERTEX
  8
0
  5
67D
 10
118.482
 20
107.227
 30
0.000000
  70
    32
  0
VERTEX
  8
0
  5
67E
 10
118.630
 20
107.230
 30
0.000000
  70
    32
  0
VERTEX
  8
0
  5
67F
 10
118.778
 20
107.234
 30
0.000000
  70
    32
  0
VERTEX
  8
0
  5
680
 10
118.926
 20
107.239
 30
0.000000
  70
    32
  0
VERTEX
  8
0
  5
681
 10
119.073
 20
107.244
 30
0.000000
  70
    32
  0
VERTEX
  8
0
  5
682
 10
119.221
 20
107.250
 30
0.000000
  70
    32
  0
VERTEX
  8
0
  5
683
 10
119.368
 20
107.257
 30
0.000000
  70
    32
  0
VERTEX
  8
0
  5
684
 10
119.516
 20
107.265
 30
0.000000
  70
    32
  0
VERTEX
  8
0
  5
685
 10
119.663
 20
107.273
 30
0.000000
  70
    32
  0
VERTEX
  8
0
  5
686
 10
119.810
 20
107.282
 30
0.000000
  70
    32
  0
VERTEX
  8
0
  5
687
 10
119.957
 20
107.292
 30
0.000000
  70
    32
  0
VERTEX
  8
0
  5
688
 10
120.104
 20
107.302
 30
0.000000
  70
    32
  0
VERTEX
  8
0
  5
689
 10
120.251
 20
107.313
 30
0.000000
  70
    32
  0
VERTEX
  8
0
  5
68A
 10
120.397
 20
107.325
 30
0.000000
  70
    32
  0
VERTEX
  8
0
  5
68B
 10
120.543
 20
107.338
 30
0.000000
  70
    32
  0
VERTEX
  8
0
  5
68C
 10
120.690
 20
107.351
 30
0.000000
  70
    32
  0
VERTEX
  8
0
  5
68D
 10
120.836
 20
107.365
 30
0.000000
  70
    32
  0
VERTEX
  8
0
  5
68E
 10
120.981
 20
107.380
 30
0.000000
  70
    32
  0
VERTEX
  8
0
  5
68F
 10
121.127
 20
107.395
 30
0.000000
  70
    32
  0
VERTEX
  8
0
  5
690
 10
121.272
 20
107.411
 30
0.000000
  70
    32
  0
VERTEX
  8
0
  5
691
 10
121.417
 20
107.428
 30
0.000000
  70
    32
  0
VERTEX
  8
0
  5
692
 10
121.562
 20
107.446
 30
0.000000
  70
    32
  0
VERTEX
  8
0
  5
693
 10
121.706
 20
107.464
 30
0.000000
  70
    32
  0
VERTEX
  8
0
  5
694
 10
121.851
 20
107.483
 30
0.000000
  70
    32
  0
VERTEX
  8
0
  5
695
 10
121.995
 20
107.503
 30
0.000000
  70
    32
  0
VERTEX
  8
0
  5
696
 10
122.138
 20
107.523
 30
0.000000
  70
    32
  0
VERTEX
  8
0
  5
697
 10
122.282
 20
107.544
 30
0.000000
  70
    32
  0
VERTEX
  8
0
  5
698
 10
122.425
 20
107.566
 30
0.000000
  70
    32
  0
VERTEX
  8
0
  5
699
 10
122.568
 20
107.588
 30
0.000000
  70
    32
  0
VERTEX
  8
0
  5
69A
 10
122.710
 20
107.612
 30
0.000000
  70
    32
  0
VERTEX
  8
0
  5
69B
 10
122.852
 20
107.636
 30
0.000000
  70
    32
  0
VERTEX
  8
0
  5
69C
 10
122.994
 20
107.660
 30
0.000000
  70
    32
  0
VERTEX
  8
0
  5
69D
 10
123.135
 20
107.685
 30
0.000000
  70
    32
  0
VERTEX
  8
0
  5
69E
 10
123.276
 20
107.711
 30
0.000000
  70
    32
  0
VERTEX
  8
0
  5
69F
 10
123.417
 20
107.738
 30
0.000000
  70
    32
  0
VERTEX
  8
0
  5
6A0
 10
123.557
 20
107.765
 30
0.000000
  70
    32
  0
VERTEX
  8
0
  5
6A1
 10
123.697
 20
107.793
 30
0.000000
  70
    32
  0
VERTEX
  8
0
  5
6A2
 10
123.836
 20
107.822
 30
0.000000
  70
    32
  0
VERTEX
  8
0
  5
6A3
 10
123.975
 20
107.851
 30
0.000000
  70
    32
  0
VERTEX
  8
0
  5
6A4
 10
124.113
 20
107.881
 30
0.000000
  70
    32
  0
VERTEX
  8
0
  5
6A5
 10
124.251
 20
107.912
 30
0.000000
  70
    32
  0
VERTEX
  8
0
  5
6A6
 10
124.389
 20
107.943
 30
0.000000
  70
    32
  0
VERTEX
  8
0
  5
6A7
 10
124.526
 20
107.975
 30
0.000000
  70
    32
  0
VERTEX
  8
0
  5
6A8
 10
124.663
 20
108.008
 30
0.000000
  70
    32
  0
VERTEX
  8
0
  5
6A9
 10
124.799
 20
108.042
 30
0.000000
  70
    32
  0
VERTEX
  8
0
  5
6AA
 10
124.935
 20
108.076
 30
0.000000
  70
    32
  0
VERTEX
  8
0
  5
6AB
 10
125.070
 20
108.110
 30
0.000000
  70
    32
  0
VERTEX
  8
0
  5
6AC
 10
125.205
 20
108.146
 30
0.000000
  70
    32
  0
VERTEX
  8
0
  5
6AD
 10
125.339
 20
108.182
 30
0.000000
  70
    32
  0
VERTEX
  8
0
  5
6AE
 10
125.472
 20
108.218
 30
0.000000
  70
    32
  0
VERTEX
  8
0
  5
6AF
 10
125.605
 20
108.256
 30
0.000000
  70
    32
  0
VERTEX
  8
0
  5
6B0
 10
125.738
 20
108.294
 30
0.000000
  70
    32
  0
VERTEX
  8
0
  5
6B1
 10
125.870
 20
108.332
 30
0.000000
  70
    32
  0
VERTEX
  8
0
  5
6B2
 10
126.001
 20
108.372
 30
0.000000
  70
    32
  0
VERTEX
  8
0
  5
6B3
 10
126.132
 20
108.412
 30
0.000000
  70
    32
  0
VERTEX
  8
0
  5
6B4
 10
126.262
 20
108.452
 30
0.000000
  70
    32
  0
VERTEX
  8
0
  5
6B5
 10
126.392
 20
108.493
 30
0.000000
  70
    32
  0
VERTEX
  8
0
  5
6B6
 10
126.521
 20
108.535
 30
0.000000
  70
    32
  0
VERTEX
  8
0
  5
6B7
 10
126.649
 20
108.578
 30
0.000000
  70
    32
  0
VERTEX
  8
0
  5
6B8
 10
126.777
 20
108.621
 30
0.000000
  70
    32
  0
VERTEX
  8
0
  5
6B9
 10
126.904
 20
108.664
 30
0.000000
  70
    32
  0
SEQEND
  8
0
  5
6BA
  0
ARC
  5
CE
  8
0
 10
124.9498538915601
 20
160.59766316603779
 30
0.0
 40
23.959555870658878
 50
272.67969945340423
 51
289.35492062790718
  0
ARC
  5
CF
  8
0
 10
124.820823346029
 20
138.06821528154339
 30
0.0
 40
24.627793847472589
 50
70.872852578726679
 51
87.092527339967404
  0
ARC
  5
D0
  8
0
 10
125.85849434188241
 20
138.59052358524539
 30
0.0
 40
24.101116734290969
 50
92.729016952087207
 51
109.3056031292186
  0
ARC
  5
D1
  8
0
 10
110.9601845615727
 20
161.2603987326176
 30
0.0
 40
24.627793847470809
 50
250.8728525787233
 51
267.09252733996738
  0
LINE
  5
D2
  8
0
 10
117.8905039538009
 20
161.3364013879453
 30
0.0
 11
117.8905039538009
 21
137.99221262621751
 31
0.0
  0
ARC
  5
D3
  8
0
 10
109.83715082894889
 20
138.15207762281449
 30
0.0
 40
24.543214235302909
 50
70.844715724583892
 51
87.120664194110773
  0
ARC
  5
D4
  8
0
 10
110.8311540160413
 20
138.73095084812459
 30
0.0
 40
23.959555870659251
 50
92.679699453400886
 51
109.35492062790691
  0
ARC
  5
D5
  8
0
 10
125.9438570786528
 20
161.17653639134639
 30
0.0
 40
24.543214235301029
 50
250.84471572458369
 51
267.12066419411082
  0
ARC
  5
D6
  8
0
 10
109.9225135657195
 20
160.7380904289148
 30
0.0
 40
24.101116734288311
 50
272.72901695208719
 51
289.30560312921898
  0
LINE
  5
D7
  8
0
 10
100.3905039538008
 20
107.22093133410731
 30
0.0
 11
100.3905039538008
 21
63.164307007081391
 31
0.0
  0
LINE
  5
D8
  8
0
 10
135.3905039538009
 20
63.164307007081391
 30
0.0
 11
135.3905039538009
 21
107.22093133410731
 31
0.0
  0
LINE
  5
D9
  8
0
 10
224.10590139848509
 20
162.66430700708139
 30
0.0
 11
194.0648852471075
 21
162.66430700708139
 31
0.0
  0
LINE
  5
DA
  8
0
 10
194.0648852471075
 20
136.66430700708139
 30
0.0
 11
224.10590139848509
 21
136.66430700708139
 31
0.0
  0
ARC
  5
DB
  8
0
 10
208.59322850749811
 20
105.07325576967899
 30
0.0
 40
31.616842878057071
 50
73.173220049370883
 51
87.685552190067398
  0
LINE
  5
DC
  8
0
 10
224.10590139848509
 20
124.6643070070814
 30
0.0
 11
194.0648852471075
 21
124.6643070070814
 31
0.0
  0
CIRCLE
  5
DD
  8
0
 10
117.890503953801
 20
229.4248614392763
 30
0.0
 40
17.500000000000011
  0
CIRCLE
  5
DE
  8
0
 10
117.890503953801
 20
229.4248614392763
 30
0.0
 40
15.02050807568877
  0
LINE
  5
DF
  8
0
 10
132.89050395380099
 20
238.08511547712081
 30
0.0
 11
132.89050395380099
 21
220.6745802901165
 31
0.0
  0
LINE
  5
E0
  8
0
 10
102.890503953801
 20
238.08511547712081
 30
0.0
 11
102.890503953801
 21
220.6745802901165
 31
0.0
  0
LINE
  5
E1
  8
0
 10
132.89050395380099
 20
238.08511547712089
 30
0.0
 11
117.7660997637921
 21
246.70944927140059
 31
0.0
  0
LINE
  5
E2
  8
0
 10
102.7674016876916
 20
237.8683072908704
 30
0.0
 11
117.7660997637921
 21
246.70944927140059
 31
0.0
  0
LINE
  5
E3
  8
0
 10
102.7674016876916
 20
220.98141558768231
 30
0.0
 11
117.7660997637921
 21
212.1402736071521
 31
0.0
  0
LINE
  5
E4
  8
0
 10
132.89050395380099
 20
220.7646074014319
 30
0.0
 11
117.7660997637921
 21
212.1402736071521
 31
0.0
  0
ARC
  5
E5
  8
0
 10
117.890503953801
 20
229.4248614392763
 30
0.0
 40
17.0
 50
298.0724869358545
 51
327.88155565409818
  0
LINE
  5
E6
  8
0
 10
125.890503953801
 20
214.4248614392763
 30
0.0
 11
121.9097418402677
 21
214.4248614392763
 31
0.0
  0
LINE
  5
E7
  8
0
 10
126.904382142461
 20
214.4248614392763
 30
0.0
 11
125.890503953801
 21
214.4248614392763
 31
0.0
  0
LINE
  5
E8
  8
0
 10
113.8712660673342
 20
214.4248614392763
 30
0.0
 11
109.890503953801
 21
214.4248614392763
 31
0.0
  0
ARC
  5
E9
  8
0
 10
117.890503953801
 20
229.4248614392763
 30
0.0
 40
17.000000000000011
 50
212.35972499507389
 51
241.9275130641455
  0
LINE
  5
EA
  8
0
 10
109.890503953801
 20
214.4248614392763
 30
0.0
 11
108.876625765141
 21
214.4248614392763
 31
0.0
  0
ARC
  5
EB
  8
0
 10
117.890503953801
 20
229.4248614392763
 30
0.0
 40
17.000000000000011
 50
118.0724869358545
 51
147.88155565409829
  0
LINE
  5
EC
  8
0
 10
109.890503953801
 20
244.42486143927641
 30
0.0
 11
113.8712660673341
 21
244.42486143927641
 31
0.0
  0
LINE
  5
ED
  8
0
 10
108.876625765141
 20
244.42486143927641
 30
0.0
 11
109.890503953801
 21
244.42486143927641
 31
0.0
  0
ARC
  5
EE
  8
0
 10
117.890503953801
 20
229.4248614392763
 30
0.0
 40
16.999999999999979
 50
32.359724995074643
 51
61.927513064148748
  0
LINE
  5
EF
  8
0
 10
125.8905039538009
 20
244.42486143927641
 30
0.0
 11
126.904382142461
 21
244.42486143927641
 31
0.0
  0
LINE
  5
F0
  8
0
 10
121.9097418402679
 20
244.42486143927641
 30
0.0
 11
125.8905039538009
 21
244.42486143927641
 31
0.0
  0
CIRCLE
  5
F1
  8
0
 10
117.890503953801
 20
229.4248614392763
 30
0.0
 40
9.0
  0
CIRCLE
  5
F2
  8
0
 10
117.890503953801
 20
229.4248614392763
 30
0.0
 40
6.999999999999992
  0
CIRCLE
  5
F3
  8
3
 10
117.890503953801
 20
229.4248614392763
 30
0.0
 40
8.0000003799796104
  0
LINE
  5
F5
  8
1
 10
139.17859810429479
 20
229.4248614392763
 30
0.0
 11
96.602409803307125
 21
229.4248614392763
 31
0.0
  0
LINE
  5
F6
  8
1
 10
117.890503953801
 20
250.71295558977019
 30
0.0
 11
117.8905039538009
 21
208.13676728878249
 31
0.0
  0
LINE
  5
106
  8
0
 10
102.8905039538009
 20
162.66430700708139
 30
0.0
 11
132.8905039538009
 21
162.66430700708139
 31
0.0
  0
LINE
  5
107
  8
0
 10
102.8905039538009
 20
136.6643070070804
 30
0.0
 11
102.8905039538009
 21
124.6643070070814
 31
0.0
  0
LINE
  5
108
  8
0
 10
132.8905039538009
 20
136.66430700708139
 30
0.0
 11
132.8905039538009
 21
124.6643070070814
 31
0.0
  0
LINE
  5
109
  8
0
 10
132.8905039538009
 20
162.66430700708139
 30
0.0
 11
132.8905039538009
 21
136.66430700708139
 31
0.0
  0
LINE
  5
10A
  8
0
 10
102.8905039538009
 20
162.66430700708139
 30
0.0
 11
102.8905039538009
 21
136.6643070070804
 31
0.0
  0
LINE
  5
118
  8
1
 10
117.890503953801
 20
170.3330543572321
 30
0.0
 11
117.8905039538009
 21
26.649810361310301
 31
0.0
  0
LINE
  5
2F3
  8
0
 10
209.08539332279631
 20
35.664307007081419
 30
0.0
 11
219.08539332279631
 21
35.664307007081419
 31
0.0
  0
LINE
  5
2F4
  8
0
 10
199.08539332279631
 20
35.664307007081419
 30
0.0
 11
209.08539332279631
 21
35.664307007081419
 31
0.0
  0
LINE
  5
2F5
  8
0
 10
209.08539332279631
 20
33.164307007081419
 30
0.0
 11
216.58539332279639
 21
33.164307007081419
 31
0.0
  0
LINE
  5
2F6
  8
0
 10
201.58539332279631
 20
33.164307007081419
 30
0.0
 11
209.08539332279631
 21
33.164307007081419
 31
0.0
  0
LINE
  5
2F7
  8
0
 10
100.3905039538008
 20
63.164307007080822
 30
0.0
 11
100.8905039538008
 21
62.664307007080851
 31
0.0
  0
LINE
  5
2F8
  8
0
 10
134.89050395380079
 20
62.664307007080851
 30
0.0
 11
135.3905039538009
 21
63.164307007080822
 31
0.0
  0
LINE
  5
2F9
  8
0
 10
107.8905039538008
 20
35.664307007080822
 30
0.0
 11
110.3905039538007
 21
33.164307007080822
 31
0.0
  0
LINE
  5
2FA
  8
0
 10
125.3905039538008
 20
33.164307007080822
 30
0.0
 11
127.8905039538009
 21
35.664307007080822
 31
0.0
  0
LINE
  5
2FB
  8
0
 10
107.8905039538008
 20
62.664307007080851
 30
0.0
 11
107.8905039538008
 21
35.664307007080822
 31
0.0
  0
LINE
  5
2FC
  8
0
 10
127.8905039538009
 20
35.664307007080822
 30
0.0
 11
127.8905039538009
 21
62.664307007080851
 31
0.0
  0
LINE
  5
2FD
  8
0
 10
100.3905039538008
 20
63.164307007080822
 30
0.0
 11
135.3905039538009
 21
63.164307007080822
 31
0.0
  0
LINE
  5
2FE
  8
0
 10
134.89050395380079
 20
62.664307007080851
 30
0.0
 11
100.8905039538008
 21
62.664307007080851
 31
0.0
  0
LINE
  5
2FF
  8
0
 10
107.8905039538008
 20
35.664307007080822
 30
0.0
 11
127.8905039538009
 21
35.664307007080822
 31
0.0
  0
LINE
  5
300
  8
0
 10
110.3905039538007
 20
33.164307007080822
 30
0.0
 11
125.3905039538008
 21
33.164307007080822
 31
0.0
  0
LINE
  5
301
  8
0
 10
191.58539332279631
 20
63.164307007081391
 30
0.0
 11
192.08539332279631
 21
62.664307007081391
 31
0.0
  0
LINE
  5
302
  8
0
 10
226.08539332279631
 20
62.664307007081391
 30
0.0
 11
226.58539332279631
 21
63.164307007081391
 31
0.0
  0
LINE
  5
303
  8
0
 10
199.08539332279631
 20
35.664307007081419
 30
0.0
 11
201.58539332279631
 21
33.164307007081419
 31
0.0
  0
LINE
  5
304
  8
0
 10
216.58539332279639
 20
33.164307007081419
 30
0.0
 11
219.08539332279631
 21
35.664307007081419
 31
0.0
  0
LINE
  5
305
  8
0
 10
199.08539332279631
 20
62.664307007081391
 30
0.0
 11
199.08539332279631
 21
35.664307007081419
 31
0.0
  0
LINE
  5
306
  8
0
 10
219.08539332279631
 20
35.664307007081419
 30
0.0
 11
219.08539332279631
 21
62.664307007081391
 31
0.0
  0
LINE
  5
307
  8
0
 10
209.08539332279631
 20
63.164307007081391
 30
0.0
 11
226.58539332279631
 21
63.164307007081391
 31
0.0
  0
LINE
  5
308
  8
0
 10
191.58539332279631
 20
63.164307007081391
 30
0.0
 11
209.08539332279631
 21
63.164307007081391
 31
0.0
  0
LINE
  5
309
  8
0
 10
209.08539332279631
 20
62.664307007081391
 30
0.0
 11
192.08539332279631
 21
62.664307007081391
 31
0.0
  0
LINE
  5
30A
  8
0
 10
226.08539332279631
 20
62.664307007081391
 30
0.0
 11
209.08539332279631
 21
62.664307007081391
 31
0.0
  0
LINE
  5
493
  8
3
 10
109.140503916548
 20
62.664307007080851
 30
0.0
 11
109.1405039165479
 21
34.414305814987927
 31
0.0
  0
LINE
  5
494
  8
3
 10
126.64050399105371
 20
34.414305814987927
 30
0.0
 11
126.64050399105381
 21
62.664307007080851
 31
0.0
  0
LINE
  5
495
  8
3
 10
217.8353933600491
 20
34.414305814987898
 30
0.0
 11
217.83539336004921
 21
62.664307007080829
 31
0.0
  0
LINE
  5
496
  8
3
 10
200.33539328554329
 20
62.664307007080829
 30
0.0
 11
200.33539328554329
 21
34.414305814987898
 31
0.0
  0
TEXT
  5
4F1
  8
0
 62
     3
 10
0.0
 20
0.0
 30
0.0
 40
10.0
  1
BJ333-20100
  7
STANDARD1
  0
LINE
  5
53F
  8
3
 10
108.8766257651409
 20
124.1643070070814
 30
0.0
 11
126.9043821424608
 21
108.6643070070814
 31
0.0
  0
LINE
  5
540
  8
3
 10
108.8766257651411
 20
108.66430700708131
 30
0.0
 11
126.9043821424608
 21
124.1643070070814
 31
0.0
  0
LINE
  5
541
  8
3
 10
200.07151513413629
 20
124.1643070070814
 30
0.0
 11
218.09927151145621
 21
108.6643070070814
 31
0.0
  0
LINE
  5
542
  8
3
 10
218.09927151145621
 20
124.1643070070814
 30
0.0
 11
200.07151513413629
 21
108.6643070070814
 31
0.0
  0
ENDSEC
  0
EOF
