  0
SECTION
  2
HEADER
  9
$ACADVER
  1
AC1009
  9
$INSBASE
 10
0.0
 20
0.0
 30
0.0
  9
$EXTMIN
 10
0.0
 20
-2.960436562073669
 30
0.0
  9
$EXTMAX
 10
131.40907005025699
 20
165.33824005778331
 30
0.0
  9
$LIMMIN
 10
0.0
 20
0.0
  9
$LIMMAX
 10
375.0
 20
270.0
  9
$ORTHOMODE
 70
     0
  9
$REGENMODE
 70
     1
  9
$FILLMODE
 70
     1
  9
$QTEXTMODE
 70
     0
  9
$MIRRTEXT
 70
     0
  9
$DRAGMODE
 70
     2
  9
$LTSCALE
 40
10.0
  9
$OSMODE
 70
  3071
  9
$ATTMODE
 70
     1
  9
$TEXTSIZE
 40
0.2
  9
$TRACEWID
 40
0.05
  9
$TEXTSTYLE
  7
STANDARD
  9
$CLAYER
  8
1
  9
$CELTYPE
  6
BYLAYER
  9
$CECOLOR
 62
   256
  9
$DIMSCALE
 40
1.0
  9
$DIMASZ
 40
3.0
  9
$DIMEXO
 40
2.0
  9
$DIMDLI
 40
0.38
  9
$DIMRND
 40
0.0
  9
$DIMDLE
 40
0.0
  9
$DIMEXE
 40
2.0
  9
$DIMTP
 40
0.0
  9
$DIMTM
 40
0.0
  9
$DIMTXT
 40
3.2000000000000002
  9
$DIMCEN
 40
0.0
  9
$DIMTSZ
 40
0.0
  9
$DIMTOL
 70
     0
  9
$DIMLIM
 70
     0
  9
$DIMTIH
 70
     0
  9
$DIMTOH
 70
     0
  9
$DIMSE1
 70
     0
  9
$DIMSE2
 70
     0
  9
$DIMTAD
 70
     1
  9
$DIMZIN
 70
     0
  9
$DIMBLK
  1

  9
$DIMASO
 70
     0
  9
$DIMSHO
 70
     0
  9
$DIMPOST
  1

  9
$DIMAPOST
  1

  9
$DIMALT
 70
     0
  9
$DIMALTD
 70
     2
  9
$DIMALTF
 40
25.399999999999999
  9
$DIMLFAC
 40
1.0
  9
$DIMTOFL
 70
     1
  9
$DIMTVP
 40
1.6000000000000001
  9
$DIMTIX
 70
     1
  9
$DIMSOXD
 70
     0
  9
$DIMSAH
 70
     0
  9
$DIMBLK1
  1

  9
$DIMBLK2
  1

  9
$DIMSTYLE
  2
STANDARD
  9
$DIMCLRD
 70
     0
  9
$DIMCLRE
 70
     0
  9
$DIMCLRT
 70
     0
  9
$DIMTFAC
 40
1.0
  9
$DIMGAP
 40
0.09
  9
$LUNITS
 70
     2
  9
$LUPREC
 70
     4
  9
$SKETCHINC
 40
0.1
  9
$FILLETRAD
 40
0.0
  9
$AUNITS
 70
     0
  9
$AUPREC
 70
     4
  9
$MENU
  1
E:\r13\win\SUPPORT\ACAD
  9
$ELEVATION
 40
0.0
  9
$PELEVATION
 40
0.0
  9
$THICKNESS
 40
0.0
  9
$LIMCHECK
 70
     0
  9
$BLIPMODE
 70
     0
  9
$CHAMFERA
 40
0.0
  9
$CHAMFERB
 40
0.0
  9
$SKPOLY
 70
     0
  9
$TDCREATE
 40
2449839.7609490738
  9
$TDUPDATE
 40
2456602.6129822689
  9
$TDINDWG
 40
0.0166067824
  9
$TDUSRTIMER
 40
2456598.403436725
  9
$USRTIMER
 70
     1
  9
$ANGBASE
 50
0.0
  9
$ANGDIR
 70
     0
  9
$PDMODE
 70
     0
  9
$PDSIZE
 40
0.0
  9
$PLINEWID
 40
0.0
  9
$COORDS
 70
     1
  9
$SPLFRAME
 70
     0
  9
$SPLINETYPE
 70
     6
  9
$SPLINESEGS
 70
     8
  9
$ATTDIA
 70
     0
  9
$ATTREQ
 70
     1
  9
$HANDLING
 70
     1
  9
$HANDSEED
  5
8C5
  9
$SURFTAB1
 70
     6
  9
$SURFTAB2
 70
     6
  9
$SURFTYPE
 70
     6
  9
$SURFU
 70
     6
  9
$SURFV
 70
     6
  9
$UCSNAME
  2

  9
$UCSORG
 10
0.0
 20
0.0
 30
0.0
  9
$UCSXDIR
 10
1.0
 20
0.0
 30
0.0
  9
$UCSYDIR
 10
0.0
 20
1.0
 30
0.0
  9
$PUCSNAME
  2

  9
$PUCSORG
 10
0.0
 20
0.0
 30
0.0
  9
$PUCSXDIR
 10
1.0
 20
0.0
 30
0.0
  9
$PUCSYDIR
 10
0.0
 20
1.0
 30
0.0
  9
$USERI1
 70
     0
  9
$USERI2
 70
     1
  9
$USERI3
 70
     0
  9
$USERI4
 70
     0
  9
$USERI5
 70
     0
  9
$USERR1
 40
0.0
  9
$USERR2
 40
0.0
  9
$USERR3
 40
0.0
  9
$USERR4
 40
0.0
  9
$USERR5
 40
0.0
  9
$WORLDVIEW
 70
     1
  9
$SHADEDGE
 70
     3
  9
$SHADEDIF
 70
    70
  9
$TILEMODE
 70
     1
  9
$MAXACTVP
 70
    16
  9
$PLIMCHECK
 70
     0
  9
$PEXTMIN
 10
1.0000000000000000E+020
 20
1.0000000000000000E+020
 30
1.0000000000000000E+020
  9
$PEXTMAX
 10
-1.0000000000000000E+020
 20
-1.0000000000000000E+020
 30
-1.0000000000000000E+020
  9
$PLIMMIN
 10
0.0
 20
0.0
  9
$PLIMMAX
 10
12.0
 20
9.0
  9
$UNITMODE
 70
     0
  9
$VISRETAIN
 70
     0
  9
$PLINEGEN
 70
     0
  9
$PSLTSCALE
 70
     0
  0
ENDSEC
  0
SECTION
  2
TABLES
  0
TABLE
  2
VPORT
 70
     1
  0
VPORT
  2
*ACTIVE
 70
     0
 10
0.0
 20
0.0
 11
1.0
 21
1.0
 12
187.4103949125639
 22
133.5127261426681
 13
0.0
 23
0.0
 14
10.0
 24
10.0
 15
10.0
 25
10.0
 16
0.0
 26
0.0
 36
1.0
 17
0.0
 27
0.0
 37
0.0
 40
275.42274993631997
 41
1.831871345029239
 42
50.0
 43
0.0
 44
0.0
 50
0.0
 51
0.0
 71
     0
 72
   500
 73
     1
 74
     0
 75
     0
 76
     0
 77
     0
 78
     2
  0
ENDTAB
  0
TABLE
  2
LTYPE
 70
     6
  0
LTYPE
  2
CONTINUOUS
 70
     0
  3
Solid Line
 72
    65
 73
     0
 40
0.0
  0
LTYPE
  2
CENTER
 70
     0
  3
____ _ ____ _ ____ _ ____ _ ____ _ ____ _ ____
 72
    65
 73
     4
 40
2.0
 49
1.25
 49
-0.25
 49
0.25
 49
-0.25
  0
LTYPE
  2
HIDDEN
 70
     0
  3
_ _ _ _ _ _ _ _ _ _ _ _ _ _ _ _ _ _ _ _ _ _ _
 72
    65
 73
     2
 40
0.375
 49
0.25
 49
-0.125
  0
LTYPE
  2
PHANTOM
 70
     0
  3
_____ _ _ _____ _ _ _____ _ _ _____ _ _ ____
 72
    65
 73
     6
 40
2.5
 49
1.25
 49
-0.25
 49
0.25
 49
-0.25
 49
0.25
 49
-0.25
  0
LTYPE
  2
DASHED
 70
     0
  3
__ __ __ __ __ __ __ __ __ __ __ __ __ __ __
 72
    65
 73
     2
 40
0.75
 49
0.5
 49
-0.25
  0
LTYPE
  2
PHANTOM2
 70
     0
  3
___ _ _ ___ _ _ ___ _ _ ___ _ _
 72
    65
 73
     6
 40
1.25
 49
0.625
 49
-0.125
 49
0.125
 49
-0.125
 49
0.125
 49
-0.125
  0
ENDTAB
  0
TABLE
  2
LAYER
 70
     8
  0
LAYER
  2
0
 70
     0
 62
     7
  6
CONTINUOUS
  0
LAYER
  2
1
 70
     0
 62
     1
  6
CENTER
  0
LAYER
  2
2
 70
     0
 62
     2
  6
HIDDEN
  0
LAYER
  2
3
 70
     0
 62
     3
  6
CONTINUOUS
  0
LAYER
  2
4
 70
     0
 62
     4
  6
CONTINUOUS
  0
LAYER
  2
5
 70
     0
 62
     3
  6
PHANTOM
  0
LAYER
  2
10
 70
     0
 62
     7
  6
CONTINUOUS
  0
LAYER
  2
11
 70
     0
 62
     3
  6
CONTINUOUS
  0
ENDTAB
  0
TABLE
  2
STYLE
 70
     2
  0
STYLE
  2
STANDARD
 70
     0
 40
0.0
 41
1.0
 50
0.0
 71
     0
 42
0.2
  3
TXT
  4
BIGFONT
  0
STYLE
  2
STANDARD1
 70
     0
 40
0.0
 41
1.0
 50
0.0
 71
     0
 42
3.0
  3
txt
  4

  0
ENDTAB
  0
TABLE
  2
VIEW
 70
     1
  0
VIEW
  2
ALL
 70
     0
 40
270.0
 10
220.99159663865549
 20
135.0
 41
0.0
 11
0.0
 21
0.0
 31
1.0
 12
0.0
 22
0.0
 32
0.0
 42
0.0
 43
0.0
 44
0.0
 50
0.0
 71
     0
  0
ENDTAB
  0
TABLE
  2
UCS
 70
     0
  0
ENDTAB
  0
TABLE
  2
APPID
 70
     3
  0
APPID
  2
ACAD
 70
     0
  0
APPID
  2
ACAD_MLEADERVER
 70
     0
  0
APPID
  2
ACAD_NAV_VCDISPLAY
 70
     0
  0
ENDTAB
  0
TABLE
  2
DIMSTYLE
 70
     1
  0
DIMSTYLE
  2
STANDARD
 70
     0
  3

  4

  5

  6

  7

 40
1.0
 41
0.18
 42
0.0625
 43
0.38
 44
0.18
 45
0.0
 46
0.0
 47
0.0
 48
0.0
140
0.18
141
0.09
142
0.0
143
25.399999999999999
144
1.0
145
0.0
146
1.0
147
0.09
 71
     0
 72
     0
 73
     1
 74
     1
 75
     0
 76
     0
 77
     0
 78
     0
170
     0
171
     2
172
     0
173
     0
174
     0
175
     0
176
     0
177
     0
178
     0
  0
ENDTAB
  0
ENDSEC
  0
SECTION
  2
BLOCKS
  0
BLOCK
  8
0
  2
$MODEL_SPACE
 70
     0
 10
0.0
 20
0.0
 30
0.0
  3
$MODEL_SPACE
  1

  0
ENDBLK
  5
263
  8
0
  0
BLOCK
 67
     1
  8
0
  2
$PAPER_SPACE
 70
     0
 10
0.0
 20
0.0
 30
0.0
  3
$PAPER_SPACE
  1

  0
ENDBLK
  5
261
 67
     1
  8
0
  0
ENDSEC
  0
SECTION
  2
ENTITIES
  0
LINE
  5
5C5
  8
1
 10
55.881954426722238
 20
144.74978278966341
 30
0.0
 11
14.705039890482389
 21
144.74978278966341
 31
0.0
  0
LINE
  5
5C6
  8
1
 10
35.293497158602321
 20
165.33824005778331
 30
0.0
 11
35.293497158602321
 21
124.1613255215435
 31
0.0
  0
LINE
  5
5C7
  8
1
 10
115.82061278213691
 20
27.74978278966341
 30
0.0
 11
115.82061278213691
 21
114.7497827896634
 31
0.0
  0
LINE
  5
5C8
  8
1
 10
35.293497158602577
 20
27.74978278966336
 30
0.0
 11
35.293497158602612
 21
114.7497827896634
 31
0.0
  0
LINE
  5
5C9
  8
3
 10
122.73811278213689
 20
58.74978278966335
 30
0.0
 11
122.73811278213689
 21
84.195757745103379
 31
0.0
  0
LINE
  5
5CA
  8
3
 10
108.9031127821369
 20
58.7497827896633
 30
0.0
 11
108.9031127821369
 21
84.195757745102966
 31
0.0
  0
LINE
  5
5CB
  8
3
 10
108.9031127821369
 20
33.667282789663318
 30
0.0
 11
108.9031127821369
 21
48.7497827896633
 31
0.0
  0
LINE
  5
5CC
  8
3
 10
122.73811278213689
 20
33.667282789663432
 30
0.0
 11
122.73811278213689
 21
48.749782789663421
 31
0.0
  0
LINE
  5
5CD
  8
3
 10
42.210997158602538
 20
58.749782789663421
 30
0.0
 11
42.210997158602538
 21
84.195757745102625
 31
0.0
  0
LINE
  5
5CE
  8
3
 10
28.375997158602559
 20
58.74978278966335
 30
0.0
 11
28.375997158602559
 21
84.195757745103535
 31
0.0
  0
LINE
  5
5CF
  8
3
 10
28.375997158602559
 20
33.667282789663382
 30
0.0
 11
28.375997158602559
 21
48.74978278966335
 31
0.0
  0
LINE
  5
5D0
  8
3
 10
42.210997158602567
 20
33.667282789663489
 30
0.0
 11
42.210997158602538
 21
48.74978278966347
 31
0.0
  0
LINE
  5
5D1
  8
0
  6
CONTINUOUS
 62
     7
 10
48.793497158602321
 20
144.74978278966341
 30
0.0
 11
48.793497158602321
 21
152.54401142372339
 31
0.0
  0
ARC
  5
5D2
  8
0
  6
CONTINUOUS
 62
     7
 10
35.293497158602321
 20
144.74978278966341
 30
0.0
 40
13.500000000000121
 50
0.0
 51
59.99999999999941
  0
LINE
  5
5D3
  8
0
  6
CONTINUOUS
 62
     7
 10
48.793497158602321
 20
152.54401142372339
 30
0.0
 11
42.043497158602321
 21
156.44112574075351
 31
0.0
  0
ARC
  5
5D4
  8
0
  6
CONTINUOUS
 62
     7
 10
35.293497158602321
 20
144.74978278966341
 30
0.0
 40
13.50000000000006
 50
180.0
 51
239.99999999999949
  0
LINE
  5
5D5
  8
0
  6
CONTINUOUS
 62
     7
 10
21.793497158602261
 20
136.95555415560341
 30
0.0
 11
28.543497158602321
 21
133.05843983857341
 31
0.0
  0
LINE
  5
5D6
  8
0
  6
CONTINUOUS
 62
     7
 10
21.793497158602261
 20
144.74978278966341
 30
0.0
 11
21.793497158602261
 21
136.95555415560341
 31
0.0
  0
ARC
  5
5D7
  8
0
  6
CONTINUOUS
 62
     7
 10
35.293497158602321
 20
144.74978278966341
 30
0.0
 40
13.50000000000002
 50
239.99999999999949
 51
300.0000000000004
  0
LINE
  5
5D8
  8
0
  6
CONTINUOUS
 62
     7
 10
28.543497158602321
 20
133.05843983857341
 30
0.0
 11
35.293497158602321
 21
129.1613255215436
 31
0.0
  0
LINE
  5
5D9
  8
0
  6
CONTINUOUS
 62
     7
 10
35.293497158602321
 20
129.1613255215436
 30
0.0
 11
42.043497158602257
 21
133.05843983857341
 31
0.0
  0
ARC
  5
5DA
  8
0
  6
CONTINUOUS
 62
     7
 10
35.293497158602321
 20
144.74978278966341
 30
0.0
 40
13.500000000000121
 50
59.99999999999941
 51
120.0000000000006
  0
LINE
  5
5DB
  8
0
  6
CONTINUOUS
 62
     7
 10
42.043497158602321
 20
156.44112574075351
 30
0.0
 11
35.293497158602321
 21
160.33824005778331
 31
0.0
  0
LINE
  5
5DC
  8
0
  6
CONTINUOUS
 62
     7
 10
35.293497158602321
 20
160.33824005778331
 30
0.0
 11
28.543497158602321
 21
156.44112574075351
 31
0.0
  0
ARC
  5
5DD
  8
0
  6
CONTINUOUS
 62
     7
 10
35.293497158602321
 20
144.74978278966341
 30
0.0
 40
13.500000000000121
 50
120.0000000000006
 51
180.0
  0
LINE
  5
5DE
  8
0
  6
CONTINUOUS
 62
     7
 10
21.793497158602261
 20
152.54401142372339
 30
0.0
 11
21.793497158602261
 21
144.74978278966341
 31
0.0
  0
LINE
  5
5DF
  8
0
  6
CONTINUOUS
 62
     7
 10
28.543497158602321
 20
156.44112574075351
 30
0.0
 11
21.793497158602261
 21
152.54401142372339
 31
0.0
  0
ARC
  5
5E0
  8
0
  6
CONTINUOUS
 62
     7
 10
35.293497158602321
 20
144.74978278966341
 30
0.0
 40
13.5
 50
300.0000000000004
 51
0.0
  0
LINE
  5
5E1
  8
0
  6
CONTINUOUS
 62
     7
 10
48.793497158602321
 20
136.95555415560341
 30
0.0
 11
48.793497158602321
 21
144.74978278966341
 31
0.0
  0
LINE
  5
5E2
  8
0
  6
CONTINUOUS
 62
     7
 10
42.043497158602257
 20
133.05843983857341
 30
0.0
 11
48.793497158602321
 21
136.95555415560341
 31
0.0
  0
CIRCLE
  5
5E3
  8
0
  6
CONTINUOUS
 62
     7
 10
35.293497158602321
 20
144.74978278966341
 30
0.0
 40
7.099999999999965
  0
CIRCLE
  5
5E4
  8
3
  6
CONTINUOUS
 62
     3
 10
35.293497158602321
 20
144.74978278966341
 30
0.0
 40
6.0
  0
CIRCLE
  5
5E5
  8
0
  6
CONTINUOUS
 62
     7
 10
35.293497158602321
 20
144.74978278966341
 30
0.0
 40
5.099999999999965
  0
LINE
  5
5E6
  8
0
  6
CONTINUOUS
 62
     7
 10
27.293497158602548
 20
34.749782789663421
 30
0.0
 11
29.293497158602548
 21
32.749782789663413
 31
0.0
  0
LINE
  5
5E7
  8
0
  6
CONTINUOUS
 62
     7
 10
41.293497158602598
 20
32.749782789663527
 30
0.0
 11
43.293497158602598
 21
34.749782789663527
 31
0.0
  0
LINE
  5
5E8
  8
0
  6
CONTINUOUS
 62
     7
 10
43.293497158602598
 20
34.749782789663527
 30
0.0
 11
43.29349715860252
 21
48.74978278966352
 31
0.0
  0
LINE
  5
5E9
  8
0
  6
CONTINUOUS
 62
     7
 10
43.293497158602463
 20
58.74978278966352
 30
0.0
 11
43.2934971586022
 21
83.749782789663413
 31
0.0
  0
LINE
  5
5EA
  8
0
  6
CONTINUOUS
 62
     7
 10
27.293497158602271
 20
83.749782789663286
 30
0.0
 11
27.29349715860241
 21
58.749782789663421
 31
0.0
  0
LINE
  5
5EB
  8
0
  6
CONTINUOUS
 62
     7
 10
27.29349715860247
 20
48.749782789663421
 30
0.0
 11
27.293497158602548
 21
34.749782789663421
 31
0.0
  0
ARC
  5
5EC
  8
0
  6
CONTINUOUS
 62
     7
 10
43.043497158602207
 20
84.749782789663413
 30
0.0
 40
1.0
 50
180.0
 51
270.0
  0
ARC
  5
5ED
  8
0
  6
CONTINUOUS
 62
     7
 10
27.543497158602211
 20
84.749782789663314
 30
0.0
 40
1.0
 50
270.0
 51
0.0
  0
ARC
  5
5EE
  8
0
  6
CONTINUOUS
 62
     7
 10
27.543497158602211
 20
86.7497827896633
 30
0.0
 40
1.0
 50
0.0
 51
90.0
  0
ARC
  5
5EF
  8
0
  6
CONTINUOUS
 62
     7
 10
43.043497158602207
 20
86.749782789663399
 30
0.0
 40
1.0
 50
90.000000000003254
 51
180.0
  0
LINE
  5
5F0
  8
0
  6
CONTINUOUS
 62
     7
 10
42.0434971586022
 20
84.749782789663413
 30
0.0
 11
42.0434971586022
 21
86.749782789663399
 31
0.0
  0
LINE
  5
5F1
  8
0
  6
CONTINUOUS
 62
     7
 10
28.543497158602211
 20
86.7497827896633
 30
0.0
 11
28.543497158602211
 21
84.749782789663314
 31
0.0
  0
POLYLINE
  5
5F2
  8
0
  6
CONTINUOUS
 62
     7
 66
     1
 10
0.0
 20
0.0
 30
0.0
 70
   128
  0
VERTEX
  5
789
  8
0
  6
CONTINUOUS
 62
     7
 10
28.54349715860252
 20
48.749782789663421
 30
0.0
  0
VERTEX
  5
78A
  8
0
  6
CONTINUOUS
 62
     7
 10
28.063412785803511
 20
48.756351294500632
 30
0.0
  0
VERTEX
  5
78B
  8
0
  6
CONTINUOUS
 62
     7
 10
26.492091618850228
 20
48.868855607056389
 30
0.0
  0
VERTEX
  5
78C
  8
0
  6
CONTINUOUS
 62
     7
 10
24.923508950583312
 20
49.114851909323761
 30
0.0
  0
VERTEX
  5
78D
  8
0
  6
CONTINUOUS
 62
     7
 10
23.35092285218661
 20
49.483946681686803
 30
0.0
  0
VERTEX
  5
78E
  8
0
  6
CONTINUOUS
 62
     7
 10
21.79349715860246
 20
49.955554155603409
 30
0.0
  0
SEQEND
  5
78F
  8
0
  6
CONTINUOUS
 62
     7
  0
LINE
  5
5F3
  8
0
  6
CONTINUOUS
 62
     7
 10
21.79349715860241
 20
57.544011423723298
 30
0.0
 11
21.79349715860246
 21
49.955554155603409
 31
0.0
  0
POLYLINE
  5
5F4
  8
0
  6
CONTINUOUS
 62
     7
 66
     1
 10
0.0
 20
0.0
 30
0.0
 70
   128
  0
VERTEX
  5
790
  8
0
  6
CONTINUOUS
 62
     7
 10
21.79349715860241
 20
57.544011423723298
 30
0.0
  0
VERTEX
  5
791
  8
0
  6
CONTINUOUS
 62
     7
 10
23.432943907984679
 20
58.03766726767924
 30
0.0
  0
VERTEX
  5
792
  8
0
  6
CONTINUOUS
 62
     7
 10
25.10051291559671
 20
58.418834078716372
 30
0.0
  0
VERTEX
  5
793
  8
0
  6
CONTINUOUS
 62
     7
 10
26.810658866012091
 20
58.664636700977212
 30
0.0
  0
VERTEX
  5
794
  8
0
  6
CONTINUOUS
 62
     7
 10
28.54349715860241
 20
58.749782789663421
 30
0.0
  0
SEQEND
  5
795
  8
0
  6
CONTINUOUS
 62
     7
  0
POLYLINE
  5
5F5
  8
0
  6
CONTINUOUS
 62
     7
 66
     1
 10
0.0
 20
0.0
 30
0.0
 70
   128
  0
VERTEX
  5
796
  8
0
  6
CONTINUOUS
 62
     7
 10
28.54349715860241
 20
58.749782789663421
 30
0.0
  0
VERTEX
  5
797
  8
0
  6
CONTINUOUS
 62
     7
 10
29.023581531401419
 20
58.743214284826301
 30
0.0
  0
VERTEX
  5
798
  8
0
  6
CONTINUOUS
 62
     7
 10
30.594902698354701
 20
58.630709972270438
 30
0.0
  0
VERTEX
  5
799
  8
0
  6
CONTINUOUS
 62
     7
 10
32.163485366621622
 20
58.384713670003059
 30
0.0
  0
VERTEX
  5
79A
  8
0
  6
CONTINUOUS
 62
     7
 10
33.736071465018263
 20
58.015618897640017
 30
0.0
  0
VERTEX
  5
79B
  8
0
  6
CONTINUOUS
 62
     7
 10
35.293497158602463
 20
57.544011423723532
 30
0.0
  0
SEQEND
  5
79C
  8
0
  6
CONTINUOUS
 62
     7
  0
LINE
  5
5F6
  8
0
  6
CONTINUOUS
 62
     7
 10
35.293497158602463
 20
57.544011423723532
 30
0.0
 11
35.29349715860252
 21
49.955554155603522
 31
0.0
  0
POLYLINE
  5
5F7
  8
0
  6
CONTINUOUS
 62
     7
 66
     1
 10
0.0
 20
0.0
 30
0.0
 70
   128
  0
VERTEX
  5
79D
  8
0
  6
CONTINUOUS
 62
     7
 10
35.29349715860252
 20
49.955554155603522
 30
0.0
  0
VERTEX
  5
79E
  8
0
  6
CONTINUOUS
 62
     7
 10
33.654050409220247
 20
49.461898311647701
 30
0.0
  0
VERTEX
  5
79F
  8
0
  6
CONTINUOUS
 62
     7
 10
31.98648140160822
 20
49.080731500610561
 30
0.0
  0
VERTEX
  5
7A0
  8
0
  6
CONTINUOUS
 62
     7
 10
30.276335451192839
 20
48.834928878349729
 30
0.0
  0
VERTEX
  5
7A1
  8
0
  6
CONTINUOUS
 62
     7
 10
28.54349715860252
 20
48.749782789663421
 30
0.0
  0
SEQEND
  5
7A2
  8
0
  6
CONTINUOUS
 62
     7
  0
POLYLINE
  5
5F8
  8
0
  6
CONTINUOUS
 62
     7
 66
     1
 10
0.0
 20
0.0
 30
0.0
 70
   128
  0
VERTEX
  5
7A3
  8
0
  6
CONTINUOUS
 62
     7
 10
42.043497158602463
 20
48.74978278966352
 30
0.0
  0
VERTEX
  5
7A4
  8
0
  6
CONTINUOUS
 62
     7
 10
41.563412785803507
 20
48.756351294500739
 30
0.0
  0
VERTEX
  5
7A5
  8
0
  6
CONTINUOUS
 62
     7
 10
39.992091618850168
 20
48.868855607056503
 30
0.0
  0
VERTEX
  5
7A6
  8
0
  6
CONTINUOUS
 62
     7
 10
38.423508950583312
 20
49.114851909323882
 30
0.0
  0
VERTEX
  5
7A7
  8
0
  6
CONTINUOUS
 62
     7
 10
36.850922852186621
 20
49.483946681686923
 30
0.0
  0
VERTEX
  5
7A8
  8
0
  6
CONTINUOUS
 62
     7
 10
35.29349715860252
 20
49.955554155603522
 30
0.0
  0
SEQEND
  5
7A9
  8
0
  6
CONTINUOUS
 62
     7
  0
POLYLINE
  5
5F9
  8
0
  6
CONTINUOUS
 62
     7
 66
     1
 10
0.0
 20
0.0
 30
0.0
 70
   128
  0
VERTEX
  5
7AA
  8
0
  6
CONTINUOUS
 62
     7
 10
35.293497158602463
 20
57.544011423723532
 30
0.0
  0
VERTEX
  5
7AB
  8
0
  6
CONTINUOUS
 62
     7
 10
36.932943907984679
 20
58.03766726767936
 30
0.0
  0
VERTEX
  5
7AC
  8
0
  6
CONTINUOUS
 62
     7
 10
38.60051291559671
 20
58.418834078716372
 30
0.0
  0
VERTEX
  5
7AD
  8
0
  6
CONTINUOUS
 62
     7
 10
40.310658866012091
 20
58.664636700977333
 30
0.0
  0
VERTEX
  5
7AE
  8
0
  6
CONTINUOUS
 62
     7
 10
42.043497158602399
 20
58.74978278966352
 30
0.0
  0
SEQEND
  5
7AF
  8
0
  6
CONTINUOUS
 62
     7
  0
POLYLINE
  5
5FA
  8
0
  6
CONTINUOUS
 62
     7
 66
     1
 10
0.0
 20
0.0
 30
0.0
 70
   128
  0
VERTEX
  5
7B0
  8
0
  6
CONTINUOUS
 62
     7
 10
42.043497158602399
 20
58.74978278966352
 30
0.0
  0
VERTEX
  5
7B1
  8
0
  6
CONTINUOUS
 62
     7
 10
42.523581531401362
 20
58.743214284826422
 30
0.0
  0
VERTEX
  5
7B2
  8
0
  6
CONTINUOUS
 62
     7
 10
44.094902698354701
 20
58.630709972270552
 30
0.0
  0
VERTEX
  5
7B3
  8
0
  6
CONTINUOUS
 62
     7
 10
45.663485366621671
 20
58.38471367000318
 30
0.0
  0
VERTEX
  5
7B4
  8
0
  6
CONTINUOUS
 62
     7
 10
47.236071465018263
 20
58.015618897640131
 30
0.0
  0
VERTEX
  5
7B5
  8
0
  6
CONTINUOUS
 62
     7
 10
48.79349715860247
 20
57.544011423723532
 30
0.0
  0
SEQEND
  5
7B6
  8
0
  6
CONTINUOUS
 62
     7
  0
LINE
  5
5FB
  8
0
  6
CONTINUOUS
 62
     7
 10
48.79349715860247
 20
57.544011423723532
 30
0.0
 11
48.79349715860252
 21
49.955554155603522
 31
0.0
  0
POLYLINE
  5
5FC
  8
0
  6
CONTINUOUS
 62
     7
 66
     1
 10
0.0
 20
0.0
 30
0.0
 70
   128
  0
VERTEX
  5
7B7
  8
0
  6
CONTINUOUS
 62
     7
 10
48.79349715860252
 20
49.955554155603522
 30
0.0
  0
VERTEX
  5
7B8
  8
0
  6
CONTINUOUS
 62
     7
 10
47.15405040922019
 20
49.461898311647701
 30
0.0
  0
VERTEX
  5
7B9
  8
0
  6
CONTINUOUS
 62
     7
 10
45.486481401608209
 20
49.080731500610561
 30
0.0
  0
VERTEX
  5
7BA
  8
0
  6
CONTINUOUS
 62
     7
 10
43.776335451192779
 20
48.834928878349842
 30
0.0
  0
VERTEX
  5
7BB
  8
0
  6
CONTINUOUS
 62
     7
 10
42.043497158602463
 20
48.74978278966352
 30
0.0
  0
SEQEND
  5
7BC
  8
0
  6
CONTINUOUS
 62
     7
  0
LINE
  5
5FD
  8
0
  6
CONTINUOUS
 62
     7
 10
28.54349715860252
 20
48.749782789663421
 30
0.0
 11
42.043497158602463
 21
48.74978278966352
 31
0.0
  0
LINE
  5
5FE
  8
0
  6
CONTINUOUS
 62
     7
 10
28.54349715860241
 20
58.749782789663421
 30
0.0
 11
42.043497158602399
 21
58.74978278966352
 31
0.0
  0
LINE
  5
5FF
  8
0
  6
CONTINUOUS
 62
     7
 10
21.79349715860246
 20
49.955554155603409
 30
0.0
 11
21.79349715860246
 21
48.7497827896633
 31
0.0
  0
LINE
  5
600
  8
0
  6
CONTINUOUS
 62
     7
 10
21.79349715860246
 20
48.7497827896633
 30
0.0
 11
28.54349715860252
 21
48.749782789663421
 31
0.0
  0
LINE
  5
601
  8
0
  6
CONTINUOUS
 62
     7
 10
48.79349715860252
 20
48.74978278966352
 30
0.0
 11
48.79349715860252
 21
49.955554155603522
 31
0.0
  0
LINE
  5
602
  8
0
  6
CONTINUOUS
 62
     7
 10
42.043497158602463
 20
48.74978278966352
 30
0.0
 11
48.79349715860252
 21
48.74978278966352
 31
0.0
  0
LINE
  5
603
  8
0
  6
CONTINUOUS
 62
     7
 10
21.79349715860241
 20
58.7497827896633
 30
0.0
 11
21.79349715860241
 21
57.544011423723298
 31
0.0
  0
LINE
  5
604
  8
0
  6
CONTINUOUS
 62
     7
 10
21.79349715860241
 20
58.7497827896633
 30
0.0
 11
28.54349715860241
 21
58.749782789663421
 31
0.0
  0
LINE
  5
605
  8
0
  6
CONTINUOUS
 62
     7
 10
48.79349715860247
 20
57.544011423723532
 30
0.0
 11
48.79349715860247
 21
58.74978278966352
 31
0.0
  0
LINE
  5
606
  8
0
  6
CONTINUOUS
 62
     7
 10
42.043497158602399
 20
58.74978278966352
 30
0.0
 11
48.79349715860247
 21
58.74978278966352
 31
0.0
  0
LINE
  5
607
  8
0
  6
CONTINUOUS
 62
     7
 10
28.54349715860215
 20
87.749782789663413
 30
0.0
 11
42.04349715860215
 21
87.749782789663527
 31
0.0
  0
POLYLINE
  5
608
  8
0
  6
CONTINUOUS
 62
     7
 66
     1
 10
0.0
 20
0.0
 30
0.0
 70
   128
  0
VERTEX
  5
7BD
  8
0
  6
CONTINUOUS
 62
     7
 10
35.293497158602207
 20
88.955554155603522
 30
0.0
  0
VERTEX
  5
7BE
  8
0
  6
CONTINUOUS
 62
     7
 10
33.654050409219941
 20
88.461898311647587
 30
0.0
  0
VERTEX
  5
7BF
  8
0
  6
CONTINUOUS
 62
     7
 10
31.9864814016079
 20
88.080731500610568
 30
0.0
  0
VERTEX
  5
7C0
  8
0
  6
CONTINUOUS
 62
     7
 10
30.27633545119253
 20
87.834928878349714
 30
0.0
  0
VERTEX
  5
7C1
  8
0
  6
CONTINUOUS
 62
     7
 10
28.54349715860215
 20
87.749782789663413
 30
0.0
  0
SEQEND
  5
7C2
  8
0
  6
CONTINUOUS
 62
     7
  0
POLYLINE
  5
609
  8
0
  6
CONTINUOUS
 62
     7
 66
     1
 10
0.0
 20
0.0
 30
0.0
 70
   128
  0
VERTEX
  5
7C3
  8
0
  6
CONTINUOUS
 62
     7
 10
42.04349715860215
 20
87.749782789663527
 30
0.0
  0
VERTEX
  5
7C4
  8
0
  6
CONTINUOUS
 62
     7
 10
41.563412785803187
 20
87.756351294500647
 30
0.0
  0
VERTEX
  5
7C5
  8
0
  6
CONTINUOUS
 62
     7
 10
39.992091618849862
 20
87.868855607056616
 30
0.0
  0
VERTEX
  5
7C6
  8
0
  6
CONTINUOUS
 62
     7
 10
38.423508950582999
 20
88.114851909323875
 30
0.0
  0
VERTEX
  5
7C7
  8
0
  6
CONTINUOUS
 62
     7
 10
36.850922852186301
 20
88.48394668168703
 30
0.0
  0
VERTEX
  5
7C8
  8
0
  6
CONTINUOUS
 62
     7
 10
35.293497158602207
 20
88.955554155603522
 30
0.0
  0
SEQEND
  5
7C9
  8
0
  6
CONTINUOUS
 62
     7
  0
POLYLINE
  5
60A
  8
0
  6
CONTINUOUS
 62
     7
 66
     1
 10
0.0
 20
0.0
 30
0.0
 70
   128
  0
VERTEX
  5
7CA
  8
0
  6
CONTINUOUS
 62
     7
 10
28.54349715860215
 20
87.749782789663413
 30
0.0
  0
VERTEX
  5
7CB
  8
0
  6
CONTINUOUS
 62
     7
 10
28.063412785803191
 20
87.756351294500504
 30
0.0
  0
VERTEX
  5
7CC
  8
0
  6
CONTINUOUS
 62
     7
 10
26.492091618849859
 20
87.868855607056503
 30
0.0
  0
VERTEX
  5
7CD
  8
0
  6
CONTINUOUS
 62
     7
 10
24.923508950582999
 20
88.114851909323761
 30
0.0
  0
VERTEX
  5
7CE
  8
0
  6
CONTINUOUS
 62
     7
 10
23.350922852186361
 20
88.483946681686916
 30
0.0
  0
VERTEX
  5
7CF
  8
0
  6
CONTINUOUS
 62
     7
 10
21.79349715860215
 20
88.955554155603409
 30
0.0
  0
SEQEND
  5
7D0
  8
0
  6
CONTINUOUS
 62
     7
  0
LINE
  5
60B
  8
0
  6
CONTINUOUS
 62
     7
 10
21.79349715860209
 20
108.5440114237233
 30
0.0
 11
21.79349715860215
 21
88.955554155603409
 31
0.0
  0
POLYLINE
  5
60C
  8
0
  6
CONTINUOUS
 62
     7
 66
     1
 10
0.0
 20
0.0
 30
0.0
 70
   128
  0
VERTEX
  5
7D1
  8
0
  6
CONTINUOUS
 62
     7
 10
21.79349715860209
 20
108.5440114237233
 30
0.0
  0
VERTEX
  5
7D2
  8
0
  6
CONTINUOUS
 62
     7
 10
23.43294390798431
 20
109.0376672676792
 30
0.0
  0
VERTEX
  5
7D3
  8
0
  6
CONTINUOUS
 62
     7
 10
25.10051291559634
 20
109.4188340787162
 30
0.0
  0
VERTEX
  5
7D4
  8
0
  6
CONTINUOUS
 62
     7
 10
26.810658866011721
 20
109.6646367009771
 30
0.0
  0
VERTEX
  5
7D5
  8
0
  6
CONTINUOUS
 62
     7
 10
28.54349715860204
 20
109.7497827896635
 30
0.0
  0
SEQEND
  5
7D6
  8
0
  6
CONTINUOUS
 62
     7
  0
POLYLINE
  5
60D
  8
0
  6
CONTINUOUS
 62
     7
 66
     1
 10
0.0
 20
0.0
 30
0.0
 70
   128
  0
VERTEX
  5
7D7
  8
0
  6
CONTINUOUS
 62
     7
 10
28.54349715860204
 20
109.7497827896635
 30
0.0
  0
VERTEX
  5
7D8
  8
0
  6
CONTINUOUS
 62
     7
 10
29.023581531400989
 20
109.74321428482629
 30
0.0
  0
VERTEX
  5
7D9
  8
0
  6
CONTINUOUS
 62
     7
 10
30.594902698354328
 20
109.63070997227049
 30
0.0
  0
VERTEX
  5
7DA
  8
0
  6
CONTINUOUS
 62
     7
 10
32.163485366621238
 20
109.38471367000299
 30
0.0
  0
VERTEX
  5
7DB
  8
0
  6
CONTINUOUS
 62
     7
 10
33.736071465017893
 20
109.01561889764
 30
0.0
  0
VERTEX
  5
7DC
  8
0
  6
CONTINUOUS
 62
     7
 10
35.293497158602037
 20
108.5440114237234
 30
0.0
  0
SEQEND
  5
7DD
  8
0
  6
CONTINUOUS
 62
     7
  0
LINE
  5
60E
  8
0
  6
CONTINUOUS
 62
     7
 10
35.293497158602037
 20
108.5440114237234
 30
0.0
 11
35.293497158602207
 21
88.955554155603522
 31
0.0
  0
POLYLINE
  5
60F
  8
0
  6
CONTINUOUS
 62
     7
 66
     1
 10
0.0
 20
0.0
 30
0.0
 70
   128
  0
VERTEX
  5
7DE
  8
0
  6
CONTINUOUS
 62
     7
 10
35.293497158602037
 20
108.5440114237234
 30
0.0
  0
VERTEX
  5
7DF
  8
0
  6
CONTINUOUS
 62
     7
 10
36.932943907984367
 20
109.0376672676793
 30
0.0
  0
VERTEX
  5
7E0
  8
0
  6
CONTINUOUS
 62
     7
 10
38.600512915596283
 20
109.4188340787163
 30
0.0
  0
VERTEX
  5
7E1
  8
0
  6
CONTINUOUS
 62
     7
 10
40.310658866011778
 20
109.6646367009772
 30
0.0
  0
VERTEX
  5
7E2
  8
0
  6
CONTINUOUS
 62
     7
 10
42.04349715860203
 20
109.7497827896635
 30
0.0
  0
SEQEND
  5
7E3
  8
0
  6
CONTINUOUS
 62
     7
  0
POLYLINE
  5
610
  8
0
  6
CONTINUOUS
 62
     7
 66
     1
 10
0.0
 20
0.0
 30
0.0
 70
   128
  0
VERTEX
  5
7E4
  8
0
  6
CONTINUOUS
 62
     7
 10
42.04349715860203
 20
109.7497827896635
 30
0.0
  0
VERTEX
  5
7E5
  8
0
  6
CONTINUOUS
 62
     7
 10
42.523581531400993
 20
109.74321428482639
 30
0.0
  0
VERTEX
  5
7E6
  8
0
  6
CONTINUOUS
 62
     7
 10
44.094902698354389
 20
109.63070997227049
 30
0.0
  0
VERTEX
  5
7E7
  8
0
  6
CONTINUOUS
 62
     7
 10
45.663485366621252
 20
109.38471367000309
 30
0.0
  0
VERTEX
  5
7E8
  8
0
  6
CONTINUOUS
 62
     7
 10
47.236071465017879
 20
109.01561889764
 30
0.0
  0
VERTEX
  5
7E9
  8
0
  6
CONTINUOUS
 62
     7
 10
48.793497158602037
 20
108.5440114237235
 30
0.0
  0
SEQEND
  5
7EA
  8
0
  6
CONTINUOUS
 62
     7
  0
LINE
  5
611
  8
0
  6
CONTINUOUS
 62
     7
 10
48.793497158602037
 20
108.5440114237235
 30
0.0
 11
48.793497158602207
 21
88.955554155603636
 31
0.0
  0
POLYLINE
  5
612
  8
0
  6
CONTINUOUS
 62
     7
 66
     1
 10
0.0
 20
0.0
 30
0.0
 70
   128
  0
VERTEX
  5
7EB
  8
0
  6
CONTINUOUS
 62
     7
 10
48.793497158602207
 20
88.955554155603636
 30
0.0
  0
VERTEX
  5
7EC
  8
0
  6
CONTINUOUS
 62
     7
 10
47.154050409219877
 20
88.461898311647687
 30
0.0
  0
VERTEX
  5
7ED
  8
0
  6
CONTINUOUS
 62
     7
 10
45.486481401607897
 20
88.080731500610668
 30
0.0
  0
VERTEX
  5
7EE
  8
0
  6
CONTINUOUS
 62
     7
 10
43.776335451192459
 20
87.834928878349842
 30
0.0
  0
VERTEX
  5
7EF
  8
0
  6
CONTINUOUS
 62
     7
 10
42.04349715860215
 20
87.749782789663527
 30
0.0
  0
SEQEND
  5
7F0
  8
0
  6
CONTINUOUS
 62
     7
  0
LINE
  5
613
  8
0
  6
CONTINUOUS
 62
     7
 10
28.54349715860204
 20
109.7497827896635
 30
0.0
 11
42.04349715860203
 21
109.7497827896635
 31
0.0
  0
LINE
  5
614
  8
0
  6
CONTINUOUS
 62
     7
 10
48.793497158602207
 20
87.749782789663527
 30
0.0
 11
48.793497158602207
 21
88.955554155603636
 31
0.0
  0
LINE
  5
615
  8
0
  6
CONTINUOUS
 62
     7
 10
42.04349715860215
 20
87.749782789663527
 30
0.0
 11
48.793497158602207
 21
87.749782789663527
 31
0.0
  0
LINE
  5
616
  8
0
  6
CONTINUOUS
 62
     7
 10
21.79349715860215
 20
88.955554155603409
 30
0.0
 11
21.79349715860215
 21
87.749782789663286
 31
0.0
  0
LINE
  5
617
  8
0
  6
CONTINUOUS
 62
     7
 10
21.79349715860215
 20
87.749782789663286
 30
0.0
 11
28.54349715860215
 21
87.749782789663413
 31
0.0
  0
LINE
  5
618
  8
0
  6
CONTINUOUS
 62
     7
 10
21.79349715860204
 20
109.7497827896634
 30
0.0
 11
21.79349715860209
 21
108.5440114237233
 31
0.0
  0
LINE
  5
619
  8
0
  6
CONTINUOUS
 62
     7
 10
21.79349715860204
 20
109.7497827896634
 30
0.0
 11
28.54349715860204
 21
109.7497827896635
 31
0.0
  0
LINE
  5
61A
  8
0
  6
CONTINUOUS
 62
     7
 10
48.793497158602037
 20
108.5440114237235
 30
0.0
 11
48.793497158602037
 21
109.7497827896635
 31
0.0
  0
LINE
  5
61B
  8
0
  6
CONTINUOUS
 62
     7
 10
42.04349715860203
 20
109.7497827896635
 30
0.0
 11
48.793497158602037
 21
109.7497827896635
 31
0.0
  0
LINE
  5
61C
  8
0
  6
CONTINUOUS
 62
     7
 10
41.293497158602598
 20
32.749782789663527
 30
0.0
 11
29.293497158602548
 21
32.749782789663413
 31
0.0
  0
LINE
  5
61D
  8
0
  6
CONTINUOUS
 62
     7
 10
27.293497158602548
 20
34.749782789663421
 30
0.0
 11
43.293497158602598
 21
34.749782789663527
 31
0.0
  0
LINE
  5
61E
  8
0
  6
CONTINUOUS
 62
     7
 10
43.2934971586022
 20
83.749782789663413
 30
0.0
 11
27.293497158602271
 21
83.749782789663286
 31
0.0
  0
LINE
  5
61F
  8
0
  6
CONTINUOUS
 62
     7
 10
28.543497158602211
 20
84.749782789663314
 30
0.0
 11
42.0434971586022
 21
84.749782789663413
 31
0.0
  0
LINE
  5
620
  8
0
  6
CONTINUOUS
 62
     7
 10
42.04349715860215
 20
86.749782789663399
 30
0.0
 11
28.543497158602211
 21
86.7497827896633
 31
0.0
  0
LINE
  5
621
  8
0
  6
CONTINUOUS
 62
     7
 10
129.32061278213689
 20
48.749782789663421
 30
0.0
 11
131.40907005025679
 21
49.955554155603409
 31
0.0
  0
LINE
  5
622
  8
0
  6
CONTINUOUS
 62
     7
 10
100.23215551401699
 20
49.955554155603522
 30
0.0
 11
102.32061278213691
 21
48.74978278966352
 31
0.0
  0
LINE
  5
623
  8
0
  6
CONTINUOUS
 62
     7
 10
131.4090700502569
 20
57.544011423723298
 30
0.0
 11
129.320612782137
 21
58.749782789663421
 31
0.0
  0
LINE
  5
624
  8
0
  6
CONTINUOUS
 62
     7
 10
102.32061278213691
 20
58.749782789663421
 30
0.0
 11
100.23215551401699
 21
57.544011423723532
 31
0.0
  0
LINE
  5
625
  8
0
  6
CONTINUOUS
 62
     7
 10
107.82061278213681
 20
34.749782789663527
 30
0.0
 11
109.82061278213681
 21
32.749782789663413
 31
0.0
  0
LINE
  5
626
  8
0
  6
CONTINUOUS
 62
     7
 10
121.82061278213691
 20
32.749782789663413
 30
0.0
 11
123.82061278213691
 21
34.749782789663421
 31
0.0
  0
LINE
  5
627
  8
0
  6
CONTINUOUS
 62
     7
 10
123.82061278213691
 20
34.749782789663421
 30
0.0
 11
123.82061278213691
 21
48.749782789663421
 31
0.0
  0
LINE
  5
628
  8
0
  6
CONTINUOUS
 62
     7
 10
123.820612782137
 20
58.749782789663421
 30
0.0
 11
123.8206127821371
 21
83.749782789663413
 31
0.0
  0
LINE
  5
629
  8
0
  6
CONTINUOUS
 62
     7
 10
107.820612782137
 20
83.749782789663413
 30
0.0
 11
107.82061278213691
 21
58.74978278966352
 31
0.0
  0
LINE
  5
62A
  8
0
  6
CONTINUOUS
 62
     7
 10
107.82061278213691
 20
48.74978278966352
 30
0.0
 11
107.82061278213681
 21
34.749782789663527
 31
0.0
  0
ARC
  5
62B
  8
0
  6
CONTINUOUS
 62
     7
 10
123.570612782137
 20
84.749782789663413
 30
0.0
 40
1.0
 50
180.0
 51
270.0
  0
ARC
  5
62C
  8
0
  6
CONTINUOUS
 62
     7
 10
108.070612782137
 20
84.749782789663413
 30
0.0
 40
1.0
 50
270.0
 51
0.0
  0
ARC
  5
62D
  8
0
  6
CONTINUOUS
 62
     7
 10
108.0706127821371
 20
86.749782789663399
 30
0.0
 40
1.0
 50
0.0
 51
90.0
  0
ARC
  5
62E
  8
0
  6
CONTINUOUS
 62
     7
 10
123.570612782137
 20
86.749782789663399
 30
0.0
 40
1.0
 50
90.0
 51
180.0
  0
LINE
  5
62F
  8
0
  6
CONTINUOUS
 62
     7
 10
122.570612782137
 20
84.749782789663413
 30
0.0
 11
122.570612782137
 21
86.749782789663399
 31
0.0
  0
LINE
  5
630
  8
0
  6
CONTINUOUS
 62
     7
 10
109.070612782137
 20
86.749782789663399
 30
0.0
 11
109.070612782137
 21
84.749782789663413
 31
0.0
  0
LINE
  5
631
  8
0
  6
CONTINUOUS
 62
     7
 10
129.32061278213709
 20
87.749782789663286
 30
0.0
 11
131.40907005025699
 21
88.955554155603409
 31
0.0
  0
LINE
  5
632
  8
0
  6
CONTINUOUS
 62
     7
 10
100.23215551401709
 20
88.955554155603522
 30
0.0
 11
102.320612782137
 21
87.749782789663413
 31
0.0
  0
LINE
  5
633
  8
0
  6
CONTINUOUS
 62
     7
 10
131.40907005025699
 20
108.5440114237233
 30
0.0
 11
129.32061278213709
 21
109.7497827896634
 31
0.0
  0
LINE
  5
634
  8
0
  6
CONTINUOUS
 62
     7
 10
102.3206127821371
 20
109.7497827896635
 30
0.0
 11
100.23215551401719
 21
108.5440114237234
 31
0.0
  0
LINE
  5
635
  8
0
  6
CONTINUOUS
 62
     7
 10
115.820612782137
 20
48.74978278966352
 30
0.0
 11
127.5119557332268
 21
48.749782789663421
 31
0.0
  0
POLYLINE
  5
636
  8
0
  6
CONTINUOUS
 62
     7
 66
     1
 10
0.0
 20
0.0
 30
0.0
 70
   128
  0
VERTEX
  5
7F1
  8
0
  6
CONTINUOUS
 62
     7
 10
123.6148414161969
 20
49.955554155603409
 30
0.0
  0
VERTEX
  5
7F2
  8
0
  6
CONTINUOUS
 62
     7
 10
120.8169746694613
 20
49.266463293780703
 30
0.0
  0
VERTEX
  5
7F3
  8
0
  6
CONTINUOUS
 62
     7
 10
119.38711811128771
 20
49.017190884846961
 30
0.0
  0
VERTEX
  5
7F4
  8
0
  6
CONTINUOUS
 62
     7
 10
117.94173409377851
 20
48.845403237782989
 30
0.0
  0
VERTEX
  5
7F5
  8
0
  6
CONTINUOUS
 62
     7
 10
115.820612782137
 20
48.74978278966352
 30
0.0
  0
SEQEND
  5
7F6
  8
0
  6
CONTINUOUS
 62
     7
  0
POLYLINE
  5
637
  8
0
  6
CONTINUOUS
 62
     7
 66
     1
 10
0.0
 20
0.0
 30
0.0
 70
   128
  0
VERTEX
  5
7F7
  8
0
  6
CONTINUOUS
 62
     7
 10
127.5119557332268
 20
48.749782789663421
 30
0.0
  0
VERTEX
  5
7F8
  8
0
  6
CONTINUOUS
 62
     7
 10
127.23477889135771
 20
48.756351294500632
 30
0.0
  0
VERTEX
  5
7F9
  8
0
  6
CONTINUOUS
 62
     7
 10
126.3275761926337
 20
48.868855607056389
 30
0.0
  0
VERTEX
  5
7FA
  8
0
  6
CONTINUOUS
 62
     7
 10
125.4219545668636
 20
49.114851909323761
 30
0.0
  0
VERTEX
  5
7FB
  8
0
  6
CONTINUOUS
 62
     7
 10
124.51402155963061
 20
49.483946681686923
 30
0.0
  0
VERTEX
  5
7FC
  8
0
  6
CONTINUOUS
 62
     7
 10
123.6148414161969
 20
49.955554155603409
 30
0.0
  0
SEQEND
  5
7FD
  8
0
  6
CONTINUOUS
 62
     7
  0
POLYLINE
  5
638
  8
0
  6
CONTINUOUS
 62
     7
 66
     1
 10
0.0
 20
0.0
 30
0.0
 70
   128
  0
VERTEX
  5
7FE
  8
0
  6
CONTINUOUS
 62
     7
 10
115.820612782137
 20
48.74978278966352
 30
0.0
  0
VERTEX
  5
7FF
  8
0
  6
CONTINUOUS
 62
     7
 10
114.3644504792052
 20
48.794993094976689
 30
0.0
  0
VERTEX
  5
800
  8
0
  6
CONTINUOUS
 62
     7
 10
112.9082881762734
 20
48.929086091743208
 30
0.0
  0
VERTEX
  5
801
  8
0
  6
CONTINUOUS
 62
     7
 10
111.4474787514925
 20
49.148524745281406
 30
0.0
  0
VERTEX
  5
802
  8
0
  6
CONTINUOUS
 62
     7
 10
109.9959635704098
 20
49.444302364059133
 30
0.0
  0
VERTEX
  5
803
  8
0
  6
CONTINUOUS
 62
     7
 10
108.026384148077
 20
49.955554155603522
 30
0.0
  0
SEQEND
  5
804
  8
0
  6
CONTINUOUS
 62
     7
  0
LINE
  5
639
  8
0
  6
CONTINUOUS
 62
     7
 10
104.129269831047
 20
48.74978278966352
 30
0.0
 11
115.820612782137
 21
48.74978278966352
 31
0.0
  0
POLYLINE
  5
63A
  8
0
  6
CONTINUOUS
 62
     7
 66
     1
 10
0.0
 20
0.0
 30
0.0
 70
   128
  0
VERTEX
  5
805
  8
0
  6
CONTINUOUS
 62
     7
 10
108.026384148077
 20
49.955554155603522
 30
0.0
  0
VERTEX
  5
806
  8
0
  6
CONTINUOUS
 62
     7
 10
107.0798491259991
 20
49.461898311647701
 30
0.0
  0
VERTEX
  5
807
  8
0
  6
CONTINUOUS
 62
     7
 10
106.117077710562
 20
49.080731500610561
 30
0.0
  0
VERTEX
  5
808
  8
0
  6
CONTINUOUS
 62
     7
 10
105.12972448573611
 20
48.834928878349842
 30
0.0
  0
VERTEX
  5
809
  8
0
  6
CONTINUOUS
 62
     7
 10
104.129269831047
 20
48.74978278966352
 30
0.0
  0
SEQEND
  5
80A
  8
0
  6
CONTINUOUS
 62
     7
  0
LINE
  5
63B
  8
0
  6
CONTINUOUS
 62
     7
 10
123.6148414161969
 20
57.544011423723418
 30
0.0
 11
123.6148414161969
 21
49.955554155603409
 31
0.0
  0
POLYLINE
  5
63C
  8
0
  6
CONTINUOUS
 62
     7
 66
     1
 10
0.0
 20
0.0
 30
0.0
 70
   128
  0
VERTEX
  5
80B
  8
0
  6
CONTINUOUS
 62
     7
 10
123.6148414161969
 20
57.544011423723418
 30
0.0
  0
VERTEX
  5
80C
  8
0
  6
CONTINUOUS
 62
     7
 10
124.56137643827481
 20
58.03766726767936
 30
0.0
  0
VERTEX
  5
80D
  8
0
  6
CONTINUOUS
 62
     7
 10
125.5241478537119
 20
58.418834078716372
 30
0.0
  0
VERTEX
  5
80E
  8
0
  6
CONTINUOUS
 62
     7
 10
126.51150107853771
 20
58.664636700977212
 30
0.0
  0
VERTEX
  5
80F
  8
0
  6
CONTINUOUS
 62
     7
 10
127.5119557332268
 20
58.749782789663421
 30
0.0
  0
SEQEND
  5
810
  8
0
  6
CONTINUOUS
 62
     7
  0
POLYLINE
  5
63D
  8
0
  6
CONTINUOUS
 62
     7
 66
     1
 10
0.0
 20
0.0
 30
0.0
 70
   128
  0
VERTEX
  5
811
  8
0
  6
CONTINUOUS
 62
     7
 10
127.5119557332268
 20
58.749782789663421
 30
0.0
  0
VERTEX
  5
812
  8
0
  6
CONTINUOUS
 62
     7
 10
127.7891325750961
 20
58.743214284826301
 30
0.0
  0
VERTEX
  5
813
  8
0
  6
CONTINUOUS
 62
     7
 10
128.6963352738199
 20
58.630709972270438
 30
0.0
  0
VERTEX
  5
814
  8
0
  6
CONTINUOUS
 62
     7
 10
129.60195689958999
 20
58.384713670003059
 30
0.0
  0
VERTEX
  5
815
  8
0
  6
CONTINUOUS
 62
     7
 10
130.50988990682319
 20
58.015618897639911
 30
0.0
  0
VERTEX
  5
816
  8
0
  6
CONTINUOUS
 62
     7
 10
131.4090700502569
 20
57.544011423723298
 30
0.0
  0
SEQEND
  5
817
  8
0
  6
CONTINUOUS
 62
     7
  0
LINE
  5
63E
  8
0
  6
CONTINUOUS
 62
     7
 10
131.4090700502569
 20
57.544011423723298
 30
0.0
 11
131.40907005025679
 21
49.955554155603409
 31
0.0
  0
POLYLINE
  5
63F
  8
0
  6
CONTINUOUS
 62
     7
 66
     1
 10
0.0
 20
0.0
 30
0.0
 70
   128
  0
VERTEX
  5
818
  8
0
  6
CONTINUOUS
 62
     7
 10
131.40907005025679
 20
49.955554155603409
 30
0.0
  0
VERTEX
  5
819
  8
0
  6
CONTINUOUS
 62
     7
 10
130.46253502817891
 20
49.46189831164758
 30
0.0
  0
VERTEX
  5
81A
  8
0
  6
CONTINUOUS
 62
     7
 10
129.49976361274179
 20
49.080731500610462
 30
0.0
  0
VERTEX
  5
81B
  8
0
  6
CONTINUOUS
 62
     7
 10
128.51241038791591
 20
48.834928878349729
 30
0.0
  0
VERTEX
  5
81C
  8
0
  6
CONTINUOUS
 62
     7
 10
127.5119557332268
 20
48.749782789663421
 30
0.0
  0
SEQEND
  5
81D
  8
0
  6
CONTINUOUS
 62
     7
  0
POLYLINE
  5
640
  8
0
  6
CONTINUOUS
 62
     7
 66
     1
 10
0.0
 20
0.0
 30
0.0
 70
   128
  0
VERTEX
  5
81E
  8
0
  6
CONTINUOUS
 62
     7
 10
104.129269831047
 20
48.74978278966352
 30
0.0
  0
VERTEX
  5
81F
  8
0
  6
CONTINUOUS
 62
     7
 10
103.85209298917781
 20
48.756351294500632
 30
0.0
  0
VERTEX
  5
820
  8
0
  6
CONTINUOUS
 62
     7
 10
102.9448902904539
 20
48.868855607056503
 30
0.0
  0
VERTEX
  5
821
  8
0
  6
CONTINUOUS
 62
     7
 10
102.0392686646838
 20
49.114851909323882
 30
0.0
  0
VERTEX
  5
822
  8
0
  6
CONTINUOUS
 62
     7
 10
101.13133565745071
 20
49.483946681686923
 30
0.0
  0
VERTEX
  5
823
  8
0
  6
CONTINUOUS
 62
     7
 10
100.23215551401699
 20
49.955554155603522
 30
0.0
  0
SEQEND
  5
824
  8
0
  6
CONTINUOUS
 62
     7
  0
LINE
  5
641
  8
0
  6
CONTINUOUS
 62
     7
 10
100.23215551401699
 20
57.544011423723532
 30
0.0
 11
100.23215551401699
 21
49.955554155603522
 31
0.0
  0
POLYLINE
  5
642
  8
0
  6
CONTINUOUS
 62
     7
 66
     1
 10
0.0
 20
0.0
 30
0.0
 70
   128
  0
VERTEX
  5
825
  8
0
  6
CONTINUOUS
 62
     7
 10
100.23215551401699
 20
57.544011423723532
 30
0.0
  0
VERTEX
  5
826
  8
0
  6
CONTINUOUS
 62
     7
 10
101.1786905360949
 20
58.03766726767936
 30
0.0
  0
VERTEX
  5
827
  8
0
  6
CONTINUOUS
 62
     7
 10
102.14146195153209
 20
58.418834078716372
 30
0.0
  0
VERTEX
  5
828
  8
0
  6
CONTINUOUS
 62
     7
 10
103.1288151763579
 20
58.664636700977333
 30
0.0
  0
VERTEX
  5
829
  8
0
  6
CONTINUOUS
 62
     7
 10
104.129269831047
 20
58.74978278966352
 30
0.0
  0
SEQEND
  5
82A
  8
0
  6
CONTINUOUS
 62
     7
  0
POLYLINE
  5
643
  8
0
  6
CONTINUOUS
 62
     7
 66
     1
 10
0.0
 20
0.0
 30
0.0
 70
   128
  0
VERTEX
  5
82B
  8
0
  6
CONTINUOUS
 62
     7
 10
104.129269831047
 20
58.74978278966352
 30
0.0
  0
VERTEX
  5
82C
  8
0
  6
CONTINUOUS
 62
     7
 10
104.4064466729162
 20
58.743214284826422
 30
0.0
  0
VERTEX
  5
82D
  8
0
  6
CONTINUOUS
 62
     7
 10
105.3136493716401
 20
58.630709972270552
 30
0.0
  0
VERTEX
  5
82E
  8
0
  6
CONTINUOUS
 62
     7
 10
106.21927099741021
 20
58.38471367000318
 30
0.0
  0
VERTEX
  5
82F
  8
0
  6
CONTINUOUS
 62
     7
 10
107.1272040046433
 20
58.015618897640017
 30
0.0
  0
VERTEX
  5
830
  8
0
  6
CONTINUOUS
 62
     7
 10
108.026384148077
 20
57.544011423723532
 30
0.0
  0
SEQEND
  5
831
  8
0
  6
CONTINUOUS
 62
     7
  0
LINE
  5
644
  8
0
  6
CONTINUOUS
 62
     7
 10
108.026384148077
 20
57.544011423723532
 30
0.0
 11
108.026384148077
 21
49.955554155603522
 31
0.0
  0
POLYLINE
  5
645
  8
0
  6
CONTINUOUS
 62
     7
 66
     1
 10
0.0
 20
0.0
 30
0.0
 70
   128
  0
VERTEX
  5
832
  8
0
  6
CONTINUOUS
 62
     7
 10
108.026384148077
 20
57.544011423723532
 30
0.0
  0
VERTEX
  5
833
  8
0
  6
CONTINUOUS
 62
     7
 10
109.9959635704099
 20
58.055263215267928
 30
0.0
  0
VERTEX
  5
834
  8
0
  6
CONTINUOUS
 62
     7
 10
111.4251009581883
 20
58.347050112878371
 30
0.0
  0
VERTEX
  5
835
  8
0
  6
CONTINUOUS
 62
     7
 10
112.87092005630549
 20
58.565902057530138
 30
0.0
  0
VERTEX
  5
836
  8
0
  6
CONTINUOUS
 62
     7
 10
114.3401939709875
 20
58.703058253425752
 30
0.0
  0
VERTEX
  5
837
  8
0
  6
CONTINUOUS
 62
     7
 10
115.820612782137
 20
58.749782789663421
 30
0.0
  0
SEQEND
  5
838
  8
0
  6
CONTINUOUS
 62
     7
  0
POLYLINE
  5
646
  8
0
  6
CONTINUOUS
 62
     7
 66
     1
 10
0.0
 20
0.0
 30
0.0
 70
   128
  0
VERTEX
  5
839
  8
0
  6
CONTINUOUS
 62
     7
 10
115.820612782137
 20
58.749782789663421
 30
0.0
  0
VERTEX
  5
83A
  8
0
  6
CONTINUOUS
 62
     7
 10
117.94173409377851
 20
58.654162341544058
 30
0.0
  0
VERTEX
  5
83B
  8
0
  6
CONTINUOUS
 62
     7
 10
119.3697170397848
 20
58.484934945787579
 30
0.0
  0
VERTEX
  5
83C
  8
0
  6
CONTINUOUS
 62
     7
 10
120.7907669564575
 20
58.238342024320779
 30
0.0
  0
VERTEX
  5
83D
  8
0
  6
CONTINUOUS
 62
     7
 10
123.6148414161969
 20
57.544011423723418
 30
0.0
  0
SEQEND
  5
83E
  8
0
  6
CONTINUOUS
 62
     7
  0
LINE
  5
647
  8
0
  6
CONTINUOUS
 62
     7
 10
115.820612782137
 20
58.749782789663421
 30
0.0
 11
127.5119557332268
 21
58.749782789663421
 31
0.0
  0
LINE
  5
648
  8
0
  6
CONTINUOUS
 62
     7
 10
104.129269831047
 20
58.74978278966352
 30
0.0
 11
115.820612782137
 21
58.749782789663421
 31
0.0
  0
LINE
  5
649
  8
0
  6
CONTINUOUS
 62
     7
 10
127.5119557332268
 20
48.749782789663421
 30
0.0
 11
129.32061278213689
 21
48.749782789663421
 31
0.0
  0
LINE
  5
64A
  8
0
  6
CONTINUOUS
 62
     7
 10
102.32061278213691
 20
48.74978278966352
 30
0.0
 11
104.129269831047
 21
48.74978278966352
 31
0.0
  0
LINE
  5
64B
  8
0
  6
CONTINUOUS
 62
     7
 10
127.5119557332268
 20
58.749782789663421
 30
0.0
 11
129.320612782137
 21
58.749782789663421
 31
0.0
  0
LINE
  5
64C
  8
0
  6
CONTINUOUS
 62
     7
 10
102.32061278213691
 20
58.749782789663421
 30
0.0
 11
104.129269831047
 21
58.74978278966352
 31
0.0
  0
LINE
  5
64D
  8
0
  6
CONTINUOUS
 62
     7
 10
115.8206127821371
 20
87.749782789663413
 30
0.0
 11
127.5119557332269
 21
87.749782789663413
 31
0.0
  0
POLYLINE
  5
64E
  8
0
  6
CONTINUOUS
 62
     7
 66
     1
 10
0.0
 20
0.0
 30
0.0
 70
   128
  0
VERTEX
  5
83F
  8
0
  6
CONTINUOUS
 62
     7
 10
123.614841416197
 20
88.955554155603522
 30
0.0
  0
VERTEX
  5
840
  8
0
  6
CONTINUOUS
 62
     7
 10
120.8169746694614
 20
88.266463293780589
 30
0.0
  0
VERTEX
  5
841
  8
0
  6
CONTINUOUS
 62
     7
 10
117.94173409377861
 20
87.845403237782875
 30
0.0
  0
VERTEX
  5
842
  8
0
  6
CONTINUOUS
 62
     7
 10
115.8206127821371
 20
87.749782789663413
 30
0.0
  0
SEQEND
  5
843
  8
0
  6
CONTINUOUS
 62
     7
  0
POLYLINE
  5
64F
  8
0
  6
CONTINUOUS
 62
     7
 66
     1
 10
0.0
 20
0.0
 30
0.0
 70
   128
  0
VERTEX
  5
844
  8
0
  6
CONTINUOUS
 62
     7
 10
127.5119557332269
 20
87.749782789663413
 30
0.0
  0
VERTEX
  5
845
  8
0
  6
CONTINUOUS
 62
     7
 10
127.23477889135781
 20
87.756351294500504
 30
0.0
  0
VERTEX
  5
846
  8
0
  6
CONTINUOUS
 62
     7
 10
126.3275761926339
 20
87.868855607056503
 30
0.0
  0
VERTEX
  5
847
  8
0
  6
CONTINUOUS
 62
     7
 10
125.4219545668638
 20
88.114851909323875
 30
0.0
  0
VERTEX
  5
848
  8
0
  6
CONTINUOUS
 62
     7
 10
124.51402155963071
 20
88.483946681686916
 30
0.0
  0
VERTEX
  5
849
  8
0
  6
CONTINUOUS
 62
     7
 10
123.614841416197
 20
88.955554155603522
 30
0.0
  0
SEQEND
  5
84A
  8
0
  6
CONTINUOUS
 62
     7
  0
POLYLINE
  5
650
  8
0
  6
CONTINUOUS
 62
     7
 66
     1
 10
0.0
 20
0.0
 30
0.0
 70
   128
  0
VERTEX
  5
84B
  8
0
  6
CONTINUOUS
 62
     7
 10
115.8206127821371
 20
87.749782789663413
 30
0.0
  0
VERTEX
  5
84C
  8
0
  6
CONTINUOUS
 62
     7
 10
114.3644504792052
 20
87.794993094976689
 30
0.0
  0
VERTEX
  5
84D
  8
0
  6
CONTINUOUS
 62
     7
 10
112.9082881762735
 20
87.929086091743216
 30
0.0
  0
VERTEX
  5
84E
  8
0
  6
CONTINUOUS
 62
     7
 10
109.99596357041
 20
88.444302364059126
 30
0.0
  0
VERTEX
  5
84F
  8
0
  6
CONTINUOUS
 62
     7
 10
108.0263841480771
 20
88.955554155603636
 30
0.0
  0
SEQEND
  5
850
  8
0
  6
CONTINUOUS
 62
     7
  0
LINE
  5
651
  8
0
  6
CONTINUOUS
 62
     7
 10
104.1292698310471
 20
87.749782789663413
 30
0.0
 11
115.8206127821371
 21
87.749782789663413
 31
0.0
  0
POLYLINE
  5
652
  8
0
  6
CONTINUOUS
 62
     7
 66
     1
 10
0.0
 20
0.0
 30
0.0
 70
   128
  0
VERTEX
  5
851
  8
0
  6
CONTINUOUS
 62
     7
 10
108.0263841480771
 20
88.955554155603636
 30
0.0
  0
VERTEX
  5
852
  8
0
  6
CONTINUOUS
 62
     7
 10
107.0798491259992
 20
88.461898311647687
 30
0.0
  0
VERTEX
  5
853
  8
0
  6
CONTINUOUS
 62
     7
 10
106.1170777105621
 20
88.080731500610668
 30
0.0
  0
VERTEX
  5
854
  8
0
  6
CONTINUOUS
 62
     7
 10
105.1297244857362
 20
87.834928878349714
 30
0.0
  0
VERTEX
  5
855
  8
0
  6
CONTINUOUS
 62
     7
 10
104.1292698310471
 20
87.749782789663413
 30
0.0
  0
SEQEND
  5
856
  8
0
  6
CONTINUOUS
 62
     7
  0
POLYLINE
  5
653
  8
0
  6
CONTINUOUS
 62
     7
 66
     1
 10
0.0
 20
0.0
 30
0.0
 70
   128
  0
VERTEX
  5
857
  8
0
  6
CONTINUOUS
 62
     7
 10
104.1292698310471
 20
87.749782789663413
 30
0.0
  0
VERTEX
  5
858
  8
0
  6
CONTINUOUS
 62
     7
 10
103.8520929891779
 20
87.756351294500647
 30
0.0
  0
VERTEX
  5
859
  8
0
  6
CONTINUOUS
 62
     7
 10
102.9448902904541
 20
87.868855607056503
 30
0.0
  0
VERTEX
  5
85A
  8
0
  6
CONTINUOUS
 62
     7
 10
102.039268664684
 20
88.114851909323875
 30
0.0
  0
VERTEX
  5
85B
  8
0
  6
CONTINUOUS
 62
     7
 10
101.1313356574508
 20
88.48394668168703
 30
0.0
  0
VERTEX
  5
85C
  8
0
  6
CONTINUOUS
 62
     7
 10
100.23215551401709
 20
88.955554155603522
 30
0.0
  0
SEQEND
  5
85D
  8
0
  6
CONTINUOUS
 62
     7
  0
LINE
  5
654
  8
0
  6
CONTINUOUS
 62
     7
 10
100.23215551401719
 20
108.5440114237234
 30
0.0
 11
100.23215551401709
 21
88.955554155603522
 31
0.0
  0
POLYLINE
  5
655
  8
0
  6
CONTINUOUS
 62
     7
 66
     1
 10
0.0
 20
0.0
 30
0.0
 70
   128
  0
VERTEX
  5
85E
  8
0
  6
CONTINUOUS
 62
     7
 10
100.23215551401719
 20
108.5440114237234
 30
0.0
  0
VERTEX
  5
85F
  8
0
  6
CONTINUOUS
 62
     7
 10
101.1786905360951
 20
109.0376672676793
 30
0.0
  0
VERTEX
  5
860
  8
0
  6
CONTINUOUS
 62
     7
 10
102.14146195153219
 20
109.4188340787163
 30
0.0
  0
VERTEX
  5
861
  8
0
  6
CONTINUOUS
 62
     7
 10
103.1288151763581
 20
109.6646367009772
 30
0.0
  0
VERTEX
  5
862
  8
0
  6
CONTINUOUS
 62
     7
 10
104.1292698310472
 20
109.7497827896635
 30
0.0
  0
SEQEND
  5
863
  8
0
  6
CONTINUOUS
 62
     7
  0
POLYLINE
  5
656
  8
0
  6
CONTINUOUS
 62
     7
 66
     1
 10
0.0
 20
0.0
 30
0.0
 70
   128
  0
VERTEX
  5
864
  8
0
  6
CONTINUOUS
 62
     7
 10
104.1292698310472
 20
109.7497827896635
 30
0.0
  0
VERTEX
  5
865
  8
0
  6
CONTINUOUS
 62
     7
 10
104.4064466729164
 20
109.74321428482629
 30
0.0
  0
VERTEX
  5
866
  8
0
  6
CONTINUOUS
 62
     7
 10
105.3136493716402
 20
109.63070997227049
 30
0.0
  0
VERTEX
  5
867
  8
0
  6
CONTINUOUS
 62
     7
 10
106.21927099741031
 20
109.38471367000299
 30
0.0
  0
VERTEX
  5
868
  8
0
  6
CONTINUOUS
 62
     7
 10
107.1272040046435
 20
109.01561889764
 30
0.0
  0
VERTEX
  5
869
  8
0
  6
CONTINUOUS
 62
     7
 10
108.0263841480772
 20
108.5440114237234
 30
0.0
  0
SEQEND
  5
86A
  8
0
  6
CONTINUOUS
 62
     7
  0
LINE
  5
657
  8
0
  6
CONTINUOUS
 62
     7
 10
108.0263841480772
 20
108.5440114237234
 30
0.0
 11
108.0263841480771
 21
88.955554155603636
 31
0.0
  0
POLYLINE
  5
658
  8
0
  6
CONTINUOUS
 62
     7
 66
     1
 10
0.0
 20
0.0
 30
0.0
 70
   128
  0
VERTEX
  5
86B
  8
0
  6
CONTINUOUS
 62
     7
 10
108.0263841480772
 20
108.5440114237234
 30
0.0
  0
VERTEX
  5
86C
  8
0
  6
CONTINUOUS
 62
     7
 10
109.99596357041
 20
109.0552632152679
 30
0.0
  0
VERTEX
  5
86D
  8
0
  6
CONTINUOUS
 62
     7
 10
112.87092005630559
 20
109.5659020575302
 30
0.0
  0
VERTEX
  5
86E
  8
0
  6
CONTINUOUS
 62
     7
 10
114.3401939709876
 20
109.7030582534257
 30
0.0
  0
VERTEX
  5
86F
  8
0
  6
CONTINUOUS
 62
     7
 10
115.8206127821371
 20
109.7497827896635
 30
0.0
  0
SEQEND
  5
870
  8
0
  6
CONTINUOUS
 62
     7
  0
POLYLINE
  5
659
  8
0
  6
CONTINUOUS
 62
     7
 66
     1
 10
0.0
 20
0.0
 30
0.0
 70
   128
  0
VERTEX
  5
871
  8
0
  6
CONTINUOUS
 62
     7
 10
115.8206127821371
 20
109.7497827896635
 30
0.0
  0
VERTEX
  5
872
  8
0
  6
CONTINUOUS
 62
     7
 10
117.94173409377861
 20
109.65416234154399
 30
0.0
  0
VERTEX
  5
873
  8
0
  6
CONTINUOUS
 62
     7
 10
120.7907669564577
 20
109.2383420243209
 30
0.0
  0
VERTEX
  5
874
  8
0
  6
CONTINUOUS
 62
     7
 10
123.61484141619709
 20
108.5440114237234
 30
0.0
  0
SEQEND
  5
875
  8
0
  6
CONTINUOUS
 62
     7
  0
LINE
  5
65A
  8
0
  6
CONTINUOUS
 62
     7
 10
123.61484141619709
 20
108.5440114237234
 30
0.0
 11
123.614841416197
 21
88.955554155603522
 31
0.0
  0
POLYLINE
  5
65B
  8
0
  6
CONTINUOUS
 62
     7
 66
     1
 10
0.0
 20
0.0
 30
0.0
 70
   128
  0
VERTEX
  5
876
  8
0
  6
CONTINUOUS
 62
     7
 10
123.61484141619709
 20
108.5440114237234
 30
0.0
  0
VERTEX
  5
877
  8
0
  6
CONTINUOUS
 62
     7
 10
124.561376438275
 20
109.0376672676792
 30
0.0
  0
VERTEX
  5
878
  8
0
  6
CONTINUOUS
 62
     7
 10
125.52414785371199
 20
109.4188340787162
 30
0.0
  0
VERTEX
  5
879
  8
0
  6
CONTINUOUS
 62
     7
 10
126.511501078538
 20
109.6646367009771
 30
0.0
  0
VERTEX
  5
87A
  8
0
  6
CONTINUOUS
 62
     7
 10
127.511955733227
 20
109.7497827896635
 30
0.0
  0
SEQEND
  5
87B
  8
0
  6
CONTINUOUS
 62
     7
  0
POLYLINE
  5
65C
  8
0
  6
CONTINUOUS
 62
     7
 66
     1
 10
0.0
 20
0.0
 30
0.0
 70
   128
  0
VERTEX
  5
87C
  8
0
  6
CONTINUOUS
 62
     7
 10
127.511955733227
 20
109.7497827896635
 30
0.0
  0
VERTEX
  5
87D
  8
0
  6
CONTINUOUS
 62
     7
 10
127.7891325750962
 20
109.74321428482629
 30
0.0
  0
VERTEX
  5
87E
  8
0
  6
CONTINUOUS
 62
     7
 10
128.69633527382001
 20
109.6307099722704
 30
0.0
  0
VERTEX
  5
87F
  8
0
  6
CONTINUOUS
 62
     7
 10
129.60195689959031
 20
109.3847136700029
 30
0.0
  0
VERTEX
  5
880
  8
0
  6
CONTINUOUS
 62
     7
 10
130.5098899068233
 20
109.0156188976399
 30
0.0
  0
VERTEX
  5
881
  8
0
  6
CONTINUOUS
 62
     7
 10
131.40907005025699
 20
108.5440114237233
 30
0.0
  0
SEQEND
  5
882
  8
0
  6
CONTINUOUS
 62
     7
  0
LINE
  5
65D
  8
0
  6
CONTINUOUS
 62
     7
 10
131.40907005025699
 20
108.5440114237233
 30
0.0
 11
131.40907005025699
 21
88.955554155603409
 31
0.0
  0
POLYLINE
  5
65E
  8
0
  6
CONTINUOUS
 62
     7
 66
     1
 10
0.0
 20
0.0
 30
0.0
 70
   128
  0
VERTEX
  5
883
  8
0
  6
CONTINUOUS
 62
     7
 10
131.40907005025699
 20
88.955554155603409
 30
0.0
  0
VERTEX
  5
884
  8
0
  6
CONTINUOUS
 62
     7
 10
130.4625350281791
 20
88.461898311647587
 30
0.0
  0
VERTEX
  5
885
  8
0
  6
CONTINUOUS
 62
     7
 10
129.4997636127419
 20
88.080731500610568
 30
0.0
  0
VERTEX
  5
886
  8
0
  6
CONTINUOUS
 62
     7
 10
128.51241038791611
 20
87.834928878349714
 30
0.0
  0
VERTEX
  5
887
  8
0
  6
CONTINUOUS
 62
     7
 10
127.5119557332269
 20
87.749782789663413
 30
0.0
  0
SEQEND
  5
888
  8
0
  6
CONTINUOUS
 62
     7
  0
LINE
  5
65F
  8
0
  6
CONTINUOUS
 62
     7
 10
115.8206127821371
 20
109.7497827896635
 30
0.0
 11
127.511955733227
 21
109.7497827896635
 31
0.0
  0
LINE
  5
660
  8
0
  6
CONTINUOUS
 62
     7
 10
104.1292698310472
 20
109.7497827896635
 30
0.0
 11
115.8206127821371
 21
109.7497827896635
 31
0.0
  0
LINE
  5
661
  8
0
  6
CONTINUOUS
 62
     7
 10
115.82061278213691
 20
32.749782789663413
 30
0.0
 11
109.82061278213681
 21
32.749782789663413
 31
0.0
  0
LINE
  5
662
  8
0
  6
CONTINUOUS
 62
     7
 10
121.82061278213691
 20
32.749782789663413
 30
0.0
 11
115.82061278213691
 21
32.749782789663413
 31
0.0
  0
LINE
  5
663
  8
0
  6
CONTINUOUS
 62
     7
 10
115.82061278213691
 20
34.749782789663527
 30
0.0
 11
123.82061278213691
 21
34.749782789663421
 31
0.0
  0
LINE
  5
664
  8
0
  6
CONTINUOUS
 62
     7
 10
107.82061278213681
 20
34.749782789663527
 30
0.0
 11
115.82061278213691
 21
34.749782789663527
 31
0.0
  0
LINE
  5
665
  8
0
  6
CONTINUOUS
 62
     7
 10
123.8206127821371
 20
83.749782789663413
 30
0.0
 11
107.820612782137
 21
83.749782789663413
 31
0.0
  0
LINE
  5
666
  8
0
  6
CONTINUOUS
 62
     7
 10
127.5119557332269
 20
87.749782789663413
 30
0.0
 11
129.32061278213709
 21
87.749782789663286
 31
0.0
  0
LINE
  5
667
  8
0
  6
CONTINUOUS
 62
     7
 10
102.320612782137
 20
87.749782789663413
 30
0.0
 11
104.1292698310471
 21
87.749782789663413
 31
0.0
  0
LINE
  5
668
  8
0
  6
CONTINUOUS
 62
     7
 10
127.511955733227
 20
109.7497827896635
 30
0.0
 11
129.32061278213709
 21
109.7497827896634
 31
0.0
  0
LINE
  5
669
  8
0
  6
CONTINUOUS
 62
     7
 10
102.3206127821371
 20
109.7497827896635
 30
0.0
 11
104.1292698310472
 21
109.7497827896635
 31
0.0
  0
LINE
  5
66A
  8
0
  6
CONTINUOUS
 62
     7
 10
109.070612782137
 20
84.749782789663413
 30
0.0
 11
122.570612782137
 21
84.749782789663413
 31
0.0
  0
LINE
  5
66B
  8
0
  6
CONTINUOUS
 62
     7
 10
115.8206127821371
 20
86.749782789663399
 30
0.0
 11
109.070612782137
 21
86.749782789663399
 31
0.0
  0
LINE
  5
66C
  8
0
  6
CONTINUOUS
 62
     7
 10
122.570612782137
 20
86.749782789663399
 30
0.0
 11
115.8206127821371
 21
86.749782789663399
 31
0.0
  0
TEXT
  5
725
  8
0
 62
     3
 10
0.0
 20
0.0
 30
0.0
 40
10.0
  1
BJ332-16055
  7
STANDARD1
  0
ENDSEC
  0
EOF
